ISO-10303-21;
HEADER;
/****************************************************************
 * Generated by software with PDElib inside                    *
 * PDElib Version v51a, created Fri 09/10/2010                  *
 * ITI Transcendata (http://www.transcendata.com/)              *
 ****************************************************************/
FILE_DESCRIPTION((' '),'2;1');
FILE_NAME('L:\\General\\For Claudia\\web change requests\\Autocad updates\\KT7\\KT7-HTN_3D.stp','2012-04-03T16:42:37',(' '),(' '),' ','ACIS',' ');
FILE_SCHEMA(('CONFIG_CONTROL_DESIGN'));
ENDSEC;
DATA;
#5=APPLICATION_CONTEXT('configuration controlled 3D designs of mechanical parts and assemblies');
#6=APPLICATION_PROTOCOL_DEFINITION('International Standard','config_control_design',1995,#5);
#7=MECHANICAL_CONTEXT('None',#5,'mechanical');
#8=PRODUCT('L:\\General\\For Claudia\\web change requests\\Autocad updates\\KT7\\KT7-HTN_3D.stp','L:\\General\\For Claudia\\web change requests\\Autocad updates\\KT7\\KT7-HTN_3D.stp','None',(#7));
#9=PRODUCT_RELATED_PRODUCT_CATEGORY('detail',$,(#8));
#10=PRODUCT_CATEGORY('part',$);
#11=PRODUCT_CATEGORY_RELATIONSHIP('None','None',#10,#9);
#12=PERSON('PERSON1','None','None',$,$,$);
#13=ORGANIZATION('','None','None');
#14=PERSON_AND_ORGANIZATION(#12,#13);
#15=PERSON_AND_ORGANIZATION_ROLE('design_owner');
#16=CC_DESIGN_PERSON_AND_ORGANIZATION_ASSIGNMENT(#14,#15,(#8));
#17=PRODUCT_DEFINITION_FORMATION_WITH_SPECIFIED_SOURCE('None','None',#8,.NOT_KNOWN.);
#18=PERSON('PERSON2','None','None',$,$,$);
#19=ORGANIZATION('','None','None');
#20=PERSON_AND_ORGANIZATION(#18,#19);
#21=PERSON_AND_ORGANIZATION_ROLE('creator');
#22=CC_DESIGN_PERSON_AND_ORGANIZATION_ASSIGNMENT(#20,#21,(#17));
#23=PERSON('PERSON3','None','None',$,$,$);
#24=ORGANIZATION('','None','None');
#25=PERSON_AND_ORGANIZATION(#23,#24);
#26=PERSON_AND_ORGANIZATION_ROLE('part_supplier');
#27=CC_DESIGN_PERSON_AND_ORGANIZATION_ASSIGNMENT(#25,#26,(#17));
#28=APPROVAL_STATUS('approved');
#29=APPROVAL(#28,'None');
#30=PERSON('PERSON4','None','None',$,$,$);
#31=ORGANIZATION('','None','None');
#32=PERSON_AND_ORGANIZATION(#30,#31);
#33=APPROVAL_ROLE('None');
#34=APPROVAL_PERSON_ORGANIZATION(#32,#29,#33);
#35=CALENDAR_DATE(2012,3,4);
#36=COORDINATED_UNIVERSAL_TIME_OFFSET(0,0,.AHEAD.);
#37=LOCAL_TIME(16,42,37.0,#36);
#38=DATE_AND_TIME(#35,#37);
#39=APPROVAL_DATE_TIME(#38,#29);
#40=CC_DESIGN_APPROVAL(#29,(#17));
#41=SECURITY_CLASSIFICATION_LEVEL('unclassified');
#42=SECURITY_CLASSIFICATION('None','None',#41);
#43=CC_DESIGN_SECURITY_CLASSIFICATION(#42,(#17));
#44=APPROVAL_STATUS('approved');
#45=APPROVAL(#44,'None');
#46=PERSON('PERSON5','None','None',$,$,$);
#47=ORGANIZATION('','None','None');
#48=PERSON_AND_ORGANIZATION(#46,#47);
#49=APPROVAL_ROLE('None');
#50=APPROVAL_PERSON_ORGANIZATION(#48,#45,#49);
#51=CALENDAR_DATE(2012,3,4);
#52=COORDINATED_UNIVERSAL_TIME_OFFSET(0,0,.AHEAD.);
#53=LOCAL_TIME(16,42,37.0,#52);
#54=DATE_AND_TIME(#51,#53);
#55=APPROVAL_DATE_TIME(#54,#45);
#56=CC_DESIGN_APPROVAL(#45,(#42));
#57=PERSON('PERSON6','None','None',$,$,$);
#58=ORGANIZATION('','None','None');
#59=PERSON_AND_ORGANIZATION(#57,#58);
#60=PERSON_AND_ORGANIZATION_ROLE('classification_officer');
#61=CC_DESIGN_PERSON_AND_ORGANIZATION_ASSIGNMENT(#59,#60,(#42));
#62=DATE_TIME_ROLE('classification_date');
#63=CALENDAR_DATE(2012,3,4);
#64=COORDINATED_UNIVERSAL_TIME_OFFSET(0,0,.AHEAD.);
#65=LOCAL_TIME(16,42,37.0,#64);
#66=DATE_AND_TIME(#63,#65);
#67=CC_DESIGN_DATE_AND_TIME_ASSIGNMENT(#66,#62,(#42));
#68=DESIGN_CONTEXT('part definition',#5,'design');
#69=PRODUCT_DEFINITION('None','None',#17,#68);
#70=PERSON('PERSON7','None','None',$,$,$);
#71=ORGANIZATION('','None','None');
#72=PERSON_AND_ORGANIZATION(#70,#71);
#73=PERSON_AND_ORGANIZATION_ROLE('creator');
#74=CC_DESIGN_PERSON_AND_ORGANIZATION_ASSIGNMENT(#72,#73,(#69));
#75=DATE_TIME_ROLE('creation_date');
#76=CALENDAR_DATE(2012,3,4);
#77=COORDINATED_UNIVERSAL_TIME_OFFSET(0,0,.AHEAD.);
#78=LOCAL_TIME(16,42,37.0,#77);
#79=DATE_AND_TIME(#76,#78);
#80=CC_DESIGN_DATE_AND_TIME_ASSIGNMENT(#79,#75,(#69));
#81=APPROVAL_STATUS('approved');
#82=APPROVAL(#81,'None');
#83=PERSON('PERSON8','None','None',$,$,$);
#84=ORGANIZATION('','None','None');
#85=PERSON_AND_ORGANIZATION(#83,#84);
#86=APPROVAL_ROLE('None');
#87=APPROVAL_PERSON_ORGANIZATION(#85,#82,#86);
#88=CALENDAR_DATE(2012,3,4);
#89=COORDINATED_UNIVERSAL_TIME_OFFSET(0,0,.AHEAD.);
#90=LOCAL_TIME(16,42,37.0,#89);
#91=DATE_AND_TIME(#88,#90);
#92=APPROVAL_DATE_TIME(#91,#82);
#93=CC_DESIGN_APPROVAL(#82,(#69));
#99=(NAMED_UNIT(*)PLANE_ANGLE_UNIT()SI_UNIT($,.RADIAN.));
#100=DIMENSIONAL_EXPONENTS(0.0,0.0,0.0,0.0,0.0,0.0,0.0);
#101=PLANE_ANGLE_MEASURE_WITH_UNIT(PLANE_ANGLE_MEASURE(0.0174532925),#99);
#105=(CONVERSION_BASED_UNIT('DEGREE',#101)NAMED_UNIT(#100)PLANE_ANGLE_UNIT());
#109=(NAMED_UNIT(*)SI_UNIT($,.STERADIAN.)SOLID_ANGLE_UNIT());
#113=(LENGTH_UNIT()NAMED_UNIT(*)SI_UNIT(.MILLI.,.METRE.));
#115=UNCERTAINTY_MEASURE_WITH_UNIT(LENGTH_MEASURE(0.001),#113,'DISTANCE_ACCURACY_VALUE','');
#117=(GEOMETRIC_REPRESENTATION_CONTEXT(3)GLOBAL_UNCERTAINTY_ASSIGNED_CONTEXT((#115))GLOBAL_UNIT_ASSIGNED_CONTEXT((#105,#109,#113))REPRESENTATION_CONTEXT('None','None'));
#118=AXIS2_PLACEMENT_3D('',#119,#120,#121);
#119=CARTESIAN_POINT('',(0.0,0.0,0.0));
#120=DIRECTION('',(0.0,0.0,1.0));
#121=DIRECTION('',(1.0,0.0,0.0));
#122=SHAPE_REPRESENTATION('',(#118),#117);
#123=PRODUCT_DEFINITION_SHAPE('','',#69);
#124=SHAPE_DEFINITION_REPRESENTATION(#123,#122);
#130=(NAMED_UNIT(*)PLANE_ANGLE_UNIT()SI_UNIT($,.RADIAN.));
#131=DIMENSIONAL_EXPONENTS(0.0,0.0,0.0,0.0,0.0,0.0,0.0);
#132=PLANE_ANGLE_MEASURE_WITH_UNIT(PLANE_ANGLE_MEASURE(0.0174532925),#130);
#136=(CONVERSION_BASED_UNIT('DEGREE',#132)NAMED_UNIT(#131)PLANE_ANGLE_UNIT());
#140=(NAMED_UNIT(*)SI_UNIT($,.STERADIAN.)SOLID_ANGLE_UNIT());
#144=(LENGTH_UNIT()NAMED_UNIT(*)SI_UNIT(.CENTI.,.METRE.));
#146=UNCERTAINTY_MEASURE_WITH_UNIT(LENGTH_MEASURE(0.000001),#144,'DISTANCE_ACCURACY_VALUE','');
#148=(GEOMETRIC_REPRESENTATION_CONTEXT(3)GLOBAL_UNCERTAINTY_ASSIGNED_CONTEXT((#146))GLOBAL_UNIT_ASSIGNED_CONTEXT((#136,#140,#144))REPRESENTATION_CONTEXT('','3D'));
#149=CARTESIAN_POINT('',(323.75,-323.75,160.0));
#150=DIRECTION('',(0.0,0.0,-1.0));
#151=DIRECTION('',(0.0,-1.0,0.0));
#152=AXIS2_PLACEMENT_3D('',#149,#150,#151);
#153=PLANE('',#152);
#154=CARTESIAN_POINT('',(323.75,-323.75,160.0));
#155=VERTEX_POINT('',#154);
#156=CARTESIAN_POINT('',(-323.75,-323.75,160.0));
#157=VERTEX_POINT('',#156);
#158=CARTESIAN_POINT('',(323.75,-323.75000000000006,160.0));
#159=DIRECTION('',(-1.0,0.0,0.0));
#160=VECTOR('',#159,647.5);
#161=LINE('',#158,#160);
#162=EDGE_CURVE('',#155,#157,#161,.T.);
#163=ORIENTED_EDGE('',*,*,#162,.F.);
#164=CARTESIAN_POINT('',(323.75,323.75,160.0));
#165=VERTEX_POINT('',#164);
#166=CARTESIAN_POINT('',(323.75000000000006,323.75,160.0));
#167=DIRECTION('',(0.0,-1.0,0.0));
#168=VECTOR('',#167,647.5);
#169=LINE('',#166,#168);
#170=EDGE_CURVE('',#165,#155,#169,.T.);
#171=ORIENTED_EDGE('',*,*,#170,.F.);
#172=CARTESIAN_POINT('',(-323.75,323.75,160.0));
#173=VERTEX_POINT('',#172);
#174=CARTESIAN_POINT('',(-323.75,323.75000000000006,160.0));
#175=DIRECTION('',(1.0,0.0,0.0));
#176=VECTOR('',#175,647.5);
#177=LINE('',#174,#176);
#178=EDGE_CURVE('',#173,#165,#177,.T.);
#179=ORIENTED_EDGE('',*,*,#178,.F.);
#180=CARTESIAN_POINT('',(-323.75000000000006,-323.75,160.0));
#181=DIRECTION('',(0.0,1.0,0.0));
#182=VECTOR('',#181,647.5);
#183=LINE('',#180,#182);
#184=EDGE_CURVE('',#157,#173,#183,.T.);
#185=ORIENTED_EDGE('',*,*,#184,.F.);
#186=EDGE_LOOP('',(#163,#171,#179,#185));
#187=FACE_OUTER_BOUND('',#186,.T.);
#188=CARTESIAN_POINT('',(78.749999999999986,-210.76868244594593,160.0));
#189=VERTEX_POINT('',#188);
#190=CARTESIAN_POINT('',(-78.750000000000014,-210.76868244594593,160.0));
#191=VERTEX_POINT('',#190);
#192=CARTESIAN_POINT('',(0.0,0.0,160.0));
#193=DIRECTION('',(0.0,0.0,1.0));
#194=DIRECTION('',(0.0,1.0,0.0));
#195=AXIS2_PLACEMENT_3D('',#192,#193,#194);
#196=CIRCLE('',#195,225.0);
#197=EDGE_CURVE('',#189,#191,#196,.T.);
#198=ORIENTED_EDGE('',*,*,#197,.F.);
#199=CARTESIAN_POINT('',(78.749999999999986,-262.5,160.0));
#200=VERTEX_POINT('',#199);
#201=CARTESIAN_POINT('',(78.749999999999986,-262.5,160.0));
#202=DIRECTION('',(0.0,1.0,0.0));
#203=VECTOR('',#202,51.731317554054073);
#204=LINE('',#201,#203);
#205=EDGE_CURVE('',#200,#189,#204,.T.);
#206=ORIENTED_EDGE('',*,*,#205,.F.);
#207=CARTESIAN_POINT('',(-78.750000000000014,-262.5,160.0));
#208=VERTEX_POINT('',#207);
#209=CARTESIAN_POINT('',(-78.750000000000014,-262.5,160.0));
#210=DIRECTION('',(1.0,0.0,0.0));
#211=VECTOR('',#210,157.5);
#212=LINE('',#209,#211);
#213=EDGE_CURVE('',#208,#200,#212,.T.);
#214=ORIENTED_EDGE('',*,*,#213,.F.);
#215=CARTESIAN_POINT('',(-78.750000000000014,-210.76868244594596,160.0));
#216=DIRECTION('',(0.0,-1.0,0.0));
#217=VECTOR('',#216,51.731317554054044);
#218=LINE('',#215,#217);
#219=EDGE_CURVE('',#191,#208,#218,.T.);
#220=ORIENTED_EDGE('',*,*,#219,.F.);
#221=EDGE_LOOP('',(#198,#206,#214,#220));
#222=FACE_BOUND('',#221,.T.);
#223=ADVANCED_FACE('',(#187,#222),#153,.F.);
#224=CARTESIAN_POINT('',(0.0,0.0,-53.5));
#225=DIRECTION('',(0.0,0.0,1.0));
#226=DIRECTION('',(0.0,1.0,0.0));
#227=AXIS2_PLACEMENT_3D('',#224,#225,#226);
#228=CYLINDRICAL_SURFACE('',#227,160.5);
#229=CARTESIAN_POINT('',(9.827466E-015,160.5,59.500000000000014));
#230=VERTEX_POINT('',#229);
#231=CARTESIAN_POINT('',(0.0,0.0,59.500000000000014));
#232=DIRECTION('',(0.0,0.0,-1.0));
#233=DIRECTION('',(0.0,1.0,0.0));
#234=AXIS2_PLACEMENT_3D('',#231,#232,#233);
#235=CIRCLE('',#234,160.5);
#236=EDGE_CURVE('',#230,#230,#235,.T.);
#237=ORIENTED_EDGE('',*,*,#236,.F.);
#238=EDGE_LOOP('',(#237));
#239=FACE_OUTER_BOUND('',#238,.T.);
#240=CARTESIAN_POINT('',(9.827466E-015,160.5,-53.5));
#241=VERTEX_POINT('',#240);
#242=CARTESIAN_POINT('',(0.0,0.0,-53.5));
#243=DIRECTION('',(0.0,0.0,1.0));
#244=DIRECTION('',(0.0,1.0,0.0));
#245=AXIS2_PLACEMENT_3D('',#242,#243,#244);
#246=CIRCLE('',#245,160.5);
#247=EDGE_CURVE('',#241,#241,#246,.T.);
#248=ORIENTED_EDGE('',*,*,#247,.F.);
#249=EDGE_LOOP('',(#248));
#250=FACE_BOUND('',#249,.T.);
#251=ADVANCED_FACE('',(#239,#250),#228,.F.);
#252=CARTESIAN_POINT('',(9.827466E-015,160.5,59.500000000000014));
#253=DIRECTION('',(0.0,0.0,1.0));
#254=DIRECTION('',(0.0,1.0,0.0));
#255=AXIS2_PLACEMENT_3D('',#252,#253,#254);
#256=PLANE('',#255);
#257=ORIENTED_EDGE('',*,*,#236,.T.);
#258=EDGE_LOOP('',(#257));
#259=FACE_OUTER_BOUND('',#258,.T.);
#260=ADVANCED_FACE('',(#259),#256,.F.);
#261=CARTESIAN_POINT('',(0.0,0.0,-53.5));
#262=DIRECTION('',(0.0,0.0,1.0));
#263=DIRECTION('',(0.0,1.0,0.0));
#264=AXIS2_PLACEMENT_3D('',#261,#262,#263);
#265=CYLINDRICAL_SURFACE('',#264,173.0);
#266=CARTESIAN_POINT('',(1.059284E-014,173.0,0.0));
#267=VERTEX_POINT('',#266);
#268=CARTESIAN_POINT('',(0.0,0.0,0.0));
#269=DIRECTION('',(0.0,0.0,1.0));
#270=DIRECTION('',(0.0,1.0,0.0));
#271=AXIS2_PLACEMENT_3D('',#268,#269,#270);
#272=CIRCLE('',#271,173.0);
#273=EDGE_CURVE('',#267,#267,#272,.T.);
#274=ORIENTED_EDGE('',*,*,#273,.F.);
#275=EDGE_LOOP('',(#274));
#276=FACE_OUTER_BOUND('',#275,.T.);
#277=CARTESIAN_POINT('',(1.059284E-014,173.0,-53.5));
#278=VERTEX_POINT('',#277);
#279=CARTESIAN_POINT('',(0.0,0.0,-53.5));
#280=DIRECTION('',(0.0,0.0,1.0));
#281=DIRECTION('',(0.0,1.0,0.0));
#282=AXIS2_PLACEMENT_3D('',#279,#280,#281);
#283=CIRCLE('',#282,173.0);
#284=EDGE_CURVE('',#278,#278,#283,.T.);
#285=ORIENTED_EDGE('',*,*,#284,.T.);
#286=EDGE_LOOP('',(#285));
#287=FACE_BOUND('',#286,.T.);
#288=ADVANCED_FACE('',(#276,#287),#265,.T.);
#289=CARTESIAN_POINT('',(4.026409E-013,2.309264E-013,-53.5));
#290=DIRECTION('',(0.0,0.0,1.0));
#291=DIRECTION('',(0.0,1.0,0.0));
#292=AXIS2_PLACEMENT_3D('',#289,#290,#291);
#293=PLANE('',#292);
#294=ORIENTED_EDGE('',*,*,#284,.F.);
#295=EDGE_LOOP('',(#294));
#296=FACE_OUTER_BOUND('',#295,.T.);
#297=ORIENTED_EDGE('',*,*,#247,.T.);
#298=EDGE_LOOP('',(#297));
#299=FACE_BOUND('',#298,.T.);
#300=ADVANCED_FACE('',(#296,#299),#293,.F.);
#301=CARTESIAN_POINT('',(323.75,-323.75,0.0));
#302=DIRECTION('',(0.0,-1.0,0.0));
#303=DIRECTION('',(0.0,0.0,1.0));
#304=AXIS2_PLACEMENT_3D('',#301,#302,#303);
#305=PLANE('',#304);
#306=ORIENTED_EDGE('',*,*,#162,.T.);
#307=CARTESIAN_POINT('',(-323.75,-323.75,0.0));
#308=VERTEX_POINT('',#307);
#309=CARTESIAN_POINT('',(-323.75,-323.75,0.0));
#310=DIRECTION('',(0.0,0.0,1.0));
#311=VECTOR('',#310,160.0);
#312=LINE('',#309,#311);
#313=EDGE_CURVE('',#308,#157,#312,.T.);
#314=ORIENTED_EDGE('',*,*,#313,.F.);
#315=CARTESIAN_POINT('',(323.75,-323.75,0.0));
#316=VERTEX_POINT('',#315);
#317=CARTESIAN_POINT('',(-323.75,-323.75,0.0));
#318=DIRECTION('',(1.0,0.0,0.0));
#319=VECTOR('',#318,647.5);
#320=LINE('',#317,#319);
#321=EDGE_CURVE('',#308,#316,#320,.T.);
#322=ORIENTED_EDGE('',*,*,#321,.T.);
#323=CARTESIAN_POINT('',(323.75,-323.75,0.0));
#324=DIRECTION('',(0.0,0.0,1.0));
#325=VECTOR('',#324,160.0);
#326=LINE('',#323,#325);
#327=EDGE_CURVE('',#316,#155,#326,.T.);
#328=ORIENTED_EDGE('',*,*,#327,.T.);
#329=EDGE_LOOP('',(#306,#314,#322,#328));
#330=FACE_OUTER_BOUND('',#329,.T.);
#331=ADVANCED_FACE('',(#330),#305,.T.);
#332=CARTESIAN_POINT('',(-323.75,-323.75,0.0));
#333=DIRECTION('',(-1.0,0.0,0.0));
#334=DIRECTION('',(0.0,0.0,1.0));
#335=AXIS2_PLACEMENT_3D('',#332,#333,#334);
#336=PLANE('',#335);
#337=ORIENTED_EDGE('',*,*,#184,.T.);
#338=CARTESIAN_POINT('',(-323.75,323.75,0.0));
#339=VERTEX_POINT('',#338);
#340=CARTESIAN_POINT('',(-323.75,323.75,0.0));
#341=DIRECTION('',(0.0,0.0,1.0));
#342=VECTOR('',#341,160.0);
#343=LINE('',#340,#342);
#344=EDGE_CURVE('',#339,#173,#343,.T.);
#345=ORIENTED_EDGE('',*,*,#344,.F.);
#346=CARTESIAN_POINT('',(-323.75,323.75,0.0));
#347=DIRECTION('',(0.0,-1.0,0.0));
#348=VECTOR('',#347,647.5);
#349=LINE('',#346,#348);
#350=EDGE_CURVE('',#339,#308,#349,.T.);
#351=ORIENTED_EDGE('',*,*,#350,.T.);
#352=ORIENTED_EDGE('',*,*,#313,.T.);
#353=EDGE_LOOP('',(#337,#345,#351,#352));
#354=FACE_OUTER_BOUND('',#353,.T.);
#355=ADVANCED_FACE('',(#354),#336,.T.);
#356=CARTESIAN_POINT('',(-323.75,323.75,0.0));
#357=DIRECTION('',(0.0,1.0,0.0));
#358=DIRECTION('',(0.0,0.0,-1.0));
#359=AXIS2_PLACEMENT_3D('',#356,#357,#358);
#360=PLANE('',#359);
#361=ORIENTED_EDGE('',*,*,#178,.T.);
#362=CARTESIAN_POINT('',(323.75,323.75,0.0));
#363=VERTEX_POINT('',#362);
#364=CARTESIAN_POINT('',(323.75,323.75,0.0));
#365=DIRECTION('',(0.0,0.0,1.0));
#366=VECTOR('',#365,160.0);
#367=LINE('',#364,#366);
#368=EDGE_CURVE('',#363,#165,#367,.T.);
#369=ORIENTED_EDGE('',*,*,#368,.F.);
#370=CARTESIAN_POINT('',(323.75,323.75,0.0));
#371=DIRECTION('',(-1.0,0.0,0.0));
#372=VECTOR('',#371,647.5);
#373=LINE('',#370,#372);
#374=EDGE_CURVE('',#363,#339,#373,.T.);
#375=ORIENTED_EDGE('',*,*,#374,.T.);
#376=ORIENTED_EDGE('',*,*,#344,.T.);
#377=EDGE_LOOP('',(#361,#369,#375,#376));
#378=FACE_OUTER_BOUND('',#377,.T.);
#379=ADVANCED_FACE('',(#378),#360,.T.);
#380=CARTESIAN_POINT('',(323.75,323.75,0.0));
#381=DIRECTION('',(1.0,0.0,0.0));
#382=DIRECTION('',(0.0,0.0,-1.0));
#383=AXIS2_PLACEMENT_3D('',#380,#381,#382);
#384=PLANE('',#383);
#385=ORIENTED_EDGE('',*,*,#170,.T.);
#386=ORIENTED_EDGE('',*,*,#327,.F.);
#387=CARTESIAN_POINT('',(323.75,-323.75,0.0));
#388=DIRECTION('',(0.0,1.0,0.0));
#389=VECTOR('',#388,647.5);
#390=LINE('',#387,#389);
#391=EDGE_CURVE('',#316,#363,#390,.T.);
#392=ORIENTED_EDGE('',*,*,#391,.T.);
#393=ORIENTED_EDGE('',*,*,#368,.T.);
#394=EDGE_LOOP('',(#385,#386,#392,#393));
#395=FACE_OUTER_BOUND('',#394,.T.);
#396=ADVANCED_FACE('',(#395),#384,.T.);
#397=CARTESIAN_POINT('',(0.0,0.0,0.0));
#398=DIRECTION('',(0.0,0.0,-1.0));
#399=DIRECTION('',(0.0,-1.0,0.0));
#400=AXIS2_PLACEMENT_3D('',#397,#398,#399);
#401=PLANE('',#400);
#402=ORIENTED_EDGE('',*,*,#391,.F.);
#403=ORIENTED_EDGE('',*,*,#321,.F.);
#404=ORIENTED_EDGE('',*,*,#350,.F.);
#405=ORIENTED_EDGE('',*,*,#374,.F.);
#406=EDGE_LOOP('',(#402,#403,#404,#405));
#407=FACE_OUTER_BOUND('',#406,.T.);
#408=ORIENTED_EDGE('',*,*,#273,.T.);
#409=EDGE_LOOP('',(#408));
#410=FACE_BOUND('',#409,.T.);
#411=ADVANCED_FACE('',(#407,#410),#401,.T.);
#412=CARTESIAN_POINT('',(1.377682E-014,225.0,318.00000000000006));
#413=DIRECTION('',(0.0,0.0,1.0));
#414=DIRECTION('',(0.0,1.0,0.0));
#415=AXIS2_PLACEMENT_3D('',#412,#413,#414);
#416=PLANE('',#415);
#417=CARTESIAN_POINT('',(-78.749999999999986,210.0,318.00000000000006));
#418=VERTEX_POINT('',#417);
#419=CARTESIAN_POINT('',(-78.750000000000014,-210.76868244594593,318.00000000000006));
#420=VERTEX_POINT('',#419);
#421=CARTESIAN_POINT('',(-78.749999999999986,210.0,318.00000000000006));
#422=DIRECTION('',(0.0,-1.0,0.0));
#423=VECTOR('',#422,420.76868244594596);
#424=LINE('',#421,#423);
#425=EDGE_CURVE('',#418,#420,#424,.T.);
#426=ORIENTED_EDGE('',*,*,#425,.F.);
#427=CARTESIAN_POINT('',(78.750000000000014,210.0,318.00000000000006));
#428=VERTEX_POINT('',#427);
#429=CARTESIAN_POINT('',(78.750000000000014,210.0,318.00000000000006));
#430=DIRECTION('',(-1.0,0.0,0.0));
#431=VECTOR('',#430,157.5);
#432=LINE('',#429,#431);
#433=EDGE_CURVE('',#428,#418,#432,.T.);
#434=ORIENTED_EDGE('',*,*,#433,.F.);
#435=CARTESIAN_POINT('',(78.749999999999986,-210.76868244594593,318.00000000000006));
#436=VERTEX_POINT('',#435);
#437=CARTESIAN_POINT('',(78.749999999999986,-210.76868244594596,318.00000000000006));
#438=DIRECTION('',(0.0,1.0,0.0));
#439=VECTOR('',#438,420.76868244594596);
#440=LINE('',#437,#439);
#441=EDGE_CURVE('',#436,#428,#440,.T.);
#442=ORIENTED_EDGE('',*,*,#441,.F.);
#443=CARTESIAN_POINT('',(0.0,0.0,318.00000000000006));
#444=DIRECTION('',(0.0,0.0,-1.0));
#445=DIRECTION('',(0.0,1.0,0.0));
#446=AXIS2_PLACEMENT_3D('',#443,#444,#445);
#447=CIRCLE('',#446,225.0);
#448=EDGE_CURVE('',#420,#436,#447,.T.);
#449=ORIENTED_EDGE('',*,*,#448,.F.);
#450=EDGE_LOOP('',(#426,#434,#442,#449));
#451=FACE_OUTER_BOUND('',#450,.T.);
#452=ADVANCED_FACE('',(#451),#416,.T.);
#453=CARTESIAN_POINT('',(0.0,0.0,160.0));
#454=DIRECTION('',(0.0,0.0,1.0));
#455=DIRECTION('',(0.0,1.0,0.0));
#456=AXIS2_PLACEMENT_3D('',#453,#454,#455);
#457=CYLINDRICAL_SURFACE('',#456,225.0);
#458=CARTESIAN_POINT('',(-78.750000000000014,-210.76868244594593,318.00000000000006));
#459=DIRECTION('',(0.0,0.0,-1.0));
#460=VECTOR('',#459,158.00000000000006);
#461=LINE('',#458,#460);
#462=EDGE_CURVE('',#420,#191,#461,.T.);
#463=ORIENTED_EDGE('',*,*,#462,.F.);
#464=ORIENTED_EDGE('',*,*,#448,.T.);
#465=CARTESIAN_POINT('',(78.749999999999986,-210.76868244594593,160.0));
#466=DIRECTION('',(0.0,0.0,1.0));
#467=VECTOR('',#466,158.00000000000006);
#468=LINE('',#465,#467);
#469=EDGE_CURVE('',#189,#436,#468,.T.);
#470=ORIENTED_EDGE('',*,*,#469,.F.);
#471=ORIENTED_EDGE('',*,*,#197,.T.);
#472=EDGE_LOOP('',(#463,#464,#470,#471));
#473=FACE_OUTER_BOUND('',#472,.T.);
#474=ADVANCED_FACE('',(#473),#457,.T.);
#475=CARTESIAN_POINT('',(-78.750000000000014,-262.5,160.0));
#476=DIRECTION('',(-1.0,0.0,0.0));
#477=DIRECTION('',(0.0,0.0,1.0));
#478=AXIS2_PLACEMENT_3D('',#475,#476,#477);
#479=PLANE('',#478);
#480=ORIENTED_EDGE('',*,*,#425,.T.);
#481=ORIENTED_EDGE('',*,*,#462,.T.);
#482=ORIENTED_EDGE('',*,*,#219,.T.);
#483=CARTESIAN_POINT('',(-78.750000000000014,-262.5,592.5));
#484=VERTEX_POINT('',#483);
#485=CARTESIAN_POINT('',(-78.750000000000014,-262.5,160.0));
#486=DIRECTION('',(0.0,0.0,1.0));
#487=VECTOR('',#486,432.5);
#488=LINE('',#485,#487);
#489=EDGE_CURVE('',#208,#484,#488,.T.);
#490=ORIENTED_EDGE('',*,*,#489,.T.);
#491=CARTESIAN_POINT('',(-78.749999999999986,210.0,592.5));
#492=VERTEX_POINT('',#491);
#493=CARTESIAN_POINT('',(-78.750000000000014,-262.5,592.5));
#494=DIRECTION('',(0.0,1.0,0.0));
#495=VECTOR('',#494,472.5);
#496=LINE('',#493,#495);
#497=EDGE_CURVE('',#484,#492,#496,.T.);
#498=ORIENTED_EDGE('',*,*,#497,.T.);
#499=CARTESIAN_POINT('',(-78.749999999999986,210.0,318.00000000000006));
#500=DIRECTION('',(0.0,0.0,1.0));
#501=VECTOR('',#500,274.49999999999994);
#502=LINE('',#499,#501);
#503=EDGE_CURVE('',#418,#492,#502,.T.);
#504=ORIENTED_EDGE('',*,*,#503,.F.);
#505=EDGE_LOOP('',(#480,#481,#482,#490,#498,#504));
#506=FACE_OUTER_BOUND('',#505,.T.);
#507=ADVANCED_FACE('',(#506),#479,.T.);
#508=CARTESIAN_POINT('',(78.749999999999986,-262.5,160.0));
#509=DIRECTION('',(0.0,-1.0,0.0));
#510=DIRECTION('',(0.0,0.0,1.0));
#511=AXIS2_PLACEMENT_3D('',#508,#509,#510);
#512=PLANE('',#511);
#513=CARTESIAN_POINT('',(78.749999999999986,-262.5,592.5));
#514=VERTEX_POINT('',#513);
#515=CARTESIAN_POINT('',(78.749999999999986,-262.5,592.5));
#516=DIRECTION('',(-1.0,0.0,0.0));
#517=VECTOR('',#516,157.5);
#518=LINE('',#515,#517);
#519=EDGE_CURVE('',#514,#484,#518,.T.);
#520=ORIENTED_EDGE('',*,*,#519,.T.);
#521=ORIENTED_EDGE('',*,*,#489,.F.);
#522=ORIENTED_EDGE('',*,*,#213,.T.);
#523=CARTESIAN_POINT('',(78.749999999999986,-262.5,160.0));
#524=DIRECTION('',(0.0,0.0,1.0));
#525=VECTOR('',#524,432.5);
#526=LINE('',#523,#525);
#527=EDGE_CURVE('',#200,#514,#526,.T.);
#528=ORIENTED_EDGE('',*,*,#527,.T.);
#529=EDGE_LOOP('',(#520,#521,#522,#528));
#530=FACE_OUTER_BOUND('',#529,.T.);
#531=ADVANCED_FACE('',(#530),#512,.T.);
#532=CARTESIAN_POINT('',(-78.749999999999986,210.0,160.0));
#533=DIRECTION('',(0.0,1.0,0.0));
#534=DIRECTION('',(0.0,0.0,-1.0));
#535=AXIS2_PLACEMENT_3D('',#532,#533,#534);
#536=PLANE('',#535);
#537=ORIENTED_EDGE('',*,*,#433,.T.);
#538=ORIENTED_EDGE('',*,*,#503,.T.);
#539=CARTESIAN_POINT('',(78.750000000000014,210.0,592.5));
#540=VERTEX_POINT('',#539);
#541=CARTESIAN_POINT('',(-78.749999999999986,210.0,592.5));
#542=DIRECTION('',(1.0,0.0,0.0));
#543=VECTOR('',#542,157.5);
#544=LINE('',#541,#543);
#545=EDGE_CURVE('',#492,#540,#544,.T.);
#546=ORIENTED_EDGE('',*,*,#545,.T.);
#547=CARTESIAN_POINT('',(78.750000000000014,210.0,318.00000000000006));
#548=DIRECTION('',(0.0,0.0,1.0));
#549=VECTOR('',#548,274.49999999999994);
#550=LINE('',#547,#549);
#551=EDGE_CURVE('',#428,#540,#550,.T.);
#552=ORIENTED_EDGE('',*,*,#551,.F.);
#553=EDGE_LOOP('',(#537,#538,#546,#552));
#554=FACE_OUTER_BOUND('',#553,.T.);
#555=ADVANCED_FACE('',(#554),#536,.T.);
#556=CARTESIAN_POINT('',(78.750000000000014,210.0,160.0));
#557=DIRECTION('',(1.0,0.0,0.0));
#558=DIRECTION('',(0.0,0.0,-1.0));
#559=AXIS2_PLACEMENT_3D('',#556,#557,#558);
#560=PLANE('',#559);
#561=ORIENTED_EDGE('',*,*,#441,.T.);
#562=ORIENTED_EDGE('',*,*,#551,.T.);
#563=CARTESIAN_POINT('',(78.750000000000014,210.0,592.5));
#564=DIRECTION('',(0.0,-1.0,0.0));
#565=VECTOR('',#564,472.5);
#566=LINE('',#563,#565);
#567=EDGE_CURVE('',#540,#514,#566,.T.);
#568=ORIENTED_EDGE('',*,*,#567,.T.);
#569=ORIENTED_EDGE('',*,*,#527,.F.);
#570=ORIENTED_EDGE('',*,*,#205,.T.);
#571=ORIENTED_EDGE('',*,*,#469,.T.);
#572=EDGE_LOOP('',(#561,#562,#568,#569,#570,#571));
#573=FACE_OUTER_BOUND('',#572,.T.);
#574=ADVANCED_FACE('',(#573),#560,.T.);
#575=CARTESIAN_POINT('',(78.749999999999986,-262.5,592.5));
#576=DIRECTION('',(0.0,0.0,-1.0));
#577=DIRECTION('',(0.0,-1.0,0.0));
#578=AXIS2_PLACEMENT_3D('',#575,#576,#577);
#579=PLANE('',#578);
#580=ORIENTED_EDGE('',*,*,#519,.F.);
#581=ORIENTED_EDGE('',*,*,#567,.F.);
#582=ORIENTED_EDGE('',*,*,#545,.F.);
#583=ORIENTED_EDGE('',*,*,#497,.F.);
#584=EDGE_LOOP('',(#580,#581,#582,#583));
#585=FACE_OUTER_BOUND('',#584,.T.);
#586=ADVANCED_FACE('',(#585),#579,.F.);
#587=CLOSED_SHELL('',(#223,#251,#260,#288,#300,#331,#355,#379,#396,#411,#452,#474,#507,#531,#555,#574,#586));
#588=MANIFOLD_SOLID_BREP('',#587);
#589=COLOUR_RGB('',1.5,1.67,1.85);
#590=FILL_AREA_STYLE_COLOUR('',#589);
#591=FILL_AREA_STYLE('',(#590));
#592=SURFACE_STYLE_FILL_AREA(#591);
#593=SURFACE_SIDE_STYLE('',(#592));
#594=SURFACE_STYLE_USAGE(.BOTH.,#593);
#595=PRESENTATION_STYLE_ASSIGNMENT((#594));
#596=STYLED_ITEM('',(#595),#588);
#597=MECHANICAL_DESIGN_GEOMETRIC_PRESENTATION_REPRESENTATION('',(#596),#117);
#598=ADVANCED_BREP_SHAPE_REPRESENTATION('ABSR',(#588),#117);
#599=SHAPE_REPRESENTATION_RELATIONSHIP('SRR','None',#598,#122);
ENDSEC;
END-ISO-10303-21;
