  0
SECTION
  2
HEADER
  9
$ACADVER
  1
AC1024
  9
$ACADMAINTVER
 70
    63
  9
$DWGCODEPAGE
  3
ANSI_1252
  9
$LASTSAVEDBY
  1
ssr9023
  9
$INSBASE
 10
0.0
 20
0.0
 30
0.0
  9
$EXTMIN
 10
3.110492829697001
 20
2.450898471465571
 30
-0.0015258207003583
  9
$EXTMAX
 10
19.3922171640431
 20
20.10545922999983
 30
0.0000000349246037
  9
$LIMMIN
 10
0.0
 20
0.0
  9
$LIMMAX
 10
0.0
 20
0.0
  9
$ORTHOMODE
 70
     0
  9
$REGENMODE
 70
     1
  9
$FILLMODE
 70
     1
  9
$QTEXTMODE
 70
     0
  9
$MIRRTEXT
 70
     1
  9
$LTSCALE
 40
1.0
  9
$ATTMODE
 70
     1
  9
$TEXTSIZE
 40
0.2
  9
$TRACEWID
 40
0.05
  9
$TEXTSTYLE
  7
Standard
  9
$CLAYER
  8
0
  9
$CELTYPE
  6
ByLayer
  9
$CECOLOR
 62
   256
  9
$CELTSCALE
 40
1.0
  9
$DISPSILH
 70
     0
  9
$DIMSCALE
 40
1.0
  9
$DIMASZ
 40
0.156
  9
$DIMEXO
 40
0.05
  9
$DIMDLI
 40
0.38
  9
$DIMRND
 40
0.0
  9
$DIMDLE
 40
0.0
  9
$DIMEXE
 40
0.125
  9
$DIMTP
 40
0.0
  9
$DIMTM
 40
0.0
  9
$DIMTXT
 40
0.1377952756
  9
$DIMCEN
 40
0.09
  9
$DIMTSZ
 40
0.0
  9
$DIMTOL
 70
     0
  9
$DIMLIM
 70
     0
  9
$DIMTIH
 70
     1
  9
$DIMTOH
 70
     1
  9
$DIMSE1
 70
     0
  9
$DIMSE2
 70
     0
  9
$DIMTAD
 70
     0
  9
$DIMZIN
 70
     0
  9
$DIMBLK
  1

  9
$DIMASO
 70
     1
  9
$DIMSHO
 70
     1
  9
$DIMPOST
  1

  9
$DIMAPOST
  1

  9
$DIMALT
 70
     0
  9
$DIMALTD
 70
     2
  9
$DIMALTF
 40
25.4
  9
$DIMLFAC
 40
1.0
  9
$DIMTOFL
 70
     0
  9
$DIMTVP
 40
0.0
  9
$DIMTIX
 70
     0
  9
$DIMSOXD
 70
     0
  9
$DIMSAH
 70
     0
  9
$DIMBLK1
  1

  9
$DIMBLK2
  1

  9
$DIMSTYLE
  2
Standard
  9
$DIMCLRD
 70
     0
  9
$DIMCLRE
 70
     0
  9
$DIMCLRT
 70
     0
  9
$DIMTFAC
 40
1.0
  9
$DIMGAP
 40
0.06
  9
$DIMJUST
 70
     0
  9
$DIMSD1
 70
     0
  9
$DIMSD2
 70
     0
  9
$DIMTOLJ
 70
     1
  9
$DIMTZIN
 70
     0
  9
$DIMALTZ
 70
     0
  9
$DIMALTTZ
 70
     0
  9
$DIMUPT
 70
     0
  9
$DIMDEC
 70
     4
  9
$DIMTDEC
 70
     4
  9
$DIMALTU
 70
     2
  9
$DIMALTTD
 70
     2
  9
$DIMTXSTY
  7
Standard
  9
$DIMAUNIT
 70
     0
  9
$DIMADEC
 70
     0
  9
$DIMALTRND
 40
0.0
  9
$DIMAZIN
 70
     0
  9
$DIMDSEP
 70
    46
  9
$DIMATFIT
 70
     3
  9
$DIMFRAC
 70
     0
  9
$DIMLDRBLK
  1

  9
$DIMLUNIT
 70
     2
  9
$DIMLWD
 70
    -2
  9
$DIMLWE
 70
    -2
  9
$DIMTMOVE
 70
     0
  9
$DIMFXL
 40
1.0
  9
$DIMFXLON
 70
     0
  9
$DIMJOGANG
 40
0.7853981633974483
  9
$DIMTFILL
 70
     0
  9
$DIMTFILLCLR
 70
     0
  9
$DIMARCSYM
 70
     0
  9
$DIMLTYPE
  6

  9
$DIMLTEX1
  6

  9
$DIMLTEX2
  6

  9
$DIMTXTDIRECTION
 70
     0
  9
$LUNITS
 70
     2
  9
$LUPREC
 70
     2
  9
$SKETCHINC
 40
0.1
  9
$FILLETRAD
 40
0.0
  9
$AUNITS
 70
     0
  9
$AUPREC
 70
     0
  9
$MENU
  1
.
  9
$ELEVATION
 40
0.0
  9
$PELEVATION
 40
0.0
  9
$THICKNESS
 40
0.0
  9
$LIMCHECK
 70
     0
  9
$CHAMFERA
 40
0.5
  9
$CHAMFERB
 40
0.5
  9
$CHAMFERC
 40
1.0
  9
$CHAMFERD
 40
0.0
  9
$SKPOLY
 70
     0
  9
$TDCREATE
 40
2454687.612383704
  9
$TDUCREATE
 40
2454687.779050370
  9
$TDUPDATE
 40
2456022.727297963
  9
$TDUUPDATE
 40
2456022.893964630
  9
$TDINDWG
 40
0.0039980903
  9
$TDUSRTIMER
 40
0.0039978588
  9
$USRTIMER
 70
     1
  9
$ANGBASE
 50
0.0
  9
$ANGDIR
 70
     0
  9
$PDMODE
 70
     0
  9
$PDSIZE
 40
-1.0
  9
$PLINEWID
 40
0.0
  9
$SPLFRAME
 70
     0
  9
$SPLINETYPE
 70
     6
  9
$SPLINESEGS
 70
     8
  9
$HANDSEED
  5
476
  9
$SURFTAB1
 70
     6
  9
$SURFTAB2
 70
     6
  9
$SURFTYPE
 70
     6
  9
$SURFU
 70
     6
  9
$SURFV
 70
     6
  9
$UCSBASE
  2

  9
$UCSNAME
  2

  9
$UCSORG
 10
0.0
 20
0.0
 30
0.0
  9
$UCSXDIR
 10
1.0
 20
0.0
 30
0.0
  9
$UCSYDIR
 10
0.0
 20
1.0
 30
0.0
  9
$UCSORTHOREF
  2

  9
$UCSORTHOVIEW
 70
     0
  9
$UCSORGTOP
 10
0.0
 20
0.0
 30
0.0
  9
$UCSORGBOTTOM
 10
0.0
 20
0.0
 30
0.0
  9
$UCSORGLEFT
 10
0.0
 20
0.0
 30
0.0
  9
$UCSORGRIGHT
 10
0.0
 20
0.0
 30
0.0
  9
$UCSORGFRONT
 10
0.0
 20
0.0
 30
0.0
  9
$UCSORGBACK
 10
0.0
 20
0.0
 30
0.0
  9
$PUCSBASE
  2

  9
$PUCSNAME
  2

  9
$PUCSORG
 10
0.0
 20
0.0
 30
0.0
  9
$PUCSXDIR
 10
1.0
 20
0.0
 30
0.0
  9
$PUCSYDIR
 10
0.0
 20
1.0
 30
0.0
  9
$PUCSORTHOREF
  2

  9
$PUCSORTHOVIEW
 70
     0
  9
$PUCSORGTOP
 10
0.0
 20
0.0
 30
0.0
  9
$PUCSORGBOTTOM
 10
0.0
 20
0.0
 30
0.0
  9
$PUCSORGLEFT
 10
0.0
 20
0.0
 30
0.0
  9
$PUCSORGRIGHT
 10
0.0
 20
0.0
 30
0.0
  9
$PUCSORGFRONT
 10
0.0
 20
0.0
 30
0.0
  9
$PUCSORGBACK
 10
0.0
 20
0.0
 30
0.0
  9
$USERI1
 70
     0
  9
$USERI2
 70
     0
  9
$USERI3
 70
     0
  9
$USERI4
 70
     0
  9
$USERI5
 70
     0
  9
$USERR1
 40
0.0
  9
$USERR2
 40
0.0
  9
$USERR3
 40
0.0
  9
$USERR4
 40
0.0
  9
$USERR5
 40
0.0
  9
$WORLDVIEW
 70
     1
  9
$SHADEDGE
 70
     3
  9
$SHADEDIF
 70
    70
  9
$TILEMODE
 70
     1
  9
$MAXACTVP
 70
    64
  9
$PINSBASE
 10
0.0
 20
0.0
 30
0.0
  9
$PLIMCHECK
 70
     0
  9
$PEXTMIN
 10
1.000000000000000E+20
 20
1.000000000000000E+20
 30
1.000000000000000E+20
  9
$PEXTMAX
 10
-1.000000000000000E+20
 20
-1.000000000000000E+20
 30
-1.000000000000000E+20
  9
$PLIMMIN
 10
0.0
 20
0.0
  9
$PLIMMAX
 10
12.0
 20
9.0
  9
$UNITMODE
 70
     0
  9
$VISRETAIN
 70
     1
  9
$PLINEGEN
 70
     0
  9
$PSLTSCALE
 70
     1
  9
$TREEDEPTH
 70
  3020
  9
$CMLSTYLE
  2
Standard
  9
$CMLJUST
 70
     0
  9
$CMLSCALE
 40
1.0
  9
$PROXYGRAPHICS
 70
     1
  9
$MEASUREMENT
 70
     0
  9
$CELWEIGHT
370
    -1
  9
$ENDCAPS
280
     0
  9
$JOINSTYLE
280
     0
  9
$LWDISPLAY
290
     1
  9
$INSUNITS
 70
     1
  9
$HYPERLINKBASE
  1

  9
$STYLESHEET
  1

  9
$XEDIT
290
     1
  9
$CEPSNTYPE
380
     0
  9
$PSTYLEMODE
290
     1
  9
$FINGERPRINTGUID
  2
{B29FDB69-A06D-4FC3-9F81-AB2E20CC4E3E}
  9
$VERSIONGUID
  2
{DE6A013B-1BC3-4476-BE18-5E7376903071}
  9
$EXTNAMES
290
     1
  9
$PSVPSCALE
 40
0.0
  9
$OLESTARTUP
290
     0
  9
$SORTENTS
280
   127
  9
$INDEXCTL
280
     0
  9
$HIDETEXT
280
     0
  9
$XCLIPFRAME
280
     0
  9
$HALOGAP
280
     0
  9
$OBSCOLOR
 70
   257
  9
$OBSLTYPE
280
     0
  9
$INTERSECTIONDISPLAY
280
     0
  9
$INTERSECTIONCOLOR
 70
   257
  9
$DIMASSOC
280
     1
  9
$PROJECTNAME
  1

  9
$CAMERADISPLAY
290
     0
  9
$LENSLENGTH
 40
50.0
  9
$CAMERAHEIGHT
 40
0.0
  9
$STEPSPERSEC
 40
2.0
  9
$STEPSIZE
 40
6.0
  9
$3DDWFPREC
 40
2.0
  9
$PSOLWIDTH
 40
0.25
  9
$PSOLHEIGHT
 40
4.0
  9
$LOFTANG1
 40
1.570796326794896
  9
$LOFTANG2
 40
1.570796326794896
  9
$LOFTMAG1
 40
0.0
  9
$LOFTMAG2
 40
0.0
  9
$LOFTPARAM
 70
     7
  9
$LOFTNORMALS
280
     1
  9
$LATITUDE
 40
37.795
  9
$LONGITUDE
 40
-122.394
  9
$NORTHDIRECTION
 40
0.0
  9
$TIMEZONE
 70
 -8000
  9
$LIGHTGLYPHDISPLAY
280
     1
  9
$TILEMODELIGHTSYNCH
280
     1
  9
$CMATERIAL
347
3EB
  9
$SOLIDHIST
280
     1
  9
$SHOWHIST
280
     1
  9
$DWFFRAME
280
     2
  9
$DGNFRAME
280
     0
  9
$REALWORLDSCALE
290
     1
  9
$INTERFERECOLOR
 62
     1
  9
$INTERFEREOBJVS
345
40D
  9
$INTERFEREVPVS
346
45C
  9
$CSHADOW
280
     0
  9
$SHADOWPLANELOCATION
 40
0.0
  0
ENDSEC
  0
SECTION
  2
CLASSES
  0
CLASS
  1
ACDBDICTIONARYWDFLT
  2
AcDbDictionaryWithDefault
  3
ObjectDBX Classes
 90
        0
 91
        1
280
     0
281
     0
  0
CLASS
  1
MATERIAL
  2
AcDbMaterial
  3
ObjectDBX Classes
 90
     1153
 91
        3
280
     0
281
     0
  0
CLASS
  1
VISUALSTYLE
  2
AcDbVisualStyle
  3
ObjectDBX Classes
 90
     4095
 91
       26
280
     0
281
     0
  0
CLASS
  1
TABLESTYLE
  2
AcDbTableStyle
  3
ObjectDBX Classes
 90
     4095
 91
        1
280
     0
281
     0
  0
CLASS
  1
SCALE
  2
AcDbScale
  3
ObjectDBX Classes
 90
     1153
 91
       33
280
     0
281
     0
  0
CLASS
  1
MLEADERSTYLE
  2
AcDbMLeaderStyle
  3
ACDB_MLEADERSTYLE_CLASS
 90
     4095
 91
        1
280
     0
281
     0
  0
CLASS
  1
EXACXREFPANELOBJECT
  2
ExAcXREFPanelObject
  3
EXAC_ESW
 90
     1025
 91
        1
280
     0
281
     0
  0
CLASS
  1
NPOCOLLECTION
  2
AcDbImpNonPersistentObjectsCollection
  3
ObjectDBX Classes
 90
     1153
 91
        1
280
     0
281
     0
  0
CLASS
  1
CELLSTYLEMAP
  2
AcDbCellStyleMap
  3
ObjectDBX Classes
 90
     1152
 91
        2
280
     0
281
     0
  0
CLASS
  1
DICTIONARYVAR
  2
AcDbDictionaryVar
  3
ObjectDBX Classes
 90
        0
 91
        9
280
     0
281
     0
  0
ENDSEC
  0
SECTION
  2
TABLES
  0
TABLE
  2
VPORT
  5
8
330
0
100
AcDbSymbolTable
 70
     1
  0
VPORT
  5
29
330
8
100
AcDbSymbolTableRecord
100
AcDbViewportTableRecord
  2
*Active
 70
     0
 10
0.0
 20
0.0
 11
1.0
 21
1.0
 12
11.25135499687005
 22
11.2781788507327
 13
0.0
 23
0.0
 14
0.5
 24
0.5
 15
0.5
 25
0.5
 16
0.0
 26
0.0
 36
1.0
 17
0.0
 27
0.0
 37
0.0
 40
17.787970537566
 41
1.474148802017654
 42
50.0
 43
0.0
 44
0.0
 50
0.0
 51
0.0
 71
     0
 72
  2000
 73
     1
 74
     3
 75
     0
 76
     0
 77
     0
 78
     0
281
     0
 65
     1
110
0.0
120
0.0
130
0.0
111
1.0
121
0.0
131
0.0
112
0.0
122
1.0
132
0.0
 79
     0
146
0.0
348
409
 60
     3
 61
     5
292
     1
282
     1
141
0.0
142
0.0
 63
   250
421
  3355443
1001
ACAD_NAV_VCDISPLAY
1070
     3
  0
ENDTAB
  0
TABLE
  2
LTYPE
  5
5
330
0
100
AcDbSymbolTable
 70
     6
  0
LTYPE
  5
14
330
5
100
AcDbSymbolTableRecord
100
AcDbLinetypeTableRecord
  2
ByBlock
 70
     0
  3

 72
    65
 73
     0
 40
0.0
  0
LTYPE
  5
15
330
5
100
AcDbSymbolTableRecord
100
AcDbLinetypeTableRecord
  2
ByLayer
 70
     0
  3

 72
    65
 73
     0
 40
0.0
  0
LTYPE
  5
16
330
5
100
AcDbSymbolTableRecord
100
AcDbLinetypeTableRecord
  2
Continuous
 70
     0
  3
Solid line
 72
    65
 73
     0
 40
0.0
  0
LTYPE
  5
2A
330
5
100
AcDbSymbolTableRecord
100
AcDbLinetypeTableRecord
  2
HIDDEN
 70
     0
  3
Hidden __ __ __ __ __ __ __ __ __ __ __ __ __ __
 72
    65
 73
     2
 40
0.075
 49
0.05
 74
     0
 49
-0.025
 74
     0
  0
LTYPE
  5
2B
330
5
100
AcDbSymbolTableRecord
100
AcDbLinetypeTableRecord
  2
PHANTOM
 70
     0
  3
Phantom ______  __  __  ______  __  __  ______
 72
    65
 73
     6
 40
0.5
 49
0.25
 74
     0
 49
-0.05
 74
     0
 49
0.05
 74
     0
 49
-0.05
 74
     0
 49
0.05
 74
     0
 49
-0.05
 74
     0
  0
LTYPE
  5
2C
330
5
100
AcDbSymbolTableRecord
100
AcDbLinetypeTableRecord
  2
CENTER
 70
     0
  3
Center ____ _ ____ _ ____ _ ____ _ ____ _ ____
 72
    65
 73
     4
 40
0.4
 49
0.25
 74
     0
 49
-0.05
 74
     0
 49
0.05
 74
     0
 49
-0.05
 74
     0
  0
LTYPE
  5
2D
330
5
100
AcDbSymbolTableRecord
100
AcDbLinetypeTableRecord
  2
CENTERX2
 70
     0
  3
Center (2x) ________  __  ________  __  _____
 72
    65
 73
     4
 40
0.8
 49
0.5
 74
     0
 49
-0.1
 74
     0
 49
0.1
 74
     0
 49
-0.1
 74
     0
  0
LTYPE
  5
2E
330
5
100
AcDbSymbolTableRecord
100
AcDbLinetypeTableRecord
  2
DOT2
 70
     0
  3
Dot (.5x) ........................................
 72
    65
 73
     2
 40
0.025
 49
0.0
 74
     0
 49
-0.025
 74
     0
  0
ENDTAB
  0
TABLE
  2
LAYER
  5
2
330
0
100
AcDbSymbolTable
 70
     9
  0
LAYER
  5
10
102
{ACAD_XDICTIONARY
360
440
102
}
330
2
100
AcDbSymbolTableRecord
100
AcDbLayerTableRecord
  2
0
 70
     0
 62
     7
  6
Continuous
370
    -3
390
F
347
3FB
  0
LAYER
  5
2F
102
{ACAD_XDICTIONARY
360
442
102
}
330
2
100
AcDbSymbolTableRecord
100
AcDbLayerTableRecord
  2
TEXT
 70
     0
 62
   171
  6
Continuous
370
    -3
390
F
347
3FB
  0
LAYER
  5
30
102
{ACAD_XDICTIONARY
360
444
102
}
330
2
100
AcDbSymbolTableRecord
100
AcDbLayerTableRecord
  2
FRONT_DOOR
 70
     0
 62
     1
  6
Continuous
370
    -3
390
F
347
3FB
  0
LAYER
  5
31
102
{ACAD_XDICTIONARY
360
446
102
}
330
2
100
AcDbSymbolTableRecord
100
AcDbLayerTableRecord
  2
SIDE
 70
     0
 62
     4
  6
Continuous
370
    -3
390
F
347
3FB
  0
LAYER
  5
32
102
{ACAD_XDICTIONARY
360
448
102
}
330
2
100
AcDbSymbolTableRecord
100
AcDbLayerTableRecord
  2
PANEL
 70
     0
 62
   150
  6
Continuous
370
    -3
390
F
347
3FB
  0
LAYER
  5
33
102
{ACAD_XDICTIONARY
360
44A
102
}
330
2
100
AcDbSymbolTableRecord
100
AcDbLayerTableRecord
  2
ACCESSORIES
 70
     0
 62
    11
  6
Continuous
370
    -3
390
F
347
3FB
  0
LAYER
  5
34
102
{ACAD_XDICTIONARY
360
44C
102
}
330
2
100
AcDbSymbolTableRecord
100
AcDbLayerTableRecord
  2
BODY
 70
     0
 62
     3
  6
Continuous
370
    -3
390
F
347
3FB
  0
LAYER
  5
35
102
{ACAD_XDICTIONARY
360
44E
102
}
330
2
100
AcDbSymbolTableRecord
100
AcDbLayerTableRecord
  2
COVER
 70
     0
 62
     6
  6
Continuous
370
    -3
390
F
347
3FB
  0
LAYER
  5
36
102
{ACAD_XDICTIONARY
360
450
102
}
330
2
100
AcDbSymbolTableRecord
100
AcDbLayerTableRecord
  2
REAR_DOOR
 70
     0
 62
   190
  6
Continuous
370
    -3
390
F
347
3FB
  0
ENDTAB
  0
TABLE
  2
STYLE
  5
3
330
0
100
AcDbSymbolTable
 70
     6
  0
STYLE
  5
11
330
3
100
AcDbSymbolTableRecord
100
AcDbTextStyleTableRecord
  2
Standard
 70
     0
 40
0.0
 41
1.0
 50
0.0
 71
     0
 42
0.2
  3
txt
  4

  0
STYLE
  5
3A
330
3
100
AcDbSymbolTableRecord
100
AcDbTextStyleTableRecord
  2
SLDTEXTSTYLE0
 70
     0
 40
0.0
 41
0.5775000000000001
 50
0.0
 71
     0
 42
0.2
  3
TXT
  4

  0
STYLE
  5
3C
330
3
100
AcDbSymbolTableRecord
100
AcDbTextStyleTableRecord
  2
SLDTEXTSTYLE1
 70
     0
 40
0.0
 41
0.605
 50
0.0
 71
     0
 42
0.2
  3
TXT
  4

  0
STYLE
  5
3F
330
3
100
AcDbSymbolTableRecord
100
AcDbTextStyleTableRecord
  2
SLDTEXTSTYLE2
 70
     0
 40
0.0
 41
0.5641216216000001
 50
0.0
 71
     0
 42
0.2
  3
TXT
  4

  0
STYLE
  5
44
330
3
100
AcDbSymbolTableRecord
100
AcDbTextStyleTableRecord
  2
SLDTEXTSTYLE3
 70
     0
 40
0.0
 41
0.5293750000000001
 50
0.0
 71
     0
 42
0.2
  3
TXT
  4

  0
STYLE
  5
46
330
3
100
AcDbSymbolTableRecord
100
AcDbTextStyleTableRecord
  2
SLDTEXTSTYLE4
 70
     0
 40
0.0
 41
0.5731578947
 50
0.0
 71
     0
 42
0.2
  3
TXT
  4

  0
ENDTAB
  0
TABLE
  2
VIEW
  5
6
330
0
100
AcDbSymbolTable
 70
     1
  0
ENDTAB
  0
TABLE
  2
UCS
  5
7
330
0
100
AcDbSymbolTable
 70
     0
  0
ENDTAB
  0
TABLE
  2
APPID
  5
9
330
0
100
AcDbSymbolTable
 70
     3
  0
APPID
  5
12
330
9
100
AcDbSymbolTableRecord
100
AcDbRegAppTableRecord
  2
ACAD
 70
     0
  0
APPID
  5
43B
330
9
100
AcDbSymbolTableRecord
100
AcDbRegAppTableRecord
  2
ACAD_MLEADERVER
 70
     0
  0
APPID
  5
46F
330
9
100
AcDbSymbolTableRecord
100
AcDbRegAppTableRecord
  2
ACAD_NAV_VCDISPLAY
 70
     0
  0
ENDTAB
  0
TABLE
  2
DIMSTYLE
  5
A
330
0
100
AcDbSymbolTable
 70
     1
100
AcDbDimStyleTable
 71
     0
  0
DIMSTYLE
105
27
330
A
100
AcDbSymbolTableRecord
100
AcDbDimStyleTableRecord
  2
Standard
 70
     0
340
11
  0
ENDTAB
  0
TABLE
  2
BLOCK_RECORD
  5
1
330
0
100
AcDbSymbolTable
 70
     3
  0
BLOCK_RECORD
  5
1F
330
1
100
AcDbSymbolTableRecord
100
AcDbBlockTableRecord
  2
*Model_Space
340
22
 70
     0
280
     1
281
     0
  0
BLOCK_RECORD
  5
1B
330
1
100
AcDbSymbolTableRecord
100
AcDbBlockTableRecord
  2
*Paper_Space
340
1E
 70
     0
280
     1
281
     0
  0
BLOCK_RECORD
  5
23
330
1
100
AcDbSymbolTableRecord
100
AcDbBlockTableRecord
  2
*Paper_Space0
340
26
 70
     0
280
     1
281
     0
  0
BLOCK_RECORD
  5
37
330
1
100
AcDbSymbolTableRecord
100
AcDbBlockTableRecord
  2
SW_NOTE_0
340
0
 70
     0
280
     1
281
     0
  0
BLOCK_RECORD
  5
41
330
1
100
AcDbSymbolTableRecord
100
AcDbBlockTableRecord
  2
SW_NOTE_1
340
0
 70
     0
280
     1
281
     0
  0
ENDTAB
  0
ENDSEC
  0
SECTION
  2
BLOCKS
  0
BLOCK
  5
20
330
1F
100
AcDbEntity
  8
0
100
AcDbBlockBegin
  2
*Model_Space
 70
     0
 10
0.0
 20
0.0
 30
0.0
  3
*Model_Space
  1

  0
ENDBLK
  5
21
330
1F
100
AcDbEntity
  8
0
100
AcDbBlockEnd
  0
BLOCK
  5
1C
330
1B
100
AcDbEntity
 67
     1
  8
0
100
AcDbBlockBegin
  2
*Paper_Space
 70
     0
 10
0.0
 20
0.0
 30
0.0
  3
*Paper_Space
  1

  0
ENDBLK
  5
1D
330
1B
100
AcDbEntity
 67
     1
  8
0
100
AcDbBlockEnd
  0
BLOCK
  5
24
330
23
100
AcDbEntity
 67
     1
  8
0
100
AcDbBlockBegin
  2
*Paper_Space0
 70
     0
 10
0.0
 20
0.0
 30
0.0
  3
*Paper_Space0
  1

  0
ENDBLK
  5
25
330
23
100
AcDbEntity
 67
     1
  8
0
100
AcDbBlockEnd
  0
BLOCK
  5
38
330
37
100
AcDbEntity
  8
0
100
AcDbBlockBegin
  2
SW_NOTE_0
 70
     0
 10
0.0
 20
0.0
 30
0.0
  3
SW_NOTE_0
  1

  0
MTEXT
  5
3B
330
37
100
AcDbEntity
  8
TEXT
 62
     0
100
AcDbMText
 10
0.0
 20
0.7734406439
 30
0.0
 40
0.6
 41
0.0
 46
0.0
 71
     1
 72
     1
  1
HOFFMAN ENCLOSURES, INC.
  7
SLDTEXTSTYLE0
 73
     1
 44
1.0
  0
MTEXT
  5
3D
330
37
100
AcDbEntity
  8
TEXT
 62
     0
100
AcDbMText
 10
4.5554172688
 20
-0.0015593633
 30
0.0
 40
0.6
 41
0.0
 46
0.0
 71
     1
 72
     1
  1
A10N86
  7
SLDTEXTSTYLE1
 73
     1
 44
1.0
  0
ENDBLK
  5
39
330
37
100
AcDbEntity
  8
0
100
AcDbBlockEnd
  0
BLOCK
  5
42
330
41
100
AcDbEntity
  8
0
100
AcDbBlockBegin
  2
SW_NOTE_1
 70
     0
 10
0.0
 20
0.0
 30
0.0
  3
SW_NOTE_1
  1

  0
MTEXT
  5
45
330
41
100
AcDbEntity
  8
TEXT
 62
     0
100
AcDbMText
 10
0.0
 20
0.3867203219
 30
0.0
 40
0.3
 41
0.0
 46
0.0
 71
     1
 72
     1
  1
9006596  REV B
  7
SLDTEXTSTYLE3
 73
     1
 44
1.0
  0
MTEXT
  5
47
330
41
100
AcDbEntity
  8
TEXT
 62
     0
100
AcDbMText
 10
0.0
 20
-0.0007796816
 30
0.0
 40
0.3
 41
0.0
 46
0.0
 71
     1
 72
     1
  1
PR-00001783  08/08/08
  7
SLDTEXTSTYLE4
 73
     1
 44
1.0
  0
ENDBLK
  5
43
330
41
100
AcDbEntity
  8
0
100
AcDbBlockEnd
  0
ENDSEC
  0
SECTION
  2
ENTITIES
  0
LINE
  5
49
330
1F
100
AcDbEntity
  8
BODY
  6
Continuous
370
    15
100
AcDbLine
 10
3.111831608399999
 20
12.311628005
 30
0.0
 11
3.111831608399999
 21
11.8116280477
 31
0.0
  0
LINE
  5
4A
330
1F
100
AcDbEntity
  8
BODY
  6
Continuous
370
    15
100
AcDbLine
 10
3.111831608399999
 20
11.3116277971
 30
0.0
 11
3.111831608399999
 21
10.8116278398
 31
0.0
  0
LINE
  5
4B
330
1F
100
AcDbEntity
  8
BODY
  6
Continuous
370
    15
100
AcDbLine
 10
3.111831608399999
 20
5.0066279397
 30
0.0
 11
3.111831608399999
 21
4.5066279824
 31
0.0
  0
LINE
  5
4C
330
1F
100
AcDbEntity
  8
BODY
  6
Continuous
370
    15
100
AcDbLine
 10
3.111831608399999
 20
4.006628025099999
 30
0.0
 11
3.111831608399999
 21
3.5066277745
 31
0.0
  0
LINE
  5
4D
330
1F
100
AcDbEntity
  8
FRONT_DOOR
  6
Continuous
370
    15
100
AcDbLine
 10
3.111831608399999
 20
3.5066277745
 30
0.0
 11
3.111831608399999
 21
3.0066278172
 31
0.0
  0
LINE
  5
4E
330
1F
100
AcDbEntity
  8
FRONT_DOOR
  6
Continuous
370
    15
100
AcDbLine
 10
3.111831608399999
 20
4.5066279824
 30
0.0
 11
3.111831608399999
 21
4.006628025099999
 31
0.0
  0
LINE
  5
4F
330
1F
100
AcDbEntity
  8
FRONT_DOOR
  6
Continuous
370
    15
100
AcDbLine
 10
3.111831608399999
 20
11.8116280477
 30
0.0
 11
3.111831608399999
 21
11.3116277971
 31
0.0
  0
LINE
  5
50
330
1F
100
AcDbEntity
  8
FRONT_DOOR
  6
Continuous
370
    15
100
AcDbLine
 10
3.111831608399999
 20
10.8116278398
 30
0.0
 11
3.111831608399999
 21
10.3116278825
 31
0.0
  0
SPLINE
  5
51
330
1F
100
AcDbEntity
  8
FRONT_DOOR
  6
Continuous
370
    15
100
AcDbSpline
210
0.0
220
0.0
230
1.0
 70
     8
 71
     3
 72
    12
 73
     8
 74
     0
 42
0.0000000001
 43
0.0000000001
 40
0.0
 40
0.0
 40
0.0
 40
0.0
 40
0.2237433741292764
 40
0.44752350968811
 40
0.6713034897572463
 40
0.8950832639802811
 40
1.0
 40
1.0
 40
1.0
 40
1.0
 10
11.46433138623908
 20
12.6966279574797
 30
0.0
 10
11.47780545182342
 20
12.70057685265551
 30
0.0
 10
11.50475579680477
 20
12.70847529181755
 30
0.0
 10
11.54027898752784
 20
12.72032521828346
 30
0.0
 10
11.5663366631513
 20
12.73216864357076
 30
0.0
 10
11.57803855976323
 20
12.74193709776697
 30
0.0
 10
11.57901857858565
 20
12.74771307133581
 30
0.0
 10
11.57933139108254
 20
12.74955670604228
 30
0.0
  0
SPLINE
  5
52
330
1F
100
AcDbEntity
  8
FRONT_DOOR
  6
Continuous
370
    15
100
AcDbSpline
210
0.0
220
0.0
230
1.0
 70
     8
 71
     3
 72
    11
 73
     7
 74
     0
 42
0.0000000001
 43
0.0000000001
 40
0.0
 40
0.0
 40
0.0
 40
0.0
 40
0.2647562375042941
 40
0.5114076937182484
 40
0.7580207166977236
 40
1.0
 40
1.0
 40
1.0
 40
1.0
 10
11.46433138623908
 20
12.6966279574797
 30
0.0
 10
11.47266333414252
 20
12.70130276914023
 30
0.0
 10
11.48875746775632
 20
12.71033271560123
 30
0.0
 10
11.5085033272338
 20
12.72370069136534
 30
0.0
 10
11.52178163416267
 20
12.73667260407715
 30
0.0
 10
11.52348689539224
 20
12.74528924505151
 30
0.0
 10
11.52433143978001
 20
12.74955670604228
 30
0.0
  0
LINE
  5
53
330
1F
100
AcDbEntity
  8
FRONT_DOOR
  6
Continuous
370
    15
100
AcDbLine
 10
11.5793313911
 20
12.749556706
 30
0.0
 11
11.5243314398
 21
12.749556706
 31
0.0
  0
CIRCLE
  5
54
330
1F
100
AcDbEntity
  8
FRONT_DOOR
  6
Continuous
370
    15
100
AcDbCircle
 10
9.7693313953
 20
7.631627907
 30
0.0
 40
0.6326476564648332
  0
LINE
  5
55
330
1F
100
AcDbEntity
  8
FRONT_DOOR
  6
Continuous
370
    15
100
AcDbLine
 10
11.4643313862
 20
12.6966279575
 30
0.0
 11
3.3943312249
 21
12.6966279575
 31
0.0
  0
LINE
  5
56
330
1F
100
AcDbEntity
  8
FRONT_DOOR
  6
Continuous
370
    15
100
AcDbLine
 10
11.4643313862
 20
2.566627620099999
 30
0.0
 11
11.4643313862
 21
12.6966279575
 31
0.0
  0
LINE
  5
57
330
1F
100
AcDbEntity
  8
FRONT_DOOR
  6
Continuous
370
    15
100
AcDbLine
 10
3.3943312249
 20
2.566627620099999
 30
0.0
 11
11.4643313862
 21
2.566627620099999
 31
0.0
  0
LINE
  5
58
330
1F
100
AcDbEntity
  8
FRONT_DOOR
  6
Continuous
370
    15
100
AcDbLine
 10
3.3943312249
 20
12.6966279575
 30
0.0
 11
3.3943312249
 21
2.566627620099999
 31
0.0
  0
LINE
  5
59
330
1F
100
AcDbEntity
  8
FRONT_DOOR
  6
Continuous
370
    15
100
AcDbLine
 10
11.5793313911
 20
2.5136991649
 30
0.0
 11
11.5793313911
 21
12.749556706
 31
0.0
  0
SPLINE
  5
5A
330
1F
100
AcDbEntity
  8
FRONT_DOOR
  6
Continuous
370
    15
100
AcDbSpline
210
0.0
220
0.0
230
1.0
 70
     8
 71
     3
 72
    12
 73
     8
 74
     0
 42
0.0000000001
 43
0.0000000001
 40
0.0
 40
0.0
 40
0.0
 40
0.0
 40
0.2237439072696679
 40
0.4475239037797364
 40
0.6713042513408686
 40
0.8950825506106154
 40
1.0
 40
1.0
 40
1.0
 40
1.0
 10
11.57933139108254
 20
2.513699164875385
 30
0.0
 10
11.57794972861702
 20
2.517648099986694
 30
0.0
 10
11.57518618082786
 20
2.525546607161039
 30
0.0
 10
11.55369780533809
 20
2.537395919676206
 30
0.0
 10
11.5223070392045
 20
2.549240025217734
 30
0.0
 10
11.4903341831022
 20
2.559008029338106
 30
0.0
 10
11.47062304695454
 20
2.564783976896587
 30
0.0
 10
11.46433138623908
 20
2.56662762010802
 30
0.0
  0
SPLINE
  5
5B
330
1F
100
AcDbEntity
  8
FRONT_DOOR
  6
Continuous
370
    15
100
AcDbSpline
210
0.0
220
0.0
230
1.0
 70
     8
 71
     3
 72
    12
 73
     8
 74
     0
 42
0.0000000001
 43
0.0000000001
 40
0.0
 40
0.0
 40
0.0
 40
0.0
 40
0.2237420245176002
 40
0.447523586040337
 40
0.6713027370688783
 40
0.8950826399175264
 40
1.0
 40
1.0
 40
1.0
 40
1.0
 10
11.46433138623908
 20
2.56662762010802
 30
0.0
 10
11.46828029898795
 20
2.553153673854953
 30
0.0
 10
11.47617882229017
 20
2.526203400394756
 30
0.0
 10
11.48802854330625
 20
2.490680035612825
 30
0.0
 10
11.49987217288636
 20
2.464622625099585
 30
0.0
 10
11.50964037035429
 20
2.452920901269493
 30
0.0
 10
11.51541667955109
 20
2.4519405386446
 30
0.0
 10
11.5172604281316
 20
2.451627615264556
 30
0.0
  0
LINE
  5
5C
330
1F
100
AcDbEntity
  8
FRONT_DOOR
  6
Continuous
370
    15
100
AcDbLine
 10
3.341402183
 20
2.4516276153
 30
0.0
 11
11.5172604281
 21
2.4516276153
 31
0.0
  0
SPLINE
  5
5D
330
1F
100
AcDbEntity
  8
FRONT_DOOR
  6
Continuous
370
    15
100
AcDbSpline
210
0.0
220
0.0
230
1.0
 70
     8
 71
     3
 72
    12
 73
     8
 74
     0
 42
0.0000000001
 43
0.0000000001
 40
0.0
 40
0.0
 40
0.0
 40
0.0
 40
0.2237450610631007
 40
0.4475243087860174
 40
0.6713049351001434
 40
0.8950855409513815
 40
1.0
 40
1.0
 40
1.0
 40
1.0
 10
3.341402183010388
 20
2.451627615264556
 30
0.0
 10
3.345351334448853
 20
2.453009423470974
 30
0.0
 10
3.353250240728137
 20
2.455773251014308
 30
0.0
 10
3.365099779255459
 20
2.477261037599713
 30
0.0
 10
3.376942711229924
 20
2.508652512452121
 30
0.0
 10
3.386711532371109
 20
2.540625101844335
 30
0.0
 10
3.392487593995523
 20
2.560336152815758
 30
0.0
 10
3.394331224902913
 20
2.56662762010802
 30
0.0
  0
SPLINE
  5
5E
330
1F
100
AcDbEntity
  8
FRONT_DOOR
  6
Continuous
370
    15
100
AcDbSpline
210
0.0
220
0.0
230
1.0
 70
     8
 71
     3
 72
    11
 73
     7
 74
     0
 42
0.0000000001
 43
0.0000000001
 40
0.0
 40
0.0
 40
0.0
 40
0.0
 40
0.2647542452805163
 40
0.5114040628534392
 40
0.7580199702247655
 40
1.0
 40
1.0
 40
1.0
 40
1.0
 10
11.46433138623908
 20
2.56662762010802
 30
0.0
 10
11.46900618997105
 20
2.558295741479204
 30
0.0
 10
11.47803612495487
 20
2.542201734837441
 30
0.0
 10
11.49140429698369
 20
2.522456419193999
 30
0.0
 10
11.50437586919552
 20
2.509177060670924
 30
0.0
 10
11.51299282818833
 20
2.507472397668498
 30
0.0
 10
11.5172604281316
 20
2.506628153226982
 30
0.0
  0
LINE
  5
5F
330
1F
100
AcDbEntity
  8
FRONT_DOOR
  6
Continuous
370
    15
100
AcDbLine
 10
11.5172604281
 20
2.4516276153
 30
0.0
 11
11.5172604281
 21
2.506628153199999
 31
0.0
  0
LINE
  5
60
330
1F
100
AcDbEntity
  8
FRONT_DOOR
  6
Continuous
370
    15
100
AcDbLine
 10
11.5793313911
 20
2.5136991649
 30
0.0
 11
11.5243314398
 21
2.5136991649
 31
0.0
  0
SPLINE
  5
61
330
1F
100
AcDbEntity
  8
FRONT_DOOR
  6
Continuous
370
    15
100
AcDbSpline
210
0.0
220
0.0
230
1.0
 70
     8
 71
     3
 72
    11
 73
     7
 74
     0
 42
0.0000000001
 43
0.0000000001
 40
0.0
 40
0.0
 40
0.0
 40
0.0
 40
0.264754994620758
 40
0.5114085004235355
 40
0.758021791428067
 40
1.0
 40
1.0
 40
1.0
 40
1.0
 10
11.52433143978001
 20
2.513699164875385
 30
0.0
 10
11.52332087032649
 20
2.518373824026181
 30
0.0
 10
11.52136882477759
 20
2.527403532529786
 30
0.0
 10
11.50692583153642
 20
2.540772061345681
 30
0.0
 10
11.48729954262283
 20
2.553743357292983
 30
0.0
 10
11.47193886472327
 20
2.562360113804408
 30
0.0
 10
11.46433138623908
 20
2.56662762010802
 30
0.0
  0
SPLINE
  5
62
330
1F
100
AcDbEntity
  8
FRONT_DOOR
  6
Continuous
370
    15
100
AcDbSpline
210
0.0
220
0.0
230
1.0
 70
     8
 71
     3
 72
    12
 73
     8
 74
     0
 42
0.0000000001
 43
0.0000000001
 40
0.0
 40
0.0
 40
0.0
 40
0.0
 40
0.2237432759204952
 40
0.4475228710794272
 40
0.6713031951090793
 40
0.8950824289316573
 40
1.0
 40
1.0
 40
1.0
 40
1.0
 10
3.394331224902913
 20
12.6966279574797
 30
0.0
 10
3.390382285981476
 20
12.71010201409434
 30
0.0
 10
3.382483767125128
 20
12.73705231450655
 30
0.0
 10
3.370634496980991
 20
12.77257564464843
 30
0.0
 10
3.358790204904043
 20
12.7986331706263
 30
0.0
 10
3.349022741238931
 20
12.81033516073858
 30
0.0
 10
3.343246057438573
 20
12.81131515534616
 30
0.0
 10
3.341402183010388
 20
12.81162796232316
 30
0.0
  0
LINE
  5
63
330
1F
100
AcDbEntity
  8
FRONT_DOOR
  6
Continuous
370
    15
100
AcDbLine
 10
3.341402183
 20
12.8116279623
 30
0.0
 11
11.5172604281
 21
12.8116279623
 31
0.0
  0
SPLINE
  5
64
330
1F
100
AcDbEntity
  8
FRONT_DOOR
  6
Continuous
370
    15
100
AcDbSpline
210
0.0
220
0.0
230
1.0
 70
     8
 71
     3
 72
    12
 73
     8
 74
     0
 42
0.0000000001
 43
0.0000000001
 40
0.0
 40
0.0
 40
0.0
 40
0.0
 40
0.2237445430566091
 40
0.4475237149507856
 40
0.6713035513477774
 40
0.8950836391850375
 40
1.0
 40
1.0
 40
1.0
 40
1.0
 10
11.5172604281316
 20
12.81162796232316
 30
0.0
 10
11.51331138519639
 20
12.8102461567142
 30
0.0
 10
11.50541268813445
 20
12.80748233163487
 30
0.0
 10
11.4935632790277
 20
12.78599448348685
 30
0.0
 10
11.4817196292139
 20
12.75460345607317
 30
0.0
 10
11.47195149958196
 20
12.72263057715273
 30
0.0
 10
11.46617513841493
 20
12.70291951568136
 30
0.0
 10
11.46433138623908
 20
12.6966279574797
 30
0.0
  0
LINE
  5
65
330
1F
100
AcDbEntity
  8
FRONT_DOOR
  6
Continuous
370
    15
100
AcDbLine
 10
3.341402183
 20
2.4516276153
 30
0.0
 11
3.341402183
 21
2.506628153199999
 31
0.0
  0
SPLINE
  5
66
330
1F
100
AcDbEntity
  8
FRONT_DOOR
  6
Continuous
370
    15
100
AcDbSpline
210
0.0
220
0.0
230
1.0
 70
     8
 71
     3
 72
    11
 73
     7
 74
     0
 42
0.0000000001
 43
0.0000000001
 40
0.0
 40
0.0
 40
0.0
 40
0.0
 40
0.2647571364757576
 40
0.5114105927160154
 40
0.7580218400511334
 40
1.0
 40
1.0
 40
1.0
 40
1.0
 10
3.341402183010388
 20
2.506628153226982
 30
0.0
 10
3.346077084597876
 20
2.507638581487821
 30
0.0
 10
3.355107225290475
 20
2.509590346500286
 30
0.0
 10
3.368475563141633
 20
2.524033493719638
 30
0.0
 10
3.381447039645746
 20
2.543659473302683
 30
0.0
 10
3.390063732639633
 20
2.559020124031452
 30
0.0
 10
3.394331224902912
 20
2.56662762010802
 30
0.0
  0
SPLINE
  5
67
330
1F
100
AcDbEntity
  8
FRONT_DOOR
  6
Continuous
370
    15
100
AcDbSpline
210
0.0
220
0.0
230
1.0
 70
     8
 71
     3
 72
    12
 73
     8
 74
     0
 42
0.0000000001
 43
0.0000000001
 40
0.0
 40
0.0
 40
0.0
 40
0.0
 40
0.2237422220156615
 40
0.4475235388980997
 40
0.6713024452794514
 40
0.8950829878462057
 40
1.0
 40
1.0
 40
1.0
 40
1.0
 10
3.394331224902912
 20
2.56662762010802
 30
0.0
 10
3.380857284490319
 20
2.562678688675456
 30
0.0
 10
3.353907049340136
 20
2.554780135806685
 30
0.0
 10
3.318383638884805
 20
2.542930710718969
 30
0.0
 10
3.292326180906401
 20
2.531087643189365
 30
0.0
 10
3.280624524120328
 20
2.521318731061767
 30
0.0
 10
3.279644146811084
 20
2.515542788635412
 30
0.0
 10
3.27933122005945
 20
2.513699164875385
 30
0.0
  0
SPLINE
  5
68
330
1F
100
AcDbEntity
  8
FRONT_DOOR
  6
Continuous
370
    15
100
AcDbSpline
210
0.0
220
0.0
230
1.0
 70
     8
 71
     3
 72
    11
 73
     7
 74
     0
 42
0.0000000001
 43
0.0000000001
 40
0.0
 40
0.0
 40
0.0
 40
0.0
 40
0.2647530275227998
 40
0.5114081955905729
 40
0.7580203007777455
 40
1.0
 40
1.0
 40
1.0
 40
1.0
 10
3.394331224902913
 20
2.56662762010802
 30
0.0
 10
3.385999381159681
 20
2.561952937719769
 30
0.0
 10
3.369905237819609
 20
2.552923122621884
 30
0.0
 10
3.350159395934875
 20
2.539554839888756
 30
0.0
 10
3.336880945161634
 20
2.526583328837405
 30
0.0
 10
3.335175706762089
 20
2.517966654237838
 30
0.0
 10
3.334331171361984
 20
2.513699164875384
 30
0.0
  0
LINE
  5
69
330
1F
100
AcDbEntity
  8
FRONT_DOOR
  6
Continuous
370
    15
100
AcDbLine
 10
3.279331220099999
 20
2.5136991649
 30
0.0
 11
3.334331171399999
 21
2.5136991649
 31
0.0
  0
CIRCLE
  5
6A
330
1F
100
AcDbEntity
  8
FRONT_DOOR
  6
Continuous
370
    15
100
AcDbCircle
 10
9.7693313953
 20
7.631627907
 30
0.0
 40
0.4374999999999983
  0
LINE
  5
6B
330
1F
100
AcDbEntity
  8
FRONT_DOOR
  6
Continuous
370
    15
100
AcDbLine
 10
3.279331220099999
 20
12.749556706
 30
0.0
 11
3.279331220099999
 21
2.5136991649
 31
0.0
  0
SPLINE
  5
6C
330
1F
100
AcDbEntity
  8
FRONT_DOOR
  6
Continuous
370
    15
100
AcDbSpline
210
0.0
220
0.0
230
1.0
 70
     8
 71
     3
 72
    12
 73
     8
 74
     0
 42
0.0000000001
 43
0.0000000001
 40
0.0
 40
0.0
 40
0.0
 40
0.0
 40
0.2237442759984406
 40
0.4475240652171472
 40
0.6713047908516879
 40
0.8950850538382075
 40
1.0
 40
1.0
 40
1.0
 40
1.0
 10
3.27933122005945
 20
12.74955670604228
 30
0.0
 10
3.28071304081001
 20
12.74560782529376
 30
0.0
 10
3.283476901636991
 20
12.73770943702103
 30
0.0
 10
3.304964622210609
 20
12.72585931890512
 30
0.0
 10
3.33635605203398
 20
12.7140163516439
 30
0.0
 10
3.368328818116996
 20
12.70424813012349
 30
0.0
 10
3.38803976453324
 20
12.69847171042892
 30
0.0
 10
3.394331224902912
 20
12.6966279574797
 30
0.0
  0
SPLINE
  5
6D
330
1F
100
AcDbEntity
  8
FRONT_DOOR
  6
Continuous
370
    15
100
AcDbSpline
210
0.0
220
0.0
230
1.0
 70
     8
 71
     3
 72
    11
 73
     7
 74
     0
 42
0.0000000001
 43
0.0000000001
 40
0.0
 40
0.0
 40
0.0
 40
0.0
 40
0.2647547141816544
 40
0.5114053975324051
 40
0.7580181989650482
 40
1.0
 40
1.0
 40
1.0
 40
1.0
 10
3.394331224902913
 20
12.6966279574797
 30
0.0
 10
3.389656584948091
 20
12.70495995609417
 30
0.0
 10
3.380626958745561
 20
12.72105420800144
 30
0.0
 10
3.367258215523451
 20
12.74079941414421
 30
0.0
 10
3.35428707304689
 20
12.75407837793421
 30
0.0
 10
3.345669921308836
 20
12.75578352055629
 30
0.0
 10
3.341402183010388
 20
12.75662801102063
 30
0.0
  0
LINE
  5
6E
330
1F
100
AcDbEntity
  8
FRONT_DOOR
  6
Continuous
370
    15
100
AcDbLine
 10
3.341402183
 20
12.8116279623
 30
0.0
 11
3.341402183
 21
12.756628011
 31
0.0
  0
LINE
  5
6F
330
1F
100
AcDbEntity
  8
FRONT_DOOR
  6
Continuous
370
    15
100
AcDbLine
 10
11.5172604281
 20
12.8116279623
 30
0.0
 11
11.5172604281
 21
12.756628011
 31
0.0
  0
SPLINE
  5
70
330
1F
100
AcDbEntity
  8
FRONT_DOOR
  6
Continuous
370
    15
100
AcDbSpline
210
0.0
220
0.0
230
1.0
 70
     8
 71
     3
 72
    11
 73
     7
 74
     0
 42
0.0000000001
 43
0.0000000001
 40
0.0
 40
0.0
 40
0.0
 40
0.0
 40
0.2647556266469037
 40
0.5114084704130497
 40
0.758021099488889
 40
1.0
 40
1.0
 40
1.0
 40
1.0
 10
11.5172604281316
 20
12.75662801102063
 30
0.0
 10
11.51258565221528
 20
12.75561744818764
 30
0.0
 10
11.50355574025017
 20
12.7536654202016
 30
0.0
 10
11.49018723625168
 20
12.73922241198377
 30
0.0
 10
11.47721597606023
 20
12.71959604266226
 30
0.0
 10
11.46859900883919
 20
12.70423542661662
 30
0.0
 10
11.46433138623908
 20
12.6966279574797
 30
0.0
  0
LINE
  5
71
330
1F
100
AcDbEntity
  8
FRONT_DOOR
  6
Continuous
370
    15
100
AcDbLine
 10
3.279331220099999
 20
12.749556706
 30
0.0
 11
3.334331171399999
 21
12.749556706
 31
0.0
  0
SPLINE
  5
72
330
1F
100
AcDbEntity
  8
FRONT_DOOR
  6
Continuous
370
    15
100
AcDbSpline
210
0.0
220
0.0
230
1.0
 70
     8
 71
     3
 72
    11
 73
     7
 74
     0
 42
0.0000000001
 43
0.0000000001
 40
0.0
 40
0.0
 40
0.0
 40
0.0
 40
0.2647555279148363
 40
0.5114090737698004
 40
0.7580204107042893
 40
1.0
 40
1.0
 40
1.0
 40
1.0
 10
3.334331171361986
 20
12.74955670604228
 30
0.0
 10
3.335341859682459
 20
12.74488204730264
 30
0.0
 10
3.337294133094515
 20
12.73585234765837
 30
0.0
 10
3.351737051031676
 20
12.7224838644628
 30
0.0
 10
3.371363158657093
 20
12.70951248099664
 30
0.0
 10
3.386723741273383
 20
12.70089556976714
 30
0.0
 10
3.394331224902912
 20
12.6966279574797
 30
0.0
  0
CIRCLE
  5
73
330
1F
100
AcDbEntity
  8
FRONT_DOOR
  6
Continuous
370
    15
100
AcDbCircle
 10
9.7693313953
 20
7.631627907
 30
0.0
 40
0.3925000000000001
  0
LINE
  5
74
330
1F
100
AcDbEntity
  8
FRONT_DOOR
  6
Continuous
370
    15
100
AcDbLine
 10
9.419331406900001
 20
7.676627902299999
 30
0.0
 11
9.419331406900001
 21
7.586627895299999
 31
0.0
  0
LINE
  5
75
330
1F
100
AcDbEntity
  8
FRONT_DOOR
  6
Continuous
370
    15
100
AcDbLine
 10
9.419331406900001
 20
7.586627895299999
 30
0.0
 11
10.1193314571
 21
7.586627895299999
 31
0.0
  0
LINE
  5
76
330
1F
100
AcDbEntity
  8
FRONT_DOOR
  6
Continuous
370
    15
100
AcDbLine
 10
10.1193314571
 20
7.586627895299999
 30
0.0
 11
10.1193314571
 21
7.676627902299999
 31
0.0
  0
LINE
  5
77
330
1F
100
AcDbEntity
  8
FRONT_DOOR
  6
Continuous
370
    15
100
AcDbLine
 10
10.1193314571
 20
7.676627902299999
 30
0.0
 11
9.419331406900001
 21
7.676627902299999
 31
0.0
  0
CIRCLE
  5
78
330
1F
100
AcDbEntity
  8
FRONT_DOOR
  6
Continuous
370
    15
100
AcDbCircle
 10
9.7693313953
 20
7.631627907
 30
0.0
 40
0.4325000000000001
  0
LINE
  5
79
330
1F
100
AcDbEntity
  8
BODY
  6
Continuous
370
    15
100
AcDbLine
 10
3.279331220099999
 20
12.311628005
 30
0.0
 11
3.111831608399999
 21
12.311628005
 31
0.0
  0
LINE
  5
7A
330
1F
100
AcDbEntity
  8
BODY
  6
Continuous
370
    15
100
AcDbLine
 10
3.111831608399999
 20
11.8116280477
 30
0.0
 11
3.279331220099999
 21
11.8116280477
 31
0.0
  0
LINE
  5
7B
330
1F
100
AcDbEntity
  8
BODY
  6
Continuous
370
    15
100
AcDbLine
 10
3.279331220099999
 20
10.8116278398
 30
0.0
 11
3.111831608399999
 21
10.8116278398
 31
0.0
  0
LINE
  5
7C
330
1F
100
AcDbEntity
  8
BODY
  6
Continuous
370
    15
100
AcDbLine
 10
3.111831608399999
 20
11.3116277971
 30
0.0
 11
3.279331220099999
 21
11.3116277971
 31
0.0
  0
LINE
  5
7D
330
1F
100
AcDbEntity
  8
BODY
  6
Continuous
370
    15
100
AcDbLine
 10
3.111831608399999
 20
4.5066279824
 30
0.0
 11
3.279331220099999
 21
4.5066279824
 31
0.0
  0
LINE
  5
7E
330
1F
100
AcDbEntity
  8
BODY
  6
Continuous
370
    15
100
AcDbLine
 10
3.279331220099999
 20
5.0066279397
 30
0.0
 11
3.111831608399999
 21
5.0066279397
 31
0.0
  0
LINE
  5
7F
330
1F
100
AcDbEntity
  8
BODY
  6
Continuous
370
    15
100
AcDbLine
 10
3.279331220099999
 20
3.5066277745
 30
0.0
 11
3.111831608399999
 21
3.5066277745
 31
0.0
  0
LINE
  5
80
330
1F
100
AcDbEntity
  8
BODY
  6
Continuous
370
    15
100
AcDbLine
 10
3.111831608399999
 20
4.006628025099999
 30
0.0
 11
3.279331220099999
 21
4.006628025099999
 31
0.0
  0
LINE
  5
81
330
1F
100
AcDbEntity
  8
FRONT_DOOR
  6
Continuous
370
    15
100
AcDbLine
 10
3.279331220099999
 20
3.5066277745
 30
0.0
 11
3.111831608399999
 21
3.5066277745
 31
0.0
  0
LINE
  5
82
330
1F
100
AcDbEntity
  8
FRONT_DOOR
  6
Continuous
370
    15
100
AcDbLine
 10
3.111831608399999
 20
3.0066278172
 30
0.0
 11
3.279331220099999
 21
3.0066278172
 31
0.0
  0
LINE
  5
83
330
1F
100
AcDbEntity
  8
FRONT_DOOR
  6
Continuous
370
    15
100
AcDbLine
 10
3.111831608399999
 20
4.5066279824
 30
0.0
 11
3.279331220099999
 21
4.5066279824
 31
0.0
  0
LINE
  5
84
330
1F
100
AcDbEntity
  8
FRONT_DOOR
  6
Continuous
370
    15
100
AcDbLine
 10
3.279331220099999
 20
4.006628025099999
 30
0.0
 11
3.111831608399999
 21
4.006628025099999
 31
0.0
  0
LINE
  5
85
330
1F
100
AcDbEntity
  8
FRONT_DOOR
  6
Continuous
370
    15
100
AcDbLine
 10
3.111831608399999
 20
11.8116280477
 30
0.0
 11
3.279331220099999
 21
11.8116280477
 31
0.0
  0
LINE
  5
86
330
1F
100
AcDbEntity
  8
FRONT_DOOR
  6
Continuous
370
    15
100
AcDbLine
 10
3.279331220099999
 20
11.3116277971
 30
0.0
 11
3.111831608399999
 21
11.3116277971
 31
0.0
  0
LINE
  5
87
330
1F
100
AcDbEntity
  8
FRONT_DOOR
  6
Continuous
370
    15
100
AcDbLine
 10
3.279331220099999
 20
10.8116278398
 30
0.0
 11
3.111831608399999
 21
10.8116278398
 31
0.0
  0
LINE
  5
88
330
1F
100
AcDbEntity
  8
FRONT_DOOR
  6
Continuous
370
    15
100
AcDbLine
 10
3.111831608399999
 20
10.3116278825
 30
0.0
 11
3.279331220099999
 21
10.3116278825
 31
0.0
  0
LINE
  5
89
330
1F
100
AcDbEntity
  8
BODY
  6
HIDDEN
370
     0
100
AcDbLine
 10
3.966331363799999
 20
3.161628053299999
 30
0.0
 11
10.8263314231
 21
3.161628053299999
 31
0.0
  0
LINE
  5
8A
330
1F
100
AcDbEntity
  8
BODY
  6
HIDDEN
370
     0
100
AcDbLine
 10
10.8263314231
 20
3.161628053299999
 30
0.0
 11
10.8263314231
 21
2.746627780699999
 31
0.0
  0
LINE
  5
8B
330
1F
100
AcDbEntity
  8
BODY
  6
HIDDEN
370
     0
100
AcDbLine
 10
3.966331363799999
 20
2.746627780699999
 30
0.0
 11
10.8263314231
 21
2.746627780699999
 31
0.0
  0
LINE
  5
8C
330
1F
100
AcDbEntity
  8
BODY
  6
HIDDEN
370
     0
100
AcDbLine
 10
3.966331363799999
 20
2.746627780699999
 30
0.0
 11
3.966331363799999
 21
3.161628053299999
 31
0.0
  0
LINE
  5
8D
330
1F
100
AcDbEntity
  8
BODY
  6
HIDDEN
370
     0
100
AcDbLine
 10
11.3263313804
 20
3.251627840299999
 30
0.0
 11
11.2713314291
 21
3.251627840299999
 31
0.0
  0
LINE
  5
8E
330
1F
100
AcDbEntity
  8
BODY
  6
HIDDEN
370
     0
100
AcDbLine
 10
11.3263313804
 20
2.746627780699999
 30
0.0
 11
11.3263313804
 21
3.251627840299999
 31
0.0
  0
LINE
  5
8F
330
1F
100
AcDbEntity
  8
BODY
  6
HIDDEN
370
     0
100
AcDbLine
 10
11.2713314291
 20
2.746627780699999
 30
0.0
 11
11.3263313804
 21
2.746627780699999
 31
0.0
  0
LINE
  5
90
330
1F
100
AcDbEntity
  8
BODY
  6
HIDDEN
370
     0
100
AcDbLine
 10
11.2713314291
 20
2.746627780699999
 30
0.0
 11
11.2713314291
 21
3.251627840299999
 31
0.0
  0
LINE
  5
91
330
1F
100
AcDbEntity
  8
BODY
  6
HIDDEN
370
     0
100
AcDbLine
 10
3.466331406499999
 20
3.251627840299999
 30
0.0
 11
3.521331357799999
 21
3.251627840299999
 31
0.0
  0
LINE
  5
92
330
1F
100
AcDbEntity
  8
BODY
  6
HIDDEN
370
     0
100
AcDbLine
 10
3.521331357799999
 20
3.251627840299999
 30
0.0
 11
3.521331357799999
 21
2.746627780699999
 31
0.0
  0
LINE
  5
93
330
1F
100
AcDbEntity
  8
BODY
  6
HIDDEN
370
     0
100
AcDbLine
 10
3.521331357799999
 20
2.746627780699999
 30
0.0
 11
3.466331406499999
 21
2.746627780699999
 31
0.0
  0
LINE
  5
94
330
1F
100
AcDbEntity
  8
BODY
  6
HIDDEN
370
     0
100
AcDbLine
 10
3.466331406499999
 20
3.251627840299999
 30
0.0
 11
3.466331406499999
 21
2.746627780699999
 31
0.0
  0
ARC
  5
95
330
1F
100
AcDbEntity
  8
BODY
  6
HIDDEN
370
     0
100
AcDbCircle
 10
11.2113313953
 20
2.746627906999999
 30
0.0
 40
0.1150000000000002
100
AcDbArc
 50
270.0
 51
360.0
  0
LINE
  5
96
330
1F
100
AcDbEntity
  8
BODY
  6
HIDDEN
370
     0
100
AcDbLine
 10
11.2113313756
 20
2.6866277272
 30
0.0
 11
11.2113313756
 21
2.6316277759
 31
0.0
  0
ARC
  5
97
330
1F
100
AcDbEntity
  8
BODY
  6
HIDDEN
370
     0
100
AcDbCircle
 10
11.2113313953
 20
2.746627906999999
 30
0.0
 40
0.0599999999999996
100
AcDbArc
 50
270.0
 51
360.0
  0
LINE
  5
98
330
1F
100
AcDbEntity
  8
BODY
  6
HIDDEN
370
     0
100
AcDbLine
 10
11.2113313756
 20
2.6866277272
 30
0.0
 11
10.8263314231
 21
2.6866277272
 31
0.0
  0
LINE
  5
99
330
1F
100
AcDbEntity
  8
BODY
  6
HIDDEN
370
     0
100
AcDbLine
 10
10.8663313611
 20
2.6316277759
 30
0.0
 11
10.8263314231
 21
2.6316277759
 31
0.0
  0
LINE
  5
9A
330
1F
100
AcDbEntity
  8
BODY
  6
HIDDEN
370
     0
100
AcDbLine
 10
10.8263314231
 20
2.6866277272
 30
0.0
 11
10.8263314231
 21
2.6316277759
 31
0.0
  0
LINE
  5
9B
330
1F
100
AcDbEntity
  8
BODY
  6
HIDDEN
370
     0
100
AcDbLine
 10
3.581331411299999
 20
2.6866277272
 30
0.0
 11
3.581331411299999
 21
2.6316277759
 31
0.0
  0
LINE
  5
9C
330
1F
100
AcDbEntity
  8
BODY
  6
HIDDEN
370
     0
100
AcDbLine
 10
3.966331363799999
 20
2.6866277272
 30
0.0
 11
3.581331411299999
 21
2.6866277272
 31
0.0
  0
LINE
  5
9D
330
1F
100
AcDbEntity
  8
BODY
  6
HIDDEN
370
     0
100
AcDbLine
 10
3.966331363799999
 20
2.6866277272
 30
0.0
 11
3.966331363799999
 21
2.6316277759
 31
0.0
  0
LINE
  5
9E
330
1F
100
AcDbEntity
  8
BODY
  6
HIDDEN
370
     0
100
AcDbLine
 10
3.966331363799999
 20
2.6316277759
 30
0.0
 11
3.926331425899999
 21
2.6316277759
 31
0.0
  0
ARC
  5
9F
330
1F
100
AcDbEntity
  8
BODY
  6
HIDDEN
370
     0
100
AcDbCircle
 10
3.581331395299999
 20
2.746627906999999
 30
0.0
 40
0.0600000000000009
100
AcDbArc
 50
180.0
 51
270.0
  0
ARC
  5
A0
330
1F
100
AcDbEntity
  8
BODY
  6
HIDDEN
370
     0
100
AcDbCircle
 10
3.581331395299999
 20
2.746627906999999
 30
0.0
 40
0.1150000000000002
100
AcDbArc
 50
180.0
 51
270.0
  0
LINE
  5
A1
330
1F
100
AcDbEntity
  8
BODY
  6
HIDDEN
370
     0
100
AcDbLine
 10
3.966331363799999
 20
2.6866277272
 30
0.0
 11
3.966331363799999
 21
2.746627780699999
 31
0.0
  0
LINE
  5
A2
330
1F
100
AcDbEntity
  8
BODY
  6
HIDDEN
370
     0
100
AcDbLine
 10
10.8263314231
 20
2.746627780699999
 30
0.0
 11
10.8263314231
 21
2.6866277272
 31
0.0
  0
LINE
  5
A3
330
1F
100
AcDbEntity
  8
BODY
  6
HIDDEN
370
     0
100
AcDbLine
 10
10.8263314231
 20
2.6316277759
 30
0.0
 11
3.966331363799999
 21
2.6316277759
 31
0.0
  0
LINE
  5
A4
330
1F
100
AcDbEntity
  8
BODY
  6
HIDDEN
370
     0
100
AcDbLine
 10
3.966331363799999
 20
2.746627780699999
 30
0.0
 11
10.8263314231
 21
2.746627780699999
 31
0.0
  0
LINE
  5
A5
330
1F
100
AcDbEntity
  8
BODY
  6
HIDDEN
370
     0
100
AcDbLine
 10
10.8263314231
 20
2.6866277272
 30
0.0
 11
3.966331363799999
 21
2.6866277272
 31
0.0
  0
SPLINE
  5
A6
330
1F
100
AcDbEntity
  8
BODY
  6
HIDDEN
370
     0
100
AcDbSpline
210
0.0
220
0.0
230
1.0
 70
     8
 71
     3
 72
    12
 73
     8
 74
     0
 42
0.0000000001
 43
0.0000000001
 40
0.0
 40
0.0
 40
0.0
 40
0.0
 40
0.2237450407720798
 40
0.4475244134492047
 40
0.6713053858032828
 40
0.8950823722045956
 40
1.0
 40
1.0
 40
1.0
 40
1.0
 10
11.21133137558346
 20
2.631627775887341
 30
0.0
 10
11.21528033447641
 20
2.633009583863083
 30
0.0
 10
11.22317885819878
 20
2.63577341184206
 30
0.0
 10
11.23502865405915
 20
2.657261223892001
 30
0.0
 10
11.24687194993789
 20
2.688652450368524
 30
0.0
 10
11.25664054095967
 20
2.720625070659288
 30
0.0
 10
11.26241658674717
 20
2.740336116444711
 30
0.0
 10
11.26426027081101
 20
2.746627780730805
 30
0.0
  0
LINE
  5
A7
330
1F
100
AcDbEntity
  8
BODY
  6
HIDDEN
370
     0
100
AcDbLine
 10
3.5284023694
 20
2.746627780699999
 30
0.0
 11
11.2642602708
 21
2.746627780699999
 31
0.0
  0
SPLINE
  5
A8
330
1F
100
AcDbEntity
  8
BODY
  6
HIDDEN
370
     0
100
AcDbSpline
210
0.0
220
0.0
230
1.0
 70
     8
 71
     3
 72
    12
 73
     8
 74
     0
 42
0.0000000001
 43
0.0000000001
 40
0.0
 40
0.0
 40
0.0
 40
0.0
 40
0.2237447040838814
 40
0.4475243453384067
 40
0.6713029085857022
 40
0.8950824003338077
 40
1.0
 40
1.0
 40
1.0
 40
1.0
 10
3.528402369434945
 20
2.746627780730805
 30
0.0
 10
3.532351212547176
 20
2.733153588150603
 30
0.0
 10
3.540249515373518
 20
2.70620309902904
 30
0.0
 10
3.552100142242758
 20
2.670680275235822
 30
0.0
 10
3.563942829777883
 20
2.644622740482303
 30
0.0
 10
3.573711907594038
 20
2.632921056202252
 30
0.0
 10
3.579487792882791
 20
2.631940698556078
 30
0.0
 10
3.581331411327468
 20
2.63162777588734
 30
0.0
  0
LINE
  5
A9
330
1F
100
AcDbEntity
  8
BODY
  6
HIDDEN
370
     0
100
AcDbLine
 10
3.581331411299999
 20
2.6866277272
 30
0.0
 11
3.581331411299999
 21
2.6316277759
 31
0.0
  0
SPLINE
  5
AA
330
1F
100
AcDbEntity
  8
BODY
  6
HIDDEN
370
     0
100
AcDbSpline
210
0.0
220
0.0
230
1.0
 70
     8
 71
     3
 72
    11
 73
     7
 74
     0
 42
0.0000000001
 43
0.0000000001
 40
0.0
 40
0.0
 40
0.0
 40
0.0
 40
0.2647545130017852
 40
0.5114061083295287
 40
0.7580200075882933
 40
1.0
 40
1.0
 40
1.0
 40
1.0
 10
3.528402369434943
 20
2.746627780730805
 30
0.0
 10
3.533077360467535
 20
2.73829598216471
 30
0.0
 10
3.542107684231783
 20
2.722202082076806
 30
0.0
 10
3.555474894292892
 20
2.702455698590005
 30
0.0
 10
3.568447430678503
 20
2.689177566910309
 30
0.0
 10
3.577063991416084
 20
2.687472282695687
 30
0.0
 10
3.581331411327469
 20
2.686627727189878
 30
0.0
  0
SPLINE
  5
AB
330
1F
100
AcDbEntity
  8
BODY
  6
HIDDEN
370
     0
100
AcDbSpline
210
0.0
220
0.0
230
1.0
 70
     8
 71
     3
 72
    11
 73
     7
 74
     0
 42
0.0000000001
 43
0.0000000001
 40
0.0
 40
0.0
 40
0.0
 40
0.0
 40
0.2647567167941874
 40
0.5114104216627334
 40
0.7580209977736473
 40
1.0
 40
1.0
 40
1.0
 40
1.0
 10
11.21133137558346
 20
2.686627727189878
 30
0.0
 10
11.21600617976736
 20
2.687638411918266
 30
0.0
 10
11.22503614360674
 20
2.689590674770636
 30
0.0
 10
11.23840420270979
 20
2.704033566928989
 30
0.0
 10
11.25137600770233
 20
2.723659726440471
 30
0.0
 10
11.25999274382668
 20
2.739020299368866
 30
0.0
 10
11.26426027081101
 20
2.746627780730805
 30
0.0
  0
LINE
  5
AC
330
1F
100
AcDbEntity
  8
BODY
  6
HIDDEN
370
     0
100
AcDbLine
 10
11.2113313756
 20
2.6866277272
 30
0.0
 11
11.2113313756
 21
2.6316277759
 31
0.0
  0
LINE
  5
AD
330
1F
100
AcDbEntity
  8
BODY
  6
HIDDEN
370
     0
100
AcDbLine
 10
11.2642602708
 20
2.746627780699999
 30
0.0
 11
3.5284023694
 21
2.746627780699999
 31
0.0
  0
LINE
  5
AE
330
1F
100
AcDbEntity
  8
BODY
  6
HIDDEN
370
     0
100
AcDbLine
 10
3.466331406499999
 20
2.746627780699999
 30
0.0
 11
3.521331357799999
 21
2.746627780699999
 31
0.0
  0
LINE
  5
AF
330
1F
100
AcDbEntity
  8
BODY
  6
HIDDEN
370
     0
100
AcDbLine
 10
11.3263313804
 20
2.746627780699999
 30
0.0
 11
11.2713314291
 21
2.746627780699999
 31
0.0
  0
LINE
  5
B0
330
1F
100
AcDbEntity
  8
BODY
  6
HIDDEN
370
     0
100
AcDbLine
 10
11.2642602708
 20
3.251627840299999
 30
0.0
 11
3.5284023694
 21
3.251627840299999
 31
0.0
  0
LINE
  5
B1
330
1F
100
AcDbEntity
  8
BODY
  6
HIDDEN
370
     0
100
AcDbLine
 10
11.2642602708
 20
2.746627780699999
 30
0.0
 11
11.2642602708
 21
3.251627840299999
 31
0.0
  0
LINE
  5
B2
330
1F
100
AcDbEntity
  8
BODY
  6
HIDDEN
370
     0
100
AcDbLine
 10
3.5284023694
 20
2.746627780699999
 30
0.0
 11
3.5284023694
 21
3.251627840299999
 31
0.0
  0
LINE
  5
B3
330
1F
100
AcDbEntity
  8
BODY
  6
HIDDEN
370
     0
100
AcDbLine
 10
10.8263314231
 20
12.5166277969
 30
0.0
 11
3.966331363799999
 21
12.5166277969
 31
0.0
  0
LINE
  5
B4
330
1F
100
AcDbEntity
  8
BODY
  6
HIDDEN
370
     0
100
AcDbLine
 10
10.8263314231
 20
12.5166277969
 30
0.0
 11
10.8263314231
 21
12.1016278176
 31
0.0
  0
LINE
  5
B5
330
1F
100
AcDbEntity
  8
BODY
  6
HIDDEN
370
     0
100
AcDbLine
 10
3.966331363799999
 20
12.1016278176
 30
0.0
 11
3.966331363799999
 21
12.5166277969
 31
0.0
  0
LINE
  5
B6
330
1F
100
AcDbEntity
  8
BODY
  6
HIDDEN
370
     0
100
AcDbLine
 10
10.8263314231
 20
12.1016278176
 30
0.0
 11
3.966331363799999
 21
12.1016278176
 31
0.0
  0
LINE
  5
B7
330
1F
100
AcDbEntity
  8
BODY
  6
HIDDEN
370
     0
100
AcDbLine
 10
3.466331406499999
 20
12.0116280307
 30
0.0
 11
3.521331357799999
 21
12.0116280307
 31
0.0
  0
LINE
  5
B8
330
1F
100
AcDbEntity
  8
BODY
  6
HIDDEN
370
     0
100
AcDbLine
 10
3.466331406499999
 20
12.5166277969
 30
0.0
 11
3.466331406499999
 21
12.0116280307
 31
0.0
  0
LINE
  5
B9
330
1F
100
AcDbEntity
  8
BODY
  6
HIDDEN
370
     0
100
AcDbLine
 10
3.521331357799999
 20
12.5166277969
 30
0.0
 11
3.466331406499999
 21
12.5166277969
 31
0.0
  0
LINE
  5
BA
330
1F
100
AcDbEntity
  8
BODY
  6
HIDDEN
370
     0
100
AcDbLine
 10
3.521331357799999
 20
12.5166277969
 30
0.0
 11
3.521331357799999
 21
12.0116280307
 31
0.0
  0
LINE
  5
BB
330
1F
100
AcDbEntity
  8
BODY
  6
HIDDEN
370
     0
100
AcDbLine
 10
11.2113313756
 20
12.5766278504
 30
0.0
 11
11.2113313756
 21
12.6316278017
 31
0.0
  0
ARC
  5
BC
330
1F
100
AcDbEntity
  8
BODY
  6
HIDDEN
370
     0
100
AcDbCircle
 10
11.2113313953
 20
12.516627907
 30
0.0
 40
0.1149999999999984
100
AcDbArc
 50
0.0
 51
90.0
  0
LINE
  5
BD
330
1F
100
AcDbEntity
  8
BODY
  6
HIDDEN
370
     0
100
AcDbLine
 10
11.2713314291
 20
12.5166277969
 30
0.0
 11
11.3263313804
 21
12.5166277969
 31
0.0
  0
ARC
  5
BE
330
1F
100
AcDbEntity
  8
BODY
  6
HIDDEN
370
     0
100
AcDbCircle
 10
11.2113313953
 20
12.516627907
 30
0.0
 40
0.0599999999999987
100
AcDbArc
 50
0.0
 51
90.0
  0
LINE
  5
BF
330
1F
100
AcDbEntity
  8
BODY
  6
HIDDEN
370
     0
100
AcDbLine
 10
11.3263313804
 20
12.0116280307
 30
0.0
 11
11.2713314291
 21
12.0116280307
 31
0.0
  0
LINE
  5
C0
330
1F
100
AcDbEntity
  8
BODY
  6
HIDDEN
370
     0
100
AcDbLine
 10
11.2713314291
 20
12.0116280307
 30
0.0
 11
11.2713314291
 21
12.5166277969
 31
0.0
  0
LINE
  5
C1
330
1F
100
AcDbEntity
  8
BODY
  6
HIDDEN
370
     0
100
AcDbLine
 10
11.3263313804
 20
12.0116280307
 30
0.0
 11
11.3263313804
 21
12.5166277969
 31
0.0
  0
LINE
  5
C2
330
1F
100
AcDbEntity
  8
BODY
  6
HIDDEN
370
     0
100
AcDbLine
 10
3.581331411299999
 20
12.5766278504
 30
0.0
 11
3.966331363799999
 21
12.5766278504
 31
0.0
  0
LINE
  5
C3
330
1F
100
AcDbEntity
  8
BODY
  6
HIDDEN
370
     0
100
AcDbLine
 10
3.581331411299999
 20
12.5766278504
 30
0.0
 11
3.581331411299999
 21
12.6316278017
 31
0.0
  0
LINE
  5
C4
330
1F
100
AcDbEntity
  8
BODY
  6
HIDDEN
370
     0
100
AcDbLine
 10
3.926331425899999
 20
12.6316278017
 30
0.0
 11
3.966331363799999
 21
12.6316278017
 31
0.0
  0
LINE
  5
C5
330
1F
100
AcDbEntity
  8
BODY
  6
HIDDEN
370
     0
100
AcDbLine
 10
3.966331363799999
 20
12.5766278504
 30
0.0
 11
3.966331363799999
 21
12.6316278017
 31
0.0
  0
LINE
  5
C6
330
1F
100
AcDbEntity
  8
BODY
  6
HIDDEN
370
     0
100
AcDbLine
 10
10.8263314231
 20
12.6316278017
 30
0.0
 11
10.8663313611
 21
12.6316278017
 31
0.0
  0
LINE
  5
C7
330
1F
100
AcDbEntity
  8
BODY
  6
HIDDEN
370
     0
100
AcDbLine
 10
10.8263314231
 20
12.5766278504
 30
0.0
 11
11.2113313756
 21
12.5766278504
 31
0.0
  0
LINE
  5
C8
330
1F
100
AcDbEntity
  8
BODY
  6
HIDDEN
370
     0
100
AcDbLine
 10
10.8263314231
 20
12.5766278504
 30
0.0
 11
10.8263314231
 21
12.6316278017
 31
0.0
  0
LINE
  5
C9
330
1F
100
AcDbEntity
  8
BODY
  6
HIDDEN
370
     0
100
AcDbLine
 10
10.8263314231
 20
12.5766278504
 30
0.0
 11
10.8263314231
 21
12.5166277969
 31
0.0
  0
LINE
  5
CA
330
1F
100
AcDbEntity
  8
BODY
  6
HIDDEN
370
     0
100
AcDbLine
 10
3.966331363799999
 20
12.6316278017
 30
0.0
 11
10.8263314231
 21
12.6316278017
 31
0.0
  0
LINE
  5
CB
330
1F
100
AcDbEntity
  8
BODY
  6
HIDDEN
370
     0
100
AcDbLine
 10
3.966331363799999
 20
12.5166277969
 30
0.0
 11
3.966331363799999
 21
12.5766278504
 31
0.0
  0
ARC
  5
CC
330
1F
100
AcDbEntity
  8
BODY
  6
HIDDEN
370
     0
100
AcDbCircle
 10
3.581331395299999
 20
12.516627907
 30
0.0
 40
0.0599999999999987
100
AcDbArc
 50
90.0
 51
180.0
  0
ARC
  5
CD
330
1F
100
AcDbEntity
  8
BODY
  6
HIDDEN
370
     0
100
AcDbCircle
 10
3.581331395299999
 20
12.516627907
 30
0.0
 40
0.1149999999999984
100
AcDbArc
 50
90.0
 51
180.0
  0
LINE
  5
CE
330
1F
100
AcDbEntity
  8
BODY
  6
HIDDEN
370
     0
100
AcDbLine
 10
10.8263314231
 20
12.5166277969
 30
0.0
 11
3.966331363799999
 21
12.5166277969
 31
0.0
  0
LINE
  5
CF
330
1F
100
AcDbEntity
  8
BODY
  6
HIDDEN
370
     0
100
AcDbLine
 10
3.966331363799999
 20
12.5766278504
 30
0.0
 11
10.8263314231
 21
12.5766278504
 31
0.0
  0
SPLINE
  5
D0
330
1F
100
AcDbEntity
  8
BODY
  6
HIDDEN
370
     0
100
AcDbSpline
210
0.0
220
0.0
230
1.0
 70
     8
 71
     3
 72
    12
 73
     8
 74
     0
 42
0.0000000001
 43
0.0000000001
 40
0.0
 40
0.0
 40
0.0
 40
0.0
 40
0.2237443398925532
 40
0.44752491422583
 40
0.6713040708927216
 40
0.8950818132338728
 40
1.0
 40
1.0
 40
1.0
 40
1.0
 10
3.581331411327469
 20
12.63162780170038
 30
0.0
 10
3.577382554876756
 20
12.63024613195456
 30
0.0
 10
3.569484202474884
 20
12.62748256870739
 30
0.0
 10
3.557633735907301
 20
12.6059943441453
 30
0.0
 10
3.545790684744712
 20
12.57460341313737
 30
0.0
 10
3.536022833361721
 20
12.54263042820719
 30
0.0
 10
3.530246232972237
 20
12.52291944842578
 30
0.0
 10
3.528402369434945
 20
12.51662779685691
 30
0.0
  0
LINE
  5
D1
330
1F
100
AcDbEntity
  8
BODY
  6
HIDDEN
370
     0
100
AcDbLine
 10
11.2642602708
 20
12.5166277969
 30
0.0
 11
3.5284023694
 21
12.5166277969
 31
0.0
  0
SPLINE
  5
D2
330
1F
100
AcDbEntity
  8
BODY
  6
HIDDEN
370
     0
100
AcDbSpline
210
0.0
220
0.0
230
1.0
 70
     8
 71
     3
 72
    12
 73
     8
 74
     0
 42
0.0000000001
 43
0.0000000001
 40
0.0
 40
0.0
 40
0.0
 40
0.0
 40
0.223744388999365
 40
0.4475245702635577
 40
0.6713039971310582
 40
0.8950822307639764
 40
1.0
 40
1.0
 40
1.0
 40
1.0
 10
11.26426027081101
 20
12.51662779685691
 30
0.0
 10
11.260311383323
 20
12.5301019766031
 30
0.0
 10
11.25241297664567
 20
12.55705249155247
 30
0.0
 10
11.24056297963691
 20
12.59257560615047
 30
0.0
 10
11.22871977453301
 20
12.61863343569889
 30
0.0
 10
11.21895136350506
 20
12.63033497138835
 30
0.0
 10
11.21317511806991
 20
12.631314986746
 30
0.0
 10
11.21133137558346
 20
12.63162780170038
 30
0.0
  0
LINE
  5
D3
330
1F
100
AcDbEntity
  8
BODY
  6
HIDDEN
370
     0
100
AcDbLine
 10
11.2113313756
 20
12.5766278504
 30
0.0
 11
11.2113313756
 21
12.6316278017
 31
0.0
  0
SPLINE
  5
D4
330
1F
100
AcDbEntity
  8
BODY
  6
HIDDEN
370
     0
100
AcDbSpline
210
0.0
220
0.0
230
1.0
 70
     8
 71
     3
 72
    11
 73
     7
 74
     0
 42
0.0000000001
 43
0.0000000001
 40
0.0
 40
0.0
 40
0.0
 40
0.0
 40
0.26475467747374
 40
0.5114062049675383
 40
0.7580192460658378
 40
1.0
 40
1.0
 40
1.0
 40
1.0
 10
11.26426027081101
 20
12.51662779685691
 30
0.0
 10
11.25958553822126
 20
12.52495976817409
 30
0.0
 10
11.25055571757457
 20
12.54105399499522
 30
0.0
 10
11.23718741464735
 20
12.56079959883437
 30
0.0
 10
11.22421586656206
 20
12.57407854600843
 30
0.0
 10
11.21559897407217
 20
12.57578347031503
 30
0.0
 10
11.21133137558346
 20
12.57662785039784
 30
0.0
  0
SPLINE
  5
D5
330
1F
100
AcDbEntity
  8
BODY
  6
HIDDEN
370
     0
100
AcDbSpline
210
0.0
220
0.0
230
1.0
 70
     8
 71
     3
 72
    11
 73
     7
 74
     0
 42
0.0000000001
 43
0.0000000001
 40
0.0
 40
0.0
 40
0.0
 40
0.0
 40
0.2647540511429632
 40
0.5114062913866706
 40
0.7580174151450402
 40
1.0
 40
1.0
 40
1.0
 40
1.0
 10
3.581331411327469
 20
12.57662785039784
 30
0.0
 10
3.576656754588618
 20
12.57561724224782
 30
0.0
 10
3.567627057569815
 20
12.5736651234273
 30
0.0
 10
3.554258525171089
 20
12.55922270206624
 30
0.0
 10
3.541287167566709
 20
12.53959595245114
 30
0.0
 10
3.532670091759272
 20
12.52423534409015
 30
0.0
 10
3.528402369434945
 20
12.51662779685691
 30
0.0
  0
LINE
  5
D6
330
1F
100
AcDbEntity
  8
BODY
  6
HIDDEN
370
     0
100
AcDbLine
 10
3.581331411299999
 20
12.5766278504
 30
0.0
 11
3.581331411299999
 21
12.6316278017
 31
0.0
  0
LINE
  5
D7
330
1F
100
AcDbEntity
  8
BODY
  6
HIDDEN
370
     0
100
AcDbLine
 10
3.5284023694
 20
12.5166277969
 30
0.0
 11
11.2642602708
 21
12.5166277969
 31
0.0
  0
LINE
  5
D8
330
1F
100
AcDbEntity
  8
BODY
  6
HIDDEN
370
     0
100
AcDbLine
 10
11.3263313804
 20
12.5166277969
 30
0.0
 11
11.2713314291
 21
12.5166277969
 31
0.0
  0
LINE
  5
D9
330
1F
100
AcDbEntity
  8
BODY
  6
HIDDEN
370
     0
100
AcDbLine
 10
3.466331406499999
 20
12.5166277969
 30
0.0
 11
3.521331357799999
 21
12.5166277969
 31
0.0
  0
LINE
  5
DA
330
1F
100
AcDbEntity
  8
BODY
  6
HIDDEN
370
     0
100
AcDbLine
 10
3.5284023694
 20
12.0116280307
 30
0.0
 11
11.2642602708
 21
12.0116280307
 31
0.0
  0
LINE
  5
DB
330
1F
100
AcDbEntity
  8
BODY
  6
HIDDEN
370
     0
100
AcDbLine
 10
11.2642602708
 20
12.5166277969
 30
0.0
 11
11.2642602708
 21
12.0116280307
 31
0.0
  0
LINE
  5
DC
330
1F
100
AcDbEntity
  8
BODY
  6
HIDDEN
370
     0
100
AcDbLine
 10
3.5284023694
 20
12.5166277969
 30
0.0
 11
3.5284023694
 21
12.0116280307
 31
0.0
  0
LINE
  5
DD
330
1F
100
AcDbEntity
  8
FRONT_DOOR
  6
HIDDEN
370
     0
100
AcDbLine
 10
11.5243314398
 20
12.749556706
 30
0.0
 11
11.5243314398
 21
2.5136991649
 31
0.0
  0
LINE
  5
DE
330
1F
100
AcDbEntity
  8
FRONT_DOOR
  6
HIDDEN
370
     0
100
AcDbLine
 10
11.4643313862
 20
2.566627620099999
 30
0.0
 11
11.4643313862
 21
12.6966279575
 31
0.0
  0
LINE
  5
DF
330
1F
100
AcDbEntity
  8
FRONT_DOOR
  6
HIDDEN
370
     0
100
AcDbLine
 10
3.341402183
 20
12.756628011
 30
0.0
 11
11.5172604281
 21
12.756628011
 31
0.0
  0
LINE
  5
E0
330
1F
100
AcDbEntity
  8
FRONT_DOOR
  6
HIDDEN
370
     0
100
AcDbLine
 10
11.4643313862
 20
12.6966279575
 30
0.0
 11
3.3943312249
 21
12.6966279575
 31
0.0
  0
LINE
  5
E1
330
1F
100
AcDbEntity
  8
FRONT_DOOR
  6
HIDDEN
370
     0
100
AcDbLine
 10
3.334331171399999
 20
2.5136991649
 30
0.0
 11
3.334331171399999
 21
12.749556706
 31
0.0
  0
LINE
  5
E2
330
1F
100
AcDbEntity
  8
FRONT_DOOR
  6
HIDDEN
370
     0
100
AcDbLine
 10
3.3943312249
 20
12.6966279575
 30
0.0
 11
3.3943312249
 21
2.566627620099999
 31
0.0
  0
LINE
  5
E3
330
1F
100
AcDbEntity
  8
FRONT_DOOR
  6
HIDDEN
370
     0
100
AcDbLine
 10
11.5172604281
 20
2.506628153199999
 30
0.0
 11
3.341402183
 21
2.506628153199999
 31
0.0
  0
LINE
  5
E4
330
1F
100
AcDbEntity
  8
FRONT_DOOR
  6
HIDDEN
370
     0
100
AcDbLine
 10
3.3943312249
 20
2.566627620099999
 30
0.0
 11
11.4643313862
 21
2.566627620099999
 31
0.0
  0
CIRCLE
  5
E5
330
1F
100
AcDbEntity
  8
FRONT_DOOR
  6
HIDDEN
370
     0
100
AcDbCircle
 10
9.7693313953
 20
7.631627907
 30
0.0
 40
0.6549999999999976
  0
LINE
  5
E6
330
1F
100
AcDbEntity
  8
FRONT_DOOR
  6
HIDDEN
370
     0
100
AcDbLine
 10
9.444331404799999
 20
7.4347142236
 30
0.0
 11
9.444331404799999
 21
7.828541592399999
 31
0.0
  0
LINE
  5
E7
330
1F
100
AcDbEntity
  8
FRONT_DOOR
  6
HIDDEN
370
     0
100
AcDbLine
 10
10.0943313859
 20
7.828541592399999
 30
0.0
 11
10.0943313859
 21
7.4347142236
 31
0.0
  0
ARC
  5
E8
330
1F
100
AcDbEntity
  8
FRONT_DOOR
  6
HIDDEN
370
     0
100
AcDbCircle
 10
9.7693313953
 20
7.631627907
 30
0.0
 40
0.3800000000000011
100
AcDbArc
 50
31.2111804983
 51
148.7888195017
  0
ARC
  5
E9
330
1F
100
AcDbEntity
  8
FRONT_DOOR
  6
HIDDEN
370
     0
100
AcDbCircle
 10
9.7693313953
 20
7.631627907
 30
0.0
 40
0.3800000000000007
100
AcDbArc
 50
211.2111804983
 51
328.7888195017
  0
CIRCLE
  5
EA
330
1F
100
AcDbEntity
  8
FRONT_DOOR
  6
HIDDEN
370
     0
100
AcDbCircle
 10
9.7693313953
 20
7.631627907
 30
0.0
 40
0.4598523435351662
  0
LINE
  5
EB
330
1F
100
AcDbEntity
  8
BODY
  6
HIDDEN
370
     0
100
AcDbLine
 10
3.5113311533
 20
12.6316278017
 30
0.0
 11
3.926331425899999
 21
12.6316278017
 31
0.0
  0
LINE
  5
EC
330
1F
100
AcDbEntity
  8
BODY
  6
HIDDEN
370
     0
100
AcDbLine
 10
3.926331425899999
 20
12.6316278017
 30
0.0
 11
3.926331425899999
 21
2.6316277759
 31
0.0
  0
LINE
  5
ED
330
1F
100
AcDbEntity
  8
BODY
  6
HIDDEN
370
     0
100
AcDbLine
 10
3.926331425899999
 20
2.6316277759
 30
0.0
 11
3.5113311533
 21
2.6316277759
 31
0.0
  0
LINE
  5
EE
330
1F
100
AcDbEntity
  8
BODY
  6
HIDDEN
370
     0
100
AcDbLine
 10
3.5113311533
 20
2.6316277759
 30
0.0
 11
3.5113311533
 21
12.6316278017
 31
0.0
  0
CIRCLE
  5
EF
330
1F
100
AcDbEntity
  8
BODY
  6
HIDDEN
370
     0
100
AcDbCircle
 10
3.677331395299999
 20
4.475627906999999
 30
0.0
 40
0.0865
  0
CIRCLE
  5
F0
330
1F
100
AcDbEntity
  8
BODY
  6
HIDDEN
370
     0
100
AcDbCircle
 10
3.677331395299999
 20
10.787627907
 30
0.0
 40
0.0865
  0
LINE
  5
F1
330
1F
100
AcDbEntity
  8
BODY
  6
HIDDEN
370
     0
100
AcDbLine
 10
10.8663313611
 20
2.6316277759
 30
0.0
 11
10.8663313611
 21
12.6316278017
 31
0.0
  0
LINE
  5
F2
330
1F
100
AcDbEntity
  8
BODY
  6
HIDDEN
370
     0
100
AcDbLine
 10
10.8663313611
 20
12.6316278017
 30
0.0
 11
11.2813313403
 21
12.6316278017
 31
0.0
  0
LINE
  5
F3
330
1F
100
AcDbEntity
  8
BODY
  6
HIDDEN
370
     0
100
AcDbLine
 10
11.2813313403
 20
2.6316277759
 30
0.0
 11
11.2813313403
 21
12.6316278017
 31
0.0
  0
LINE
  5
F4
330
1F
100
AcDbEntity
  8
BODY
  6
HIDDEN
370
     0
100
AcDbLine
 10
11.2813313403
 20
2.6316277759
 30
0.0
 11
10.8663313611
 21
2.6316277759
 31
0.0
  0
CIRCLE
  5
F5
330
1F
100
AcDbEntity
  8
BODY
  6
HIDDEN
370
     0
100
AcDbCircle
 10
11.1153313953
 20
4.475627906999999
 30
0.0
 40
0.0865000000000027
  0
CIRCLE
  5
F6
330
1F
100
AcDbEntity
  8
BODY
  6
HIDDEN
370
     0
100
AcDbCircle
 10
11.1153313953
 20
10.787627907
 30
0.0
 40
0.0864999999999991
  0
LINE
  5
F7
330
1F
100
AcDbEntity
  8
BODY
  6
HIDDEN
370
     0
100
AcDbLine
 10
3.3963311485
 20
12.6316278017
 30
0.0
 11
3.5113311533
 21
12.6316278017
 31
0.0
  0
LINE
  5
F8
330
1F
100
AcDbEntity
  8
BODY
  6
HIDDEN
370
     0
100
AcDbLine
 10
3.5113311533
 20
2.6316277759
 30
0.0
 11
3.3963311485
 21
2.6316277759
 31
0.0
  0
LINE
  5
F9
330
1F
100
AcDbEntity
  8
BODY
  6
HIDDEN
370
     0
100
AcDbLine
 10
3.3963311485
 20
2.6316277759
 30
0.0
 11
3.3963311485
 21
12.6316278017
 31
0.0
  0
LINE
  5
FA
330
1F
100
AcDbEntity
  8
BODY
  6
HIDDEN
370
     0
100
AcDbLine
 10
11.3963313451
 20
2.6316277759
 30
0.0
 11
11.2813313403
 21
2.6316277759
 31
0.0
  0
LINE
  5
FB
330
1F
100
AcDbEntity
  8
BODY
  6
HIDDEN
370
     0
100
AcDbLine
 10
11.3963313451
 20
12.6316278017
 30
0.0
 11
11.3963313451
 21
2.6316277759
 31
0.0
  0
LINE
  5
FC
330
1F
100
AcDbEntity
  8
BODY
  6
HIDDEN
370
     0
100
AcDbLine
 10
11.2813313403
 20
12.6316278017
 30
0.0
 11
11.3963313451
 21
12.6316278017
 31
0.0
  0
LINE
  5
FD
330
1F
100
AcDbEntity
  8
BODY
  6
HIDDEN
370
     0
100
AcDbLine
 10
11.3413313938
 20
12.6316278017
 30
0.0
 11
11.3413313938
 21
2.6316277759
 31
0.0
  0
LINE
  5
FE
330
1F
100
AcDbEntity
  8
BODY
  6
HIDDEN
370
     0
100
AcDbLine
 10
11.2813313403
 20
2.6316277759
 30
0.0
 11
11.2813313403
 21
12.6316278017
 31
0.0
  0
LINE
  5
FF
330
1F
100
AcDbEntity
  8
BODY
  6
HIDDEN
370
     0
100
AcDbLine
 10
3.451331686399999
 20
2.6316277759
 30
0.0
 11
3.451331686399999
 21
12.6316278017
 31
0.0
  0
LINE
  5
100
330
1F
100
AcDbEntity
  8
BODY
  6
HIDDEN
370
     0
100
AcDbLine
 10
3.5113311533
 20
12.6316278017
 30
0.0
 11
3.5113311533
 21
2.6316277759
 31
0.0
  0
LINE
  5
101
330
1F
100
AcDbEntity
  8
BODY
  6
HIDDEN
370
     0
100
AcDbLine
 10
11.2813313403
 20
12.6316278017
 30
0.0
 11
11.2813313403
 21
2.6316277759
 31
0.0
  0
LINE
  5
102
330
1F
100
AcDbEntity
  8
BODY
  6
HIDDEN
370
     0
100
AcDbLine
 10
11.2813313403
 20
12.6316278017
 30
0.0
 11
11.2813313403
 21
2.6316277759
 31
0.0
  0
LINE
  5
103
330
1F
100
AcDbEntity
  8
BODY
  6
HIDDEN
370
     0
100
AcDbLine
 10
3.5113311533
 20
2.6316277759
 30
0.0
 11
3.5113311533
 21
12.6316278017
 31
0.0
  0
LINE
  5
104
330
1F
100
AcDbEntity
  8
BODY
  6
HIDDEN
370
     0
100
AcDbLine
 10
3.5113311533
 20
2.6316277759
 30
0.0
 11
3.5113311533
 21
12.6316278017
 31
0.0
  0
CIRCLE
  5
105
330
1F
100
AcDbEntity
  8
BODY
  6
HIDDEN
370
     0
100
AcDbCircle
 10
3.896331395299999
 20
4.131627906999999
 30
0.0
 40
0.1404999999999998
  0
CIRCLE
  5
106
330
1F
100
AcDbEntity
  8
BODY
  6
HIDDEN
370
     0
100
AcDbCircle
 10
10.8963313953
 20
11.131627907
 30
0.0
 40
0.1404999999999994
  0
CIRCLE
  5
107
330
1F
100
AcDbEntity
  8
BODY
  6
HIDDEN
370
     0
100
AcDbCircle
 10
3.896331395299999
 20
11.131627907
 30
0.0
 40
0.140499999999999
  0
CIRCLE
  5
108
330
1F
100
AcDbEntity
  8
BODY
  6
HIDDEN
370
     0
100
AcDbCircle
 10
10.8963313953
 20
4.131627906999999
 30
0.0
 40
0.1404999999999994
  0
CIRCLE
  5
109
330
1F
100
AcDbEntity
  8
FRONT_DOOR
  6
HIDDEN
370
     0
100
AcDbCircle
 10
9.7693313953
 20
7.631627907
 30
0.0
 40
0.3200000000000003
  0
CIRCLE
  5
10A
330
1F
100
AcDbEntity
  8
FRONT_DOOR
  6
HIDDEN
370
     0
100
AcDbCircle
 10
9.7693313953
 20
7.631627907
 30
0.0
 40
0.2872426789160416
  0
SPLINE
  5
10B
330
1F
100
AcDbEntity
  8
FRONT_DOOR
  6
HIDDEN
370
     0
100
AcDbSpline
210
0.0
220
0.0
230
1.0
 70
     8
 71
     3
 72
     9
 73
     5
 74
     0
 42
0.0000000001
 43
0.0000000001
 40
0.0
 40
0.0
 40
0.0
 40
0.0
 40
0.1906914841347128
 40
1.0
 40
1.0
 40
1.0
 40
1.0
 10
10.27133136787709
 20
7.914257854660553
 30
0.0
 10
10.26518884343661
 20
7.9147952579624
 30
0.0
 10
10.23297699890484
 20
7.917613439929393
 30
0.0
 10
10.20024484186364
 20
7.920477128957696
 30
0.0
 10
10.17375442842756
 20
7.922794736875096
 30
0.0
  0
ARC
  5
10C
330
1F
100
AcDbEntity
  8
FRONT_DOOR
  6
HIDDEN
370
     0
100
AcDbCircle
 10
9.7693313953
 20
7.631627907
 30
0.0
 40
0.4983333333333344
100
AcDbArc
 50
35.7522306367
 51
138.9902619322
  0
SPLINE
  5
10D
330
1F
100
AcDbEntity
  8
FRONT_DOOR
  6
HIDDEN
370
     0
100
AcDbSpline
210
0.0
220
0.0
230
1.0
 70
    24
 71
     3
 72
     9
 73
     5
 74
     0
 42
0.0000000001
 43
0.0000000001
 40
0.0
 40
0.0
 40
0.0
 40
0.0
 40
0.942953787125694
 40
1.0
 40
1.0
 40
1.0
 40
1.0
 10
9.393290014419068
 20
7.958627904593951
 30
0.0
 10
9.367697411080671
 20
7.958627904593951
 30
0.0
 10
9.34055652285496
 20
7.958627904593951
 30
0.0
 10
9.313786331842532
 20
7.958627904593951
 30
0.0
 10
9.312259193827351
 20
7.958627904593951
 30
0.0
  0
ARC
  5
10E
330
1F
100
AcDbEntity
  8
FRONT_DOOR
  6
HIDDEN
370
     0
100
AcDbCircle
 10
9.7693313953
 20
7.631627907
 30
0.0
 40
0.5620000000000002
100
AcDbArc
 50
144.4191951383
 51
153.2830510772
  0
SPLINE
  5
10F
330
1F
100
AcDbEntity
  8
FRONT_DOOR
  6
HIDDEN
370
     0
100
AcDbSpline
210
0.0
220
0.0
230
1.0
 70
    24
 71
     3
 72
    12
 73
     8
 74
     0
 42
0.0000000001
 43
0.0000000001
 40
0.0
 40
0.0
 40
0.0
 40
0.0
 40
0.1019699497641693
 40
0.3539413752858164
 40
0.61398832935734
 40
0.8055061723531743
 40
1.0
 40
1.0
 40
1.0
 40
1.0
 10
9.267331386170557
 20
7.378962100942779
 30
0.0
 10
9.267331386170557
 20
7.395632880962926
 30
0.0
 10
9.267331386170557
 20
7.453497759989186
 30
0.0
 10
9.267331386170557
 20
7.557370917644246
 30
0.0
 10
9.267331386170557
 20
7.678928532611182
 30
0.0
 10
9.267331386170557
 20
7.788946854861241
 30
0.0
 10
9.267331386170557
 20
7.852348482916263
 30
0.0
 10
9.267331386170557
 20
7.884293696642397
 30
0.0
  0
ARC
  5
110
330
1F
100
AcDbEntity
  8
FRONT_DOOR
  6
HIDDEN
370
     0
100
AcDbCircle
 10
9.7693313953
 20
7.631627907
 30
0.0
 40
0.5619999999999996
100
AcDbArc
 50
206.7169489228
 51
215.5808048617
  0
SPLINE
  5
111
330
1F
100
AcDbEntity
  8
FRONT_DOOR
  6
HIDDEN
370
     0
100
AcDbSpline
210
0.0
220
0.0
230
1.0
 70
    24
 71
     3
 72
     9
 73
     5
 74
     0
 42
0.0000000001
 43
0.0000000001
 40
0.0
 40
0.0
 40
0.0
 40
0.0
 40
0.942953787125694
 40
1.0
 40
1.0
 40
1.0
 40
1.0
 10
9.393290014419068
 20
7.304627892991228
 30
0.0
 10
9.367697411080671
 20
7.304627892991228
 30
0.0
 10
9.34055652285496
 20
7.304627892991228
 30
0.0
 10
9.313786331842532
 20
7.304627892991228
 30
0.0
 10
9.312259193827351
 20
7.304627892991228
 30
0.0
  0
ARC
  5
112
330
1F
100
AcDbEntity
  8
FRONT_DOOR
  6
HIDDEN
370
     0
100
AcDbCircle
 10
9.7693313953
 20
7.631627907
 30
0.0
 40
0.4983333333333337
100
AcDbArc
 50
221.0097380678
 51
324.2477693633
  0
SPLINE
  5
113
330
1F
100
AcDbEntity
  8
FRONT_DOOR
  6
HIDDEN
370
     0
100
AcDbSpline
210
0.0
220
0.0
230
1.0
 70
     8
 71
     3
 72
     9
 73
     5
 74
     0
 42
0.0000000001
 43
0.0000000001
 40
0.0
 40
0.0
 40
0.0
 40
0.0
 40
0.1906914636599301
 40
1.0
 40
1.0
 40
1.0
 40
1.0
 10
10.27133136787709
 20
7.348997933758061
 30
0.0
 10
10.26518884335732
 20
7.348460543905326
 30
0.0
 10
10.2329769949511
 20
7.345642432163867
 30
0.0
 10
10.20024484046553
 20
7.342778712120217
 30
0.0
 10
10.17375442842756
 20
7.340461079043202
 30
0.0
  0
SPLINE
  5
114
330
1F
100
AcDbEntity
  8
FRONT_DOOR
  6
HIDDEN
370
     0
100
AcDbSpline
210
0.0
220
0.0
230
1.0
 70
    24
 71
     3
 72
    12
 73
     8
 74
     0
 42
0.0000000001
 43
0.0000000001
 40
0.0
 40
0.0
 40
0.0
 40
0.0
 40
0.2060339228400252
 40
0.4157718084055098
 40
0.6503030289204713
 40
0.8937678514322099
 40
1.0
 40
1.0
 40
1.0
 40
1.0
 10
10.27133136787709
 20
7.914257854660553
 30
0.0
 10
10.27133136787709
 20
7.87655601514687
 30
0.0
 10
10.27133136787709
 20
7.800474553517909
 30
0.0
 10
10.27133136787709
 20
7.675908496932433
 30
0.0
 10
10.27133136787709
 20
7.5424979872065
 30
0.0
 10
10.27133136787709
 20
7.431968077988755
 30
0.0
 10
10.27133136787709
 20
7.368330098142352
 30
0.0
 10
10.27133136787709
 20
7.348997933758061
 30
0.0
  0
LINE
  5
115
330
1F
100
AcDbEntity
  8
FRONT_DOOR
  6
HIDDEN
370
     0
100
AcDbLine
 10
10.519331423
 20
8.011011407799999
 30
0.0
 11
10.519331423
 21
7.252244371499999
 31
0.0
  0
LINE
  5
116
330
1F
100
AcDbEntity
  8
FRONT_DOOR
  6
HIDDEN
370
     0
100
AcDbLine
 10
10.519331423
 20
7.252244371499999
 30
0.0
 11
10.4106281854
 21
7.242734101299999
 31
0.0
  0
ARC
  5
117
330
1F
100
AcDbEntity
  8
FRONT_DOOR
  6
HIDDEN
370
     0
100
AcDbCircle
 10
9.7693313953
 20
7.631627907
 30
0.0
 40
0.7499999999999987
100
AcDbArc
 50
31.2333676237
 51
328.7666323763001
  0
LINE
  5
118
330
1F
100
AcDbEntity
  8
FRONT_DOOR
  6
HIDDEN
370
     0
100
AcDbLine
 10
10.519331423
 20
8.011011407799999
 30
0.0
 11
10.4106281854
 21
8.0205217054
 31
0.0
  0
ARC
  5
119
330
1F
100
AcDbEntity
  8
FRONT_DOOR
  6
HIDDEN
370
     0
100
AcDbCircle
 10
9.7693313953
 20
7.631627907
 30
0.0
 40
0.7149999999999995
100
AcDbArc
 50
29.8728495765
 51
330.1271504235
  0
LINE
  5
11A
330
1F
100
AcDbEntity
  8
FRONT_DOOR
  6
HIDDEN
370
     0
100
AcDbLine
 10
10.3893314047
 20
7.9877528869
 30
0.0
 11
10.3893314047
 21
7.275502942799999
 31
0.0
  0
LINE
  5
11B
330
1F
100
AcDbEntity
  8
FRONT_DOOR
  6
HIDDEN
370
     0
100
AcDbLine
 10
10.7543313882
 20
7.272804233999999
 30
0.0
 11
10.519331423
 21
7.252244371499999
 31
0.0
  0
LINE
  5
11C
330
1F
100
AcDbEntity
  8
FRONT_DOOR
  6
HIDDEN
370
     0
100
AcDbLine
 10
10.7543313882
 20
7.990451572799999
 30
0.0
 11
10.519331423
 21
8.011011407799999
 31
0.0
  0
LINE
  5
11D
330
1F
100
AcDbEntity
  8
FRONT_DOOR
  6
HIDDEN
370
     0
100
AcDbLine
 10
10.7543313882
 20
7.990451572799999
 30
0.0
 11
10.7543313882
 21
7.272804233999999
 31
0.0
  0
LINE
  5
11E
330
1F
100
AcDbEntity
  8
FRONT_DOOR
  6
HIDDEN
370
     0
100
AcDbLine
 10
11.1843313808
 20
7.9528314482
 30
0.0
 11
11.1843313808
 21
7.310424386
 31
0.0
  0
LINE
  5
11F
330
1F
100
AcDbEntity
  8
FRONT_DOOR
  6
HIDDEN
370
     0
100
AcDbLine
 10
11.1843313808
 20
7.310424386
 30
0.0
 11
10.7543313882
 21
7.272804233999999
 31
0.0
  0
LINE
  5
120
330
1F
100
AcDbEntity
  8
FRONT_DOOR
  6
HIDDEN
370
     0
100
AcDbLine
 10
11.1843313808
 20
7.9528314482
 30
0.0
 11
10.7543313882
 21
7.990451572799999
 31
0.0
  0
LINE
  5
121
330
1F
100
AcDbEntity
  8
FRONT_DOOR
  6
HIDDEN
370
     0
100
AcDbLine
 10
11.2143314076
 20
7.9502067869
 30
0.0
 11
11.2143314076
 21
7.313049029
 31
0.0
  0
LWPOLYLINE
  5
122
330
1F
100
AcDbEntity
  8
FRONT_DOOR
  6
HIDDEN
370
     0
100
AcDbPolyline
 90
       10
 70
   128
 43
0.0
 10
11.2143314076
 20
7.313049029
 10
11.2138755729
 20
7.313009136199999
 10
11.2125221485
 20
7.312890704199999
 10
11.2103122007
 20
7.3126973998
 10
11.2073127553
 20
7.312434942799999
 10
11.2036150381
 20
7.3121114732
 10
11.1993313942
 20
7.3117366709
 10
11.1945920623
 20
7.311322049
 10
11.189540774
 20
7.310880147399999
 10
11.1843313808
 20
7.310424386
  0
LINE
  5
123
330
1F
100
AcDbEntity
  8
FRONT_DOOR
  6
HIDDEN
370
     0
100
AcDbLine
 10
11.2143314076
 20
7.9502067869
 30
0.0
 11
11.1843313808
 21
7.9528314482
 31
0.0
  0
SPLINE
  5
124
330
1F
100
AcDbEntity
  8
FRONT_DOOR
  6
HIDDEN
370
     0
100
AcDbSpline
210
0.0
220
0.0
230
1.0
 70
    24
 71
     3
 72
     9
 73
     5
 74
     0
 42
0.0000000001
 43
0.0000000001
 40
0.0
 40
0.0
 40
0.0
 40
0.0
 40
0.4243964555799148
 40
1.0
 40
1.0
 40
1.0
 40
1.0
 10
9.149331385983293
 20
7.352343141780601
 30
0.0
 10
9.149331385983293
 20
7.376875885754523
 30
0.0
 10
9.149331385983293
 20
7.434682080060268
 30
0.0
 10
9.149331385983293
 20
7.494616094962442
 30
0.0
 10
9.149331385983293
 20
7.529114326371458
 30
0.0
  0
SPLINE
  5
125
330
1F
100
AcDbEntity
  8
FRONT_DOOR
  6
HIDDEN
370
     0
100
AcDbSpline
210
0.0
220
0.0
230
1.0
 70
    24
 71
     1
 72
     4
 73
     2
 74
     0
 42
0.0000000001
 43
0.0000000001
 40
0.0
 40
0.0
 40
1.0
 40
1.0
 10
9.149331385983293
 20
7.753964342218222
 30
0.0
 10
9.149331385983293
 20
7.910912710803942
 30
0.0
  0
SPLINE
  5
126
330
1F
100
AcDbEntity
  8
FRONT_DOOR
  6
HIDDEN
370
     0
100
AcDbSpline
210
0.0
220
0.0
230
1.0
 70
     8
 71
     3
 72
    10
 73
     6
 74
     0
 42
0.0000000001
 43
0.0000000001
 40
0.0
 40
0.0
 40
0.0
 40
0.0
 40
0.1665312829213377
 40
0.5820636074857588
 40
1.0
 40
1.0
 40
1.0
 40
1.0
 10
10.41062818537504
 20
7.242734101326923
 30
0.0
 10
10.39180794766929
 20
7.241087535581374
 30
0.0
 10
10.32602706097595
 20
7.235332424703682
 30
0.0
 10
10.21118797880452
 20
7.225285369228375
 30
0.0
 10
10.10993189811161
 20
7.216426620427753
 30
0.0
 10
10.05915782559062
 20
7.211984469882621
 30
0.0
  0
SPLINE
  5
127
330
1F
100
AcDbEntity
  8
FRONT_DOOR
  6
HIDDEN
370
     0
100
AcDbSpline
210
0.0
220
0.0
230
1.0
 70
     8
 71
     3
 72
     9
 73
     5
 74
     0
 42
0.0000000001
 43
0.0000000001
 40
0.0
 40
0.0
 40
0.0
 40
0.0
 40
0.574962911419942
 40
1.0
 40
1.0
 40
1.0
 40
1.0
 10
10.05915782559062
 20
8.05127138041028
 30
0.0
 10
10.12867378973545
 20
8.045189519744292
 30
0.0
 10
10.24957891729081
 20
8.034611688469981
 30
0.0
 10
10.36259300609933
 20
8.024724238411257
 30
0.0
 10
10.41062818537504
 20
8.020521705424815
 30
0.0
  0
ARC
  5
128
330
1F
100
AcDbEntity
  8
FRONT_DOOR
  6
HIDDEN
370
     0
100
AcDbCircle
 10
9.7693313953
 20
7.631627907
 30
0.0
 40
0.6800000000000005
100
AcDbArc
 50
204.2496286025
 51
220.875061877
  0
ARC
  5
129
330
1F
100
AcDbEntity
  8
FRONT_DOOR
  6
HIDDEN
370
     0
100
AcDbCircle
 10
9.7693313953
 20
7.631627907
 30
0.0
 40
0.6800000000000005
100
AcDbArc
 50
139.124938123
 51
155.7503713975
  0
SPLINE
  5
12A
330
1F
100
AcDbEntity
  8
FRONT_DOOR
  6
HIDDEN
370
     0
100
AcDbSpline
210
0.0
220
0.0
230
1.0
 70
    24
 71
     3
 72
     9
 73
     5
 74
     0
 42
0.0000000001
 43
0.0000000001
 40
0.0
 40
0.0
 40
0.0
 40
0.0
 40
0.4980476750814736
 40
1.0
 40
1.0
 40
1.0
 40
1.0
 10
9.520182825209154
 20
7.186627929470206
 30
0.0
 10
9.474909553228711
 20
7.186627929470206
 30
0.0
 10
9.384008070809304
 20
7.186627929470206
 30
0.0
 10
9.298219224386935
 20
7.186627929470206
 30
0.0
 10
9.255157313473148
 20
7.186627929470206
 30
0.0
  0
SPLINE
  5
12B
330
1F
100
AcDbEntity
  8
FRONT_DOOR
  6
HIDDEN
370
     0
100
AcDbSpline
210
0.0
220
0.0
230
1.0
 70
    24
 71
     3
 72
     9
 73
     5
 74
     0
 42
0.0000000001
 43
0.0000000001
 40
0.0
 40
0.0
 40
0.0
 40
0.0
 40
0.2118308987865428
 40
1.0
 40
1.0
 40
1.0
 40
1.0
 10
9.255157313473148
 20
8.076627907072852
 30
0.0
 10
9.27326300010689
 20
8.076627907072852
 30
0.0
 10
9.358735359132216
 20
8.076627907072852
 30
0.0
 10
9.449021823632344
 20
8.076627907072852
 30
0.0
 10
9.520182825209154
 20
8.076627907072852
 30
0.0
  0
LINE
  5
12C
330
1F
100
AcDbEntity
  8
FRONT_DOOR
  6
HIDDEN
370
     0
100
AcDbLine
 10
9.764179439899999
 20
7.304627892999999
 30
0.0
 11
9.393290014399999
 21
7.304627892999999
 31
0.0
  0
LINE
  5
12D
330
1F
100
AcDbEntity
  8
FRONT_DOOR
  6
HIDDEN
370
     0
100
AcDbLine
 10
10.1737544284
 20
7.340461078999999
 30
0.0
 11
9.764179439899999
 21
7.304627892999999
 31
0.0
  0
LINE
  5
12E
330
1F
100
AcDbEntity
  8
FRONT_DOOR
  6
HIDDEN
370
     0
100
AcDbLine
 10
9.764179439899999
 20
7.9586279046
 30
0.0
 11
9.393290014399999
 21
7.9586279046
 31
0.0
  0
LINE
  5
12F
330
1F
100
AcDbEntity
  8
FRONT_DOOR
  6
HIDDEN
370
     0
100
AcDbLine
 10
10.1737544284
 20
7.9227947369
 30
0.0
 11
9.764179439899999
 21
7.9586279046
 31
0.0
  0
LINE
  5
130
330
1F
100
AcDbEntity
  8
FRONT_DOOR
  6
HIDDEN
370
     0
100
AcDbLine
 10
9.769331413699999
 20
7.1866279295
 30
0.0
 11
9.520182825199999
 21
7.1866279295
 31
0.0
  0
ARC
  5
131
330
1F
100
AcDbEntity
  8
FRONT_DOOR
  6
HIDDEN
370
     0
100
AcDbCircle
 10
9.7693313953
 20
7.631627907
 30
0.0
 40
0.51
100
AcDbArc
 50
240.7562168577999
 51
304.6308663621
  0
LINE
  5
132
330
1F
100
AcDbEntity
  8
FRONT_DOOR
  6
HIDDEN
370
     0
100
AcDbLine
 10
10.0591578256
 20
7.211984469899999
 30
0.0
 11
9.769331413699999
 21
7.1866279295
 31
0.0
  0
LINE
  5
133
330
1F
100
AcDbEntity
  8
FRONT_DOOR
  6
HIDDEN
370
     0
100
AcDbLine
 10
9.520182825199999
 20
8.0766279071
 30
0.0
 11
9.769331413699999
 21
8.0766279071
 31
0.0
  0
ARC
  5
134
330
1F
100
AcDbEntity
  8
FRONT_DOOR
  6
HIDDEN
370
     0
100
AcDbCircle
 10
9.7693313953
 20
7.631627907
 30
0.0
 40
0.51
100
AcDbArc
 50
55.3691336379
 51
119.2437831422
  0
LINE
  5
135
330
1F
100
AcDbEntity
  8
FRONT_DOOR
  6
HIDDEN
370
     0
100
AcDbLine
 10
9.769331413699999
 20
8.0766279071
 30
0.0
 11
10.0591578256
 21
8.051271380399999
 31
0.0
  0
LINE
  5
136
330
1F
100
AcDbEntity
  8
FRONT_DOOR
  6
HIDDEN
370
     0
100
AcDbLine
 10
10.3893314047
 20
8.0223849372
 30
0.0
 11
10.3893314047
 21
7.9877528869
 31
0.0
  0
LINE
  5
137
330
1F
100
AcDbEntity
  8
FRONT_DOOR
  6
HIDDEN
370
     0
100
AcDbLine
 10
10.3893314047
 20
7.275502942799999
 30
0.0
 11
10.3893314047
 21
7.2408708695
 31
0.0
  0
LINE
  5
138
330
1F
100
AcDbEntity
  8
BODY
  6
HIDDEN
370
     0
100
AcDbLine
 10
3.334331171399999
 20
12.311628005
 30
0.0
 11
3.279331220099999
 21
12.311628005
 31
0.0
  0
LINE
  5
139
330
1F
100
AcDbEntity
  8
BODY
  6
HIDDEN
370
     0
100
AcDbLine
 10
3.3481452518
 20
11.8116280477
 30
0.0
 11
3.3481452518
 21
12.311628005
 31
0.0
  0
LINE
  5
13A
330
1F
100
AcDbEntity
  8
BODY
  6
HIDDEN
370
     0
100
AcDbLine
 10
3.279331220099999
 20
11.8116280477
 30
0.0
 11
3.3155480817
 21
11.8116280477
 31
0.0
  0
LINE
  5
13B
330
1F
100
AcDbEntity
  8
BODY
  6
HIDDEN
370
     0
100
AcDbLine
 10
3.3155480817
 20
11.8116280477
 30
0.0
 11
3.3155480817
 21
12.311628005
 31
0.0
  0
LINE
  5
13C
330
1F
100
AcDbEntity
  8
BODY
  6
HIDDEN
370
     0
100
AcDbLine
 10
3.3481452518
 20
10.8116278398
 30
0.0
 11
3.3481452518
 21
11.3116277971
 31
0.0
  0
LINE
  5
13D
330
1F
100
AcDbEntity
  8
BODY
  6
HIDDEN
370
     0
100
AcDbLine
 10
3.3155480817
 20
10.8116278398
 30
0.0
 11
3.279331220099999
 21
10.8116278398
 31
0.0
  0
LINE
  5
13E
330
1F
100
AcDbEntity
  8
BODY
  6
HIDDEN
370
     0
100
AcDbLine
 10
3.3155480817
 20
10.8116278398
 30
0.0
 11
3.3155480817
 21
11.3116277971
 31
0.0
  0
LINE
  5
13F
330
1F
100
AcDbEntity
  8
BODY
  6
HIDDEN
370
     0
100
AcDbLine
 10
3.279331220099999
 20
11.3116277971
 30
0.0
 11
3.3155480817
 21
11.3116277971
 31
0.0
  0
LINE
  5
140
330
1F
100
AcDbEntity
  8
BODY
  6
HIDDEN
370
     0
100
AcDbLine
 10
3.3481452518
 20
4.5066279824
 30
0.0
 11
3.3481452518
 21
5.0066279397
 31
0.0
  0
LINE
  5
141
330
1F
100
AcDbEntity
  8
BODY
  6
HIDDEN
370
     0
100
AcDbLine
 10
3.279331220099999
 20
4.5066279824
 30
0.0
 11
3.3155480817
 21
4.5066279824
 31
0.0
  0
LINE
  5
142
330
1F
100
AcDbEntity
  8
BODY
  6
HIDDEN
370
     0
100
AcDbLine
 10
3.3155480817
 20
4.5066279824
 30
0.0
 11
3.3155480817
 21
5.0066279397
 31
0.0
  0
LINE
  5
143
330
1F
100
AcDbEntity
  8
BODY
  6
HIDDEN
370
     0
100
AcDbLine
 10
3.334331171399999
 20
5.0066279397
 30
0.0
 11
3.279331220099999
 21
5.0066279397
 31
0.0
  0
LINE
  5
144
330
1F
100
AcDbEntity
  8
BODY
  6
HIDDEN
370
     0
100
AcDbLine
 10
3.3481452518
 20
3.5066277745
 30
0.0
 11
3.3481452518
 21
4.006628025099999
 31
0.0
  0
LINE
  5
145
330
1F
100
AcDbEntity
  8
BODY
  6
HIDDEN
370
     0
100
AcDbLine
 10
3.3155480817
 20
3.5066277745
 30
0.0
 11
3.279331220099999
 21
3.5066277745
 31
0.0
  0
LINE
  5
146
330
1F
100
AcDbEntity
  8
BODY
  6
HIDDEN
370
     0
100
AcDbLine
 10
3.3155480817
 20
3.5066277745
 30
0.0
 11
3.3155480817
 21
4.006628025099999
 31
0.0
  0
LINE
  5
147
330
1F
100
AcDbEntity
  8
BODY
  6
HIDDEN
370
     0
100
AcDbLine
 10
3.279331220099999
 20
4.006628025099999
 30
0.0
 11
3.3155480817
 21
4.006628025099999
 31
0.0
  0
LINE
  5
148
330
1F
100
AcDbEntity
  8
FRONT_DOOR
  6
HIDDEN
370
     0
100
AcDbLine
 10
3.334331171399999
 20
5.0066279397
 30
0.0
 11
3.3943312249
 21
5.0066279397
 31
0.0
  0
LINE
  5
149
330
1F
100
AcDbEntity
  8
FRONT_DOOR
  6
HIDDEN
370
     0
100
AcDbLine
 10
3.3943312249
 20
5.0066279397
 30
0.0
 11
3.3943312249
 21
3.0066278172
 31
0.0
  0
LINE
  5
14A
330
1F
100
AcDbEntity
  8
FRONT_DOOR
  6
HIDDEN
370
     0
100
AcDbLine
 10
3.334331171399999
 20
5.0066279397
 30
0.0
 11
3.334331171399999
 21
3.0066278172
 31
0.0
  0
LINE
  5
14B
330
1F
100
AcDbEntity
  8
FRONT_DOOR
  6
HIDDEN
370
     0
100
AcDbLine
 10
3.334331171399999
 20
3.0066278172
 30
0.0
 11
3.3943312249
 21
3.0066278172
 31
0.0
  0
LINE
  5
14C
330
1F
100
AcDbEntity
  8
FRONT_DOOR
  6
HIDDEN
370
     0
100
AcDbLine
 10
3.3943312249
 20
3.5066277745
 30
0.0
 11
3.334331171399999
 21
3.5066277745
 31
0.0
  0
LINE
  5
14D
330
1F
100
AcDbEntity
  8
FRONT_DOOR
  6
HIDDEN
370
     0
100
AcDbLine
 10
3.3943312249
 20
4.006628025099999
 30
0.0
 11
3.334331171399999
 21
4.006628025099999
 31
0.0
  0
LINE
  5
14E
330
1F
100
AcDbEntity
  8
FRONT_DOOR
  6
HIDDEN
370
     0
100
AcDbLine
 10
3.3943312249
 20
4.5066279824
 30
0.0
 11
3.334331171399999
 21
4.5066279824
 31
0.0
  0
LINE
  5
14F
330
1F
100
AcDbEntity
  8
FRONT_DOOR
  6
HIDDEN
370
     0
100
AcDbLine
 10
3.3155480817
 20
3.5066277745
 30
0.0
 11
3.3155480817
 21
3.0066278172
 31
0.0
  0
LINE
  5
150
330
1F
100
AcDbEntity
  8
FRONT_DOOR
  6
HIDDEN
370
     0
100
AcDbLine
 10
3.334331171399999
 20
3.5066277745
 30
0.0
 11
3.3155480817
 21
3.5066277745
 31
0.0
  0
LINE
  5
151
330
1F
100
AcDbEntity
  8
FRONT_DOOR
  6
HIDDEN
370
     0
100
AcDbLine
 10
3.3155480817
 20
3.0066278172
 30
0.0
 11
3.334331171399999
 21
3.0066278172
 31
0.0
  0
LINE
  5
152
330
1F
100
AcDbEntity
  8
FRONT_DOOR
  6
HIDDEN
370
     0
100
AcDbLine
 10
3.3155480817
 20
4.5066279824
 30
0.0
 11
3.3155480817
 21
4.006628025099999
 31
0.0
  0
LINE
  5
153
330
1F
100
AcDbEntity
  8
FRONT_DOOR
  6
HIDDEN
370
     0
100
AcDbLine
 10
3.334331171399999
 20
4.5066279824
 30
0.0
 11
3.3155480817
 21
4.5066279824
 31
0.0
  0
LINE
  5
154
330
1F
100
AcDbEntity
  8
FRONT_DOOR
  6
HIDDEN
370
     0
100
AcDbLine
 10
3.334331171399999
 20
4.006628025099999
 30
0.0
 11
3.3155480817
 21
4.006628025099999
 31
0.0
  0
LINE
  5
155
330
1F
100
AcDbEntity
  8
FRONT_DOOR
  6
HIDDEN
370
     0
100
AcDbLine
 10
3.3481452518
 20
3.5066277745
 30
0.0
 11
3.3481452518
 21
3.0066278172
 31
0.0
  0
LINE
  5
156
330
1F
100
AcDbEntity
  8
FRONT_DOOR
  6
HIDDEN
370
     0
100
AcDbLine
 10
3.3155480817
 20
3.5066277745
 30
0.0
 11
3.279331220099999
 21
3.5066277745
 31
0.0
  0
LINE
  5
157
330
1F
100
AcDbEntity
  8
FRONT_DOOR
  6
HIDDEN
370
     0
100
AcDbLine
 10
3.279331220099999
 20
3.0066278172
 30
0.0
 11
3.3155480817
 21
3.0066278172
 31
0.0
  0
LINE
  5
158
330
1F
100
AcDbEntity
  8
FRONT_DOOR
  6
HIDDEN
370
     0
100
AcDbLine
 10
3.3481452518
 20
4.5066279824
 30
0.0
 11
3.3481452518
 21
4.006628025099999
 31
0.0
  0
LINE
  5
159
330
1F
100
AcDbEntity
  8
FRONT_DOOR
  6
HIDDEN
370
     0
100
AcDbLine
 10
3.279331220099999
 20
4.5066279824
 30
0.0
 11
3.3155480817
 21
4.5066279824
 31
0.0
  0
LINE
  5
15A
330
1F
100
AcDbEntity
  8
FRONT_DOOR
  6
HIDDEN
370
     0
100
AcDbLine
 10
3.3155480817
 20
4.006628025099999
 30
0.0
 11
3.279331220099999
 21
4.006628025099999
 31
0.0
  0
LINE
  5
15B
330
1F
100
AcDbEntity
  8
FRONT_DOOR
  6
HIDDEN
370
     0
100
AcDbLine
 10
3.334331171399999
 20
12.311628005
 30
0.0
 11
3.3943312249
 21
12.311628005
 31
0.0
  0
LINE
  5
15C
330
1F
100
AcDbEntity
  8
FRONT_DOOR
  6
HIDDEN
370
     0
100
AcDbLine
 10
3.3943312249
 20
12.311628005
 30
0.0
 11
3.3943312249
 21
10.3116278825
 31
0.0
  0
LINE
  5
15D
330
1F
100
AcDbEntity
  8
FRONT_DOOR
  6
HIDDEN
370
     0
100
AcDbLine
 10
3.334331171399999
 20
10.3116278825
 30
0.0
 11
3.3943312249
 21
10.3116278825
 31
0.0
  0
LINE
  5
15E
330
1F
100
AcDbEntity
  8
FRONT_DOOR
  6
HIDDEN
370
     0
100
AcDbLine
 10
3.334331171399999
 20
12.311628005
 30
0.0
 11
3.334331171399999
 21
10.3116278825
 31
0.0
  0
LINE
  5
15F
330
1F
100
AcDbEntity
  8
FRONT_DOOR
  6
HIDDEN
370
     0
100
AcDbLine
 10
3.3943312249
 20
11.3116277971
 30
0.0
 11
3.334331171399999
 21
11.3116277971
 31
0.0
  0
LINE
  5
160
330
1F
100
AcDbEntity
  8
FRONT_DOOR
  6
HIDDEN
370
     0
100
AcDbLine
 10
3.3943312249
 20
10.8116278398
 30
0.0
 11
3.334331171399999
 21
10.8116278398
 31
0.0
  0
LINE
  5
161
330
1F
100
AcDbEntity
  8
FRONT_DOOR
  6
HIDDEN
370
     0
100
AcDbLine
 10
3.3943312249
 20
11.8116280477
 30
0.0
 11
3.334331171399999
 21
11.8116280477
 31
0.0
  0
LINE
  5
162
330
1F
100
AcDbEntity
  8
FRONT_DOOR
  6
HIDDEN
370
     0
100
AcDbLine
 10
3.3155480817
 20
11.8116280477
 30
0.0
 11
3.3155480817
 21
11.3116277971
 31
0.0
  0
LINE
  5
163
330
1F
100
AcDbEntity
  8
FRONT_DOOR
  6
HIDDEN
370
     0
100
AcDbLine
 10
3.334331171399999
 20
11.8116280477
 30
0.0
 11
3.3155480817
 21
11.8116280477
 31
0.0
  0
LINE
  5
164
330
1F
100
AcDbEntity
  8
FRONT_DOOR
  6
HIDDEN
370
     0
100
AcDbLine
 10
3.334331171399999
 20
11.3116277971
 30
0.0
 11
3.3155480817
 21
11.3116277971
 31
0.0
  0
LINE
  5
165
330
1F
100
AcDbEntity
  8
FRONT_DOOR
  6
HIDDEN
370
     0
100
AcDbLine
 10
3.3155480817
 20
10.8116278398
 30
0.0
 11
3.3155480817
 21
10.3116278825
 31
0.0
  0
LINE
  5
166
330
1F
100
AcDbEntity
  8
FRONT_DOOR
  6
HIDDEN
370
     0
100
AcDbLine
 10
3.334331171399999
 20
10.8116278398
 30
0.0
 11
3.3155480817
 21
10.8116278398
 31
0.0
  0
LINE
  5
167
330
1F
100
AcDbEntity
  8
FRONT_DOOR
  6
HIDDEN
370
     0
100
AcDbLine
 10
3.3155480817
 20
10.3116278825
 30
0.0
 11
3.334331171399999
 21
10.3116278825
 31
0.0
  0
LINE
  5
168
330
1F
100
AcDbEntity
  8
FRONT_DOOR
  6
HIDDEN
370
     0
100
AcDbLine
 10
3.3481452518
 20
11.8116280477
 30
0.0
 11
3.3481452518
 21
11.3116277971
 31
0.0
  0
LINE
  5
169
330
1F
100
AcDbEntity
  8
FRONT_DOOR
  6
HIDDEN
370
     0
100
AcDbLine
 10
3.279331220099999
 20
11.8116280477
 30
0.0
 11
3.3155480817
 21
11.8116280477
 31
0.0
  0
LINE
  5
16A
330
1F
100
AcDbEntity
  8
FRONT_DOOR
  6
HIDDEN
370
     0
100
AcDbLine
 10
3.3155480817
 20
11.3116277971
 30
0.0
 11
3.279331220099999
 21
11.3116277971
 31
0.0
  0
LINE
  5
16B
330
1F
100
AcDbEntity
  8
FRONT_DOOR
  6
HIDDEN
370
     0
100
AcDbLine
 10
3.3481452518
 20
10.8116278398
 30
0.0
 11
3.3481452518
 21
10.3116278825
 31
0.0
  0
LINE
  5
16C
330
1F
100
AcDbEntity
  8
FRONT_DOOR
  6
HIDDEN
370
     0
100
AcDbLine
 10
3.3155480817
 20
10.8116278398
 30
0.0
 11
3.279331220099999
 21
10.8116278398
 31
0.0
  0
LINE
  5
16D
330
1F
100
AcDbEntity
  8
FRONT_DOOR
  6
HIDDEN
370
     0
100
AcDbLine
 10
3.279331220099999
 20
10.3116278825
 30
0.0
 11
3.3155480817
 21
10.3116278825
 31
0.0
  0
CIRCLE
  5
16E
330
1F
100
AcDbEntity
  8
PANEL
  6
HIDDEN
370
     0
100
AcDbCircle
 10
5.833831395299999
 20
3.819127907
 30
0.0
 40
0.1095000000000006
  0
CIRCLE
  5
16F
330
1F
100
AcDbEntity
  8
PANEL
  6
HIDDEN
370
     0
100
AcDbCircle
 10
4.583831395299999
 20
11.444127907
 30
0.0
 40
0.1249999999999991
  0
LINE
  5
170
330
1F
100
AcDbEntity
  8
PANEL
  6
HIDDEN
370
     0
100
AcDbLine
 10
10.5213313465
 20
11.7566278031
 30
0.0
 11
4.2713314404
 21
11.7566278031
 31
0.0
  0
LINE
  5
171
330
1F
100
AcDbEntity
  8
PANEL
  6
HIDDEN
370
     0
100
AcDbLine
 10
4.2713314404
 20
3.5066277745
 30
0.0
 11
10.5213313465
 21
3.5066277745
 31
0.0
  0
CIRCLE
  5
172
330
1F
100
AcDbEntity
  8
PANEL
  6
HIDDEN
370
     0
100
AcDbCircle
 10
10.2088313953
 20
11.444127907
 30
0.0
 40
0.1249999999999982
  0
CIRCLE
  5
173
330
1F
100
AcDbEntity
  8
PANEL
  6
HIDDEN
370
     0
100
AcDbCircle
 10
10.2088313953
 20
3.819127907
 30
0.0
 40
0.125
  0
LINE
  5
174
330
1F
100
AcDbEntity
  8
PANEL
  6
HIDDEN
370
     0
100
AcDbLine
 10
4.2713314404
 20
11.7566278031
 30
0.0
 11
4.2713314404
 21
3.5066277745
 31
0.0
  0
CIRCLE
  5
175
330
1F
100
AcDbEntity
  8
PANEL
  6
HIDDEN
370
     0
100
AcDbCircle
 10
4.583831395299999
 20
3.819127907
 30
0.0
 40
0.125
  0
LINE
  5
176
330
1F
100
AcDbEntity
  8
PANEL
  6
HIDDEN
370
     0
100
AcDbLine
 10
10.5213313465
 20
3.5066277745
 30
0.0
 11
10.5213313465
 21
11.7566278031
 31
0.0
  0
CIRCLE
  5
177
330
1F
100
AcDbEntity
  8
BODY
  6
HIDDEN
370
     0
100
AcDbCircle
 10
4.583831395299999
 20
3.819127907
 30
0.0
 40
0.0949999999999998
  0
CIRCLE
  5
178
330
1F
100
AcDbEntity
  8
BODY
  6
HIDDEN
370
     0
100
AcDbCircle
 10
4.583831395299999
 20
3.819127907
 30
0.0
 40
0.1499999999999995
  0
CIRCLE
  5
179
330
1F
100
AcDbEntity
  8
BODY
  6
HIDDEN
370
     0
100
AcDbCircle
 10
4.583831395299999
 20
3.819127907
 30
0.0
 40
0.2825000000000002
  0
CIRCLE
  5
17A
330
1F
100
AcDbEntity
  8
BODY
  6
HIDDEN
370
     0
100
AcDbCircle
 10
4.583831395299999
 20
3.819127907
 30
0.0
 40
0.3124999999999996
  0
CIRCLE
  5
17B
330
1F
100
AcDbEntity
  8
BODY
  6
HIDDEN
370
     0
100
AcDbCircle
 10
4.583831395299999
 20
11.444127907
 30
0.0
 40
0.1500000000000004
  0
CIRCLE
  5
17C
330
1F
100
AcDbEntity
  8
BODY
  6
HIDDEN
370
     0
100
AcDbCircle
 10
4.583831395299999
 20
11.444127907
 30
0.0
 40
0.0950000000000006
  0
CIRCLE
  5
17D
330
1F
100
AcDbEntity
  8
BODY
  6
HIDDEN
370
     0
100
AcDbCircle
 10
4.583831395299999
 20
11.444127907
 30
0.0
 40
0.2825000000000006
  0
CIRCLE
  5
17E
330
1F
100
AcDbEntity
  8
BODY
  6
HIDDEN
370
     0
100
AcDbCircle
 10
4.583831395299999
 20
11.444127907
 30
0.0
 40
0.3125000000000018
  0
CIRCLE
  5
17F
330
1F
100
AcDbEntity
  8
BODY
  6
HIDDEN
370
     0
100
AcDbCircle
 10
10.2088313953
 20
3.819127907
 30
0.0
 40
0.1499999999999995
  0
CIRCLE
  5
180
330
1F
100
AcDbEntity
  8
BODY
  6
HIDDEN
370
     0
100
AcDbCircle
 10
10.2088313953
 20
3.819127907
 30
0.0
 40
0.0949999999999998
  0
CIRCLE
  5
181
330
1F
100
AcDbEntity
  8
BODY
  6
HIDDEN
370
     0
100
AcDbCircle
 10
10.2088313953
 20
3.819127907
 30
0.0
 40
0.2825000000000002
  0
CIRCLE
  5
182
330
1F
100
AcDbEntity
  8
BODY
  6
HIDDEN
370
     0
100
AcDbCircle
 10
10.2088313953
 20
3.819127907
 30
0.0
 40
0.3124999999999996
  0
CIRCLE
  5
183
330
1F
100
AcDbEntity
  8
BODY
  6
HIDDEN
370
     0
100
AcDbCircle
 10
10.2088313953
 20
11.444127907
 30
0.0
 40
0.1500000000000004
  0
CIRCLE
  5
184
330
1F
100
AcDbEntity
  8
BODY
  6
HIDDEN
370
     0
100
AcDbCircle
 10
10.2088313953
 20
11.444127907
 30
0.0
 40
0.0950000000000006
  0
CIRCLE
  5
185
330
1F
100
AcDbEntity
  8
BODY
  6
HIDDEN
370
     0
100
AcDbCircle
 10
10.2088313953
 20
11.444127907
 30
0.0
 40
0.2825000000000006
  0
CIRCLE
  5
186
330
1F
100
AcDbEntity
  8
BODY
  6
HIDDEN
370
     0
100
AcDbCircle
 10
10.2088313953
 20
11.444127907
 30
0.0
 40
0.3125
  0
LINE
  5
187
330
1F
100
AcDbEntity
  8
BODY
  6
HIDDEN
370
     0
100
AcDbLine
 10
3.171831661899999
 20
12.311628005
 30
0.0
 11
3.171831661899999
 21
11.8116280477
 31
0.0
  0
LINE
  5
188
330
1F
100
AcDbEntity
  8
BODY
  6
HIDDEN
370
     0
100
AcDbLine
 10
3.2918311823
 20
11.8116280477
 30
0.0
 11
3.2918311823
 21
12.311628005
 31
0.0
  0
LINE
  5
189
330
1F
100
AcDbEntity
  8
BODY
  6
HIDDEN
370
     0
100
AcDbLine
 10
3.171831661899999
 20
11.3116277971
 30
0.0
 11
3.171831661899999
 21
10.8116278398
 31
0.0
  0
LINE
  5
18A
330
1F
100
AcDbEntity
  8
BODY
  6
HIDDEN
370
     0
100
AcDbLine
 10
3.2918311823
 20
10.8116278398
 30
0.0
 11
3.2918311823
 21
11.3116277971
 31
0.0
  0
LINE
  5
18B
330
1F
100
AcDbEntity
  8
BODY
  6
HIDDEN
370
     0
100
AcDbLine
 10
3.171831661899999
 20
5.0066279397
 30
0.0
 11
3.171831661899999
 21
4.5066279824
 31
0.0
  0
LINE
  5
18C
330
1F
100
AcDbEntity
  8
BODY
  6
HIDDEN
370
     0
100
AcDbLine
 10
3.2918311823
 20
4.5066279824
 30
0.0
 11
3.2918311823
 21
5.0066279397
 31
0.0
  0
LINE
  5
18D
330
1F
100
AcDbEntity
  8
BODY
  6
HIDDEN
370
     0
100
AcDbLine
 10
3.171831661899999
 20
4.006628025099999
 30
0.0
 11
3.171831661899999
 21
3.5066277745
 31
0.0
  0
LINE
  5
18E
330
1F
100
AcDbEntity
  8
BODY
  6
HIDDEN
370
     0
100
AcDbLine
 10
3.2918311823
 20
3.5066277745
 30
0.0
 11
3.2918311823
 21
4.006628025099999
 31
0.0
  0
LINE
  5
18F
330
1F
100
AcDbEntity
  8
FRONT_DOOR
  6
HIDDEN
370
     0
100
AcDbLine
 10
3.2918311823
 20
3.0066278172
 30
0.0
 11
3.2918311823
 21
3.5066277745
 31
0.0
  0
LINE
  5
190
330
1F
100
AcDbEntity
  8
FRONT_DOOR
  6
HIDDEN
370
     0
100
AcDbLine
 10
3.171831661899999
 20
3.5066277745
 30
0.0
 11
3.171831661899999
 21
3.0066278172
 31
0.0
  0
LINE
  5
191
330
1F
100
AcDbEntity
  8
FRONT_DOOR
  6
HIDDEN
370
     0
100
AcDbLine
 10
3.2918311823
 20
4.006628025099999
 30
0.0
 11
3.2918311823
 21
4.5066279824
 31
0.0
  0
LINE
  5
192
330
1F
100
AcDbEntity
  8
FRONT_DOOR
  6
HIDDEN
370
     0
100
AcDbLine
 10
3.171831661899999
 20
4.5066279824
 30
0.0
 11
3.171831661899999
 21
4.006628025099999
 31
0.0
  0
LINE
  5
193
330
1F
100
AcDbEntity
  8
FRONT_DOOR
  6
HIDDEN
370
     0
100
AcDbLine
 10
3.2918311823
 20
11.3116277971
 30
0.0
 11
3.2918311823
 21
11.8116280477
 31
0.0
  0
LINE
  5
194
330
1F
100
AcDbEntity
  8
FRONT_DOOR
  6
HIDDEN
370
     0
100
AcDbLine
 10
3.171831661899999
 20
11.8116280477
 30
0.0
 11
3.171831661899999
 21
11.3116277971
 31
0.0
  0
LINE
  5
195
330
1F
100
AcDbEntity
  8
FRONT_DOOR
  6
HIDDEN
370
     0
100
AcDbLine
 10
3.2918311823
 20
10.3116278825
 30
0.0
 11
3.2918311823
 21
10.8116278398
 31
0.0
  0
LINE
  5
196
330
1F
100
AcDbEntity
  8
FRONT_DOOR
  6
HIDDEN
370
     0
100
AcDbLine
 10
3.171831661899999
 20
10.8116278398
 30
0.0
 11
3.171831661899999
 21
10.3116278825
 31
0.0
  0
SPLINE
  5
197
330
1F
100
AcDbEntity
  8
BODY
  6
Continuous
370
    15
100
AcDbSpline
210
0.0
220
0.0
230
1.0
 70
     8
 71
     3
 72
    12
 73
     8
 74
     0
 42
0.0000000001
 43
0.0000000001
 40
0.0
 40
0.0
 40
0.0
 40
0.0
 40
0.2237442030596059
 40
0.4475240531563725
 40
0.6713033332855806
 40
0.8950821787193245
 40
1.0
 40
1.0
 40
1.0
 40
1.0
 10
11.21133137558346
 20
19.9340580588791
 30
0.0
 10
11.22480548405992
 20
19.93800710744522
 30
0.0
 10
11.25175584771449
 20
19.94590583374184
 30
0.0
 10
11.28727914740399
 20
19.95775517252737
 30
0.0
 10
11.313336587875
 20
19.96959881812893
 30
0.0
 10
11.32503859032821
 20
19.97936709070063
 30
0.0
 10
11.32601857556388
 20
19.98514335505528
 30
0.0
 10
11.32633138042692
 20
19.98698710077163
 30
0.0
  0
LINE
  5
198
330
1F
100
AcDbEntity
  8
BODY
  6
Continuous
370
    15
100
AcDbLine
 10
11.3263313804
 20
19.9869871008
 30
0.0
 11
11.3263313804
 21
14.6010581595
 31
0.0
  0
LINE
  5
199
330
1F
100
AcDbEntity
  8
BODY
  6
Continuous
370
    15
100
AcDbLine
 10
11.2113313756
 20
19.9340580589
 30
0.0
 11
3.581331411299999
 21
19.9340580589
 31
0.0
  0
SPLINE
  5
19A
330
1F
100
AcDbEntity
  8
BODY
  6
Continuous
370
    15
100
AcDbSpline
210
0.0
220
0.0
230
1.0
 70
     8
 71
     3
 72
    12
 73
     8
 74
     0
 42
0.0000000001
 43
0.0000000001
 40
0.0
 40
0.0
 40
0.0
 40
0.0
 40
0.2237443398925532
 40
0.44752491422583
 40
0.6713040708927216
 40
0.8950818132338728
 40
1.0
 40
1.0
 40
1.0
 40
1.0
 10
3.581331411327469
 20
19.9340580588791
 30
0.0
 10
3.577382554876756
 20
19.9475322465297
 30
0.0
 10
3.569484202474884
 20
19.97448280391806
 30
0.0
 10
3.557633735907301
 20
20.01000580678039
 30
0.0
 10
3.545790684744712
 20
20.03606369480835
 30
0.0
 10
3.536022833361721
 20
20.04776524816392
 30
0.0
 10
3.530246232972237
 20
20.04874525134107
 30
0.0
 10
3.528402369434945
 20
20.04905806372257
 30
0.0
  0
SPLINE
  5
19B
330
1F
100
AcDbEntity
  8
BODY
  6
Continuous
370
    15
100
AcDbSpline
210
0.0
220
0.0
230
1.0
 70
     8
 71
     3
 72
    11
 73
     7
 74
     0
 42
0.0000000001
 43
0.0000000001
 40
0.0
 40
0.0
 40
0.0
 40
0.0
 40
0.2647540511429632
 40
0.5114062913866706
 40
0.7580174151450402
 40
1.0
 40
1.0
 40
1.0
 40
1.0
 10
3.581331411327469
 20
19.9340580588791
 30
0.0
 10
3.576656754588618
 20
19.94239003207768
 30
0.0
 10
3.567627057569815
 20
19.95848430332687
 30
0.0
 10
3.554258525171089
 20
19.97822986993967
 30
0.0
 10
3.541287167566709
 20
19.99150842430043
 30
0.0
 10
3.532670091759272
 20
19.99321360086488
 30
0.0
 10
3.528402369434945
 20
19.99405811242003
 30
0.0
  0
LINE
  5
19C
330
1F
100
AcDbEntity
  8
BODY
  6
Continuous
370
    15
100
AcDbLine
 10
3.5284023694
 20
20.0490580637
 30
0.0
 11
3.5284023694
 21
19.9940581124
 31
0.0
  0
SPLINE
  5
19D
330
1F
100
AcDbEntity
  8
BODY
  6
Continuous
370
    15
100
AcDbSpline
210
0.0
220
0.0
230
1.0
 70
     8
 71
     3
 72
    12
 73
     8
 74
     0
 42
0.0000000001
 43
0.0000000001
 40
0.0
 40
0.0
 40
0.0
 40
0.0
 40
0.223744388999365
 40
0.4475245702635577
 40
0.6713039971310582
 40
0.8950822307639764
 40
1.0
 40
1.0
 40
1.0
 40
1.0
 10
11.26426027081101
 20
20.04905806372257
 30
0.0
 10
11.260311383323
 20
20.04767639947782
 30
0.0
 10
11.25241297664567
 20
20.04491284996428
 30
0.0
 10
11.24056297963691
 20
20.02342456708242
 30
0.0
 10
11.22871977453301
 20
19.99203363322134
 30
0.0
 10
11.21895136350506
 20
19.96006080062611
 30
0.0
 10
11.21317511806991
 20
19.94034971710959
 30
0.0
 10
11.21133137558346
 20
19.9340580588791
 30
0.0
  0
LINE
  5
19E
330
1F
100
AcDbEntity
  8
BODY
  6
Continuous
370
    15
100
AcDbLine
 10
11.2642602708
 20
20.0490580637
 30
0.0
 11
11.2642602708
 21
19.9940581124
 31
0.0
  0
SPLINE
  5
19F
330
1F
100
AcDbEntity
  8
BODY
  6
Continuous
370
    15
100
AcDbSpline
210
0.0
220
0.0
230
1.0
 70
     8
 71
     3
 72
    11
 73
     7
 74
     0
 42
0.0000000001
 43
0.0000000001
 40
0.0
 40
0.0
 40
0.0
 40
0.0
 40
0.26475467747374
 40
0.5114062049675383
 40
0.7580192460658378
 40
1.0
 40
1.0
 40
1.0
 40
1.0
 10
11.26426027081101
 20
19.99405811242003
 30
0.0
 10
11.25958553822126
 20
19.99304752017779
 30
0.0
 10
11.25055571757457
 20
19.99109543703308
 30
0.0
 10
11.23718741464735
 20
19.97665282584227
 30
0.0
 10
11.22421586656206
 20
19.95702642191879
 30
0.0
 10
11.21559897407217
 20
19.94166563542669
 30
0.0
 10
11.21133137558346
 20
19.9340580588791
 30
0.0
  0
SPLINE
  5
1A0
330
1F
100
AcDbEntity
  8
BODY
  6
Continuous
370
    15
100
AcDbSpline
210
0.0
220
0.0
230
1.0
 70
     8
 71
     3
 72
    11
 73
     7
 74
     0
 42
0.0000000001
 43
0.0000000001
 40
0.0
 40
0.0
 40
0.0
 40
0.0
 40
0.2647553693434955
 40
0.5114066137056679
 40
0.758019003110416
 40
1.0
 40
1.0
 40
1.0
 40
1.0
 10
11.21133137558346
 20
19.9340580588791
 30
0.0
 10
11.21966335775976
 20
19.93873282661228
 30
0.0
 10
11.23575757636166
 20
19.9477626987626
 30
0.0
 10
11.2555029806516
 20
19.96113129116276
 30
0.0
 10
11.26878196791201
 20
19.97410257959746
 30
0.0
 10
11.27048699605925
 20
19.98271948702834
 30
0.0
 10
11.27133142912438
 20
19.98698710077163
 30
0.0
  0
LINE
  5
1A1
330
1F
100
AcDbEntity
  8
BODY
  6
Continuous
370
    15
100
AcDbLine
 10
11.3263313804
 20
19.9869871008
 30
0.0
 11
11.2713314291
 21
19.9869871008
 31
0.0
  0
LINE
  5
1A2
330
1F
100
AcDbEntity
  8
BODY
  6
Continuous
370
    15
100
AcDbLine
 10
3.466331406499999
 20
19.9869871008
 30
0.0
 11
3.466331406499999
 21
14.6010581595
 31
0.0
  0
SPLINE
  5
1A3
330
1F
100
AcDbEntity
  8
BODY
  6
Continuous
370
    15
100
AcDbSpline
210
0.0
220
0.0
230
1.0
 70
     8
 71
     3
 72
    12
 73
     8
 74
     0
 42
0.0000000001
 43
0.0000000001
 40
0.0
 40
0.0
 40
0.0
 40
0.0
 40
0.2237446544505804
 40
0.4475240829572063
 40
0.6713025775359082
 40
0.895082229414905
 40
1.0
 40
1.0
 40
1.0
 40
1.0
 10
3.466331406484006
 20
19.98698710077163
 30
0.0
 10
3.467713211016261
 20
19.98303821241391
 30
0.0
 10
3.470477034838741
 20
19.97513982196822
 30
0.0
 10
3.491964862898356
 20
19.96328987713025
 30
0.0
 10
3.523355611093839
 20
19.95144631768756
 30
0.0
 10
3.555328596889768
 20
19.94167808958507
 30
0.0
 10
3.575039756045379
 20
19.9359018056995
 30
0.0
 10
3.581331411327469
 20
19.9340580588791
 30
0.0
  0
LINE
  5
1A4
330
1F
100
AcDbEntity
  8
BODY
  6
Continuous
370
    15
100
AcDbLine
 10
3.466331406499999
 20
19.9869871008
 30
0.0
 11
3.521331357799999
 21
19.9869871008
 31
0.0
  0
SPLINE
  5
1A5
330
1F
100
AcDbEntity
  8
BODY
  6
Continuous
370
    15
100
AcDbSpline
210
0.0
220
0.0
230
1.0
 70
     8
 71
     3
 72
    11
 73
     7
 74
     0
 42
0.0000000001
 43
0.0000000001
 40
0.0
 40
0.0
 40
0.0
 40
0.0
 40
0.2647559808698905
 40
0.5114056099366633
 40
0.7580214480391678
 40
1.0
 40
1.0
 40
1.0
 40
1.0
 10
3.521331357786542
 20
19.98698710077163
 30
0.0
 10
3.522342091253988
 20
19.98231230716746
 30
0.0
 10
3.524294435309464
 20
19.97328242362484
 30
0.0
 10
3.538736630538509
 20
19.95991417407542
 30
0.0
 10
3.558363268093233
 20
19.94694266513881
 30
0.0
 10
3.573723960077428
 20
19.93832566610347
 30
0.0
 10
3.581331411327469
 20
19.9340580588791
 30
0.0
  0
LINE
  5
1A6
330
1F
100
AcDbEntity
  8
FRONT_DOOR
  6
Continuous
370
    15
100
AcDbLine
 10
3.341402183
 20
14.1560581535
 30
0.0
 11
11.5172604281
 21
14.1560581535
 31
0.0
  0
LINE
  5
1A7
330
1F
100
AcDbEntity
  8
FRONT_DOOR
  6
Continuous
370
    15
100
AcDbLine
 10
3.341402183
 20
14.6010581595
 30
0.0
 11
3.341402183
 21
14.1560581535
 31
0.0
  0
LINE
  5
1A8
330
1F
100
AcDbEntity
  8
FRONT_DOOR
  6
Continuous
370
    15
100
AcDbLine
 10
3.341402183
 20
14.6010581595
 30
0.0
 11
11.5172604281
 21
14.6010581595
 31
0.0
  0
LINE
  5
1A9
330
1F
100
AcDbEntity
  8
FRONT_DOOR
  6
Continuous
370
    15
100
AcDbLine
 10
11.5172604281
 20
14.6010581595
 30
0.0
 11
11.5172604281
 21
14.1560581535
 31
0.0
  0
SPLINE
  5
1AA
330
1F
100
AcDbEntity
  8
FRONT_DOOR
  6
Continuous
370
    15
100
AcDbSpline
210
0.0
220
0.0
230
1.0
 70
     8
 71
     3
 72
    12
 73
     8
 74
     0
 42
0.0000000001
 43
0.0000000001
 40
0.0
 40
0.0
 40
0.0
 40
0.0
 40
0.2237432759204952
 40
0.4475228710794272
 40
0.6713031951090793
 40
0.8950824289316573
 40
1.0
 40
1.0
 40
1.0
 40
1.0
 10
3.394331224902913
 20
14.04105814865027
 30
0.0
 10
3.390382285981476
 20
14.04243988989987
 30
0.0
 10
3.382483767125128
 20
14.04520359669091
 30
0.0
 10
3.370634496980991
 20
14.06669170607469
 30
0.0
 10
3.358790204904043
 20
14.09808253233067
 30
0.0
 10
3.349022741238931
 20
14.13005555602278
 30
0.0
 10
3.343246057438573
 20
14.14976655081777
 30
0.0
 10
3.341402183010388
 20
14.15605815349373
 30
0.0
  0
LINE
  5
1AB
330
1F
100
AcDbEntity
  8
FRONT_DOOR
  6
Continuous
370
    15
100
AcDbLine
 10
11.4643313862
 20
14.0410581487
 30
0.0
 11
3.3943312249
 21
14.0410581487
 31
0.0
  0
SPLINE
  5
1AC
330
1F
100
AcDbEntity
  8
FRONT_DOOR
  6
Continuous
370
    15
100
AcDbSpline
210
0.0
220
0.0
230
1.0
 70
     8
 71
     3
 72
    12
 73
     8
 74
     0
 42
0.0000000001
 43
0.0000000001
 40
0.0
 40
0.0
 40
0.0
 40
0.0
 40
0.2237445430566091
 40
0.4475237149507856
 40
0.6713035513477774
 40
0.8950836391850375
 40
1.0
 40
1.0
 40
1.0
 40
1.0
 10
11.5172604281316
 20
14.15605815349373
 30
0.0
 10
11.51331138519639
 20
14.14258405658391
 30
0.0
 10
11.50541268813445
 20
14.11563377738462
 30
0.0
 10
11.4935632790277
 20
14.08011033544607
 30
0.0
 10
11.4817196292139
 20
14.05405266099134
 30
0.0
 10
11.47195149958196
 20
14.04235101323427
 30
0.0
 10
11.46617513841493
 20
14.04137096839225
 30
0.0
 10
11.46433138623908
 20
14.04105814865027
 30
0.0
  0
SPLINE
  5
1AD
330
1F
100
AcDbEntity
  8
FRONT_DOOR
  6
Continuous
370
    15
100
AcDbSpline
210
0.0
220
0.0
230
1.0
 70
     8
 71
     3
 72
    12
 73
     8
 74
     0
 42
0.0000000001
 43
0.0000000001
 40
0.0
 40
0.0
 40
0.0
 40
0.0
 40
0.2237442759984406
 40
0.4475240652171472
 40
0.6713047908516879
 40
0.8950850538382075
 40
1.0
 40
1.0
 40
1.0
 40
1.0
 10
3.27933122005945
 20
14.15605815349373
 30
0.0
 10
3.28071304081001
 20
14.14258404517837
 30
0.0
 10
3.283476901636991
 20
14.11563368990533
 30
0.0
 10
3.304964622210609
 20
14.0801103207829
 30
0.0
 10
3.33635605203398
 20
14.05405270074924
 30
0.0
 10
3.368328818116996
 20
14.04235104520201
 30
0.0
 10
3.38803976453324
 20
14.04137097382389
 30
0.0
 10
3.394331224902912
 20
14.04105814865027
 30
0.0
  0
LINE
  5
1AE
330
1F
100
AcDbEntity
  8
FRONT_DOOR
  6
Continuous
370
    15
100
AcDbLine
 10
3.279331220099999
 20
14.1560581535
 30
0.0
 11
3.334331171399999
 21
14.1560581535
 31
0.0
  0
SPLINE
  5
1AF
330
1F
100
AcDbEntity
  8
FRONT_DOOR
  6
Continuous
370
    15
100
AcDbSpline
210
0.0
220
0.0
230
1.0
 70
     8
 71
     3
 72
    10
 73
     6
 74
     0
 42
0.0000000001
 43
0.0000000001
 40
0.0
 40
0.0
 40
0.0
 40
0.0
 40
0.4897416072749007
 40
0.945998384757258
 40
1.0
 40
1.0
 40
1.0
 40
1.0
 10
3.334331171361986
 20
14.15605815349373
 30
0.0
 10
3.335446360533058
 20
14.14789093918688
 30
0.0
 10
3.337600490667934
 20
14.13211492296225
 30
0.0
 10
3.346877712978309
 20
14.11641977316209
 30
0.0
 10
3.354201255150601
 20
14.11186872856791
 30
0.0
 10
3.354976319534138
 20
14.11138708287108
 30
0.0
  0
SPLINE
  5
1B0
330
1F
100
AcDbEntity
  8
FRONT_DOOR
  6
Continuous
370
    15
100
AcDbSpline
210
0.0
220
0.0
230
1.0
 70
     8
 71
     3
 72
    10
 73
     6
 74
     0
 42
0.0000000001
 43
0.0000000001
 40
0.0
 40
0.0
 40
0.0
 40
0.0
 40
0.0908755621014399
 40
0.5497487842380812
 40
1.0
 40
1.0
 40
1.0
 40
1.0
 10
11.50376959731216
 20
14.11178733158071
 30
0.0
 10
11.5050458287776
 20
14.11262784276261
 30
0.0
 10
11.51276634989799
 20
14.11771248806991
 30
0.0
 10
11.52152778007142
 20
14.13346902488059
 30
0.0
 10
11.52340281406203
 20
14.14857620205986
 30
0.0
 10
11.52433143978001
 20
14.15605815349373
 30
0.0
  0
LINE
  5
1B1
330
1F
100
AcDbEntity
  8
FRONT_DOOR
  6
Continuous
370
    15
100
AcDbLine
 10
11.5793313911
 20
14.1560581535
 30
0.0
 11
11.5243314398
 21
14.1560581535
 31
0.0
  0
SPLINE
  5
1B2
330
1F
100
AcDbEntity
  8
FRONT_DOOR
  6
Continuous
370
    15
100
AcDbSpline
210
0.0
220
0.0
230
1.0
 70
     8
 71
     3
 72
    12
 73
     8
 74
     0
 42
0.0000000001
 43
0.0000000001
 40
0.0
 40
0.0
 40
0.0
 40
0.0
 40
0.2237433741292764
 40
0.44752350968811
 40
0.6713034897572463
 40
0.8950832639802811
 40
1.0
 40
1.0
 40
1.0
 40
1.0
 10
11.46433138623908
 20
14.04105814865027
 30
0.0
 10
11.47780545182342
 20
14.04243989892181
 30
0.0
 10
11.50475579680477
 20
14.04520362648889
 30
0.0
 10
11.54027898752784
 20
14.06669161765032
 30
0.0
 10
11.5663366631513
 20
14.09808266792107
 30
0.0
 10
11.57803855976323
 20
14.13005536690246
 30
0.0
 10
11.57901857858565
 20
14.14976653874236
 30
0.0
 10
11.57933139108254
 20
14.15605815349373
 30
0.0
  0
LINE
  5
1B3
330
1F
100
AcDbEntity
  8
FRONT_DOOR
  6
Continuous
370
    15
100
AcDbLine
 10
3.334331171399999
 20
14.6010581595
 30
0.0
 11
3.279331220099999
 21
14.6010581595
 31
0.0
  0
LINE
  5
1B4
330
1F
100
AcDbEntity
  8
FRONT_DOOR
  6
Continuous
370
    15
100
AcDbLine
 10
3.334331171399999
 20
14.1560581535
 30
0.0
 11
3.334331171399999
 21
14.6010581595
 31
0.0
  0
LINE
  5
1B5
330
1F
100
AcDbEntity
  8
FRONT_DOOR
  6
Continuous
370
    15
100
AcDbLine
 10
3.279331220099999
 20
14.1560581535
 30
0.0
 11
3.279331220099999
 21
14.6010581595
 31
0.0
  0
LINE
  5
1B6
330
1F
100
AcDbEntity
  8
FRONT_DOOR
  6
Continuous
370
    15
100
AcDbLine
 10
11.5243314398
 20
14.1560581535
 30
0.0
 11
11.5243314398
 21
14.6010581595
 31
0.0
  0
LINE
  5
1B7
330
1F
100
AcDbEntity
  8
FRONT_DOOR
  6
Continuous
370
    15
100
AcDbLine
 10
11.5243314398
 20
14.6010581595
 30
0.0
 11
11.5793313911
 21
14.6010581595
 31
0.0
  0
LINE
  5
1B8
330
1F
100
AcDbEntity
  8
FRONT_DOOR
  6
Continuous
370
    15
100
AcDbLine
 10
11.5793313911
 20
14.1560581535
 30
0.0
 11
11.5793313911
 21
14.6010581595
 31
0.0
  0
LINE
  5
1B9
330
1F
100
AcDbEntity
  8
BODY
  6
Continuous
370
    15
100
AcDbLine
 10
11.2813313403
 20
20.0490580637
 30
0.0
 11
11.2813313403
 21
20.104058015
 31
0.0
  0
LINE
  5
1BA
330
1F
100
AcDbEntity
  8
BODY
  6
Continuous
370
    15
100
AcDbLine
 10
11.3413313938
 20
19.9890580102
 30
0.0
 11
11.3963313451
 21
19.9890580102
 31
0.0
  0
ARC
  5
1BB
330
1F
100
AcDbEntity
  8
BODY
  6
Continuous
370
    15
100
AcDbCircle
 10
11.2813313953
 20
19.9890581395
 30
0.0
 40
0.115000000000002
100
AcDbArc
 50
0.0
 51
90.0
  0
ARC
  5
1BC
330
1F
100
AcDbEntity
  8
BODY
  6
Continuous
370
    15
100
AcDbCircle
 10
11.2813313953
 20
19.9890581395
 30
0.0
 40
0.0599999999999987
100
AcDbArc
 50
0.0
 51
90.0
  0
LINE
  5
1BD
330
1F
100
AcDbEntity
  8
BODY
  6
Continuous
370
    15
100
AcDbLine
 10
3.5113311533
 20
20.0490580637
 30
0.0
 11
3.5113311533
 21
20.104058015
 31
0.0
  0
LINE
  5
1BE
330
1F
100
AcDbEntity
  8
BODY
  6
Continuous
370
    15
100
AcDbLine
 10
11.2813313403
 20
20.104058015
 30
0.0
 11
3.5113311533
 21
20.104058015
 31
0.0
  0
LINE
  5
1BF
330
1F
100
AcDbEntity
  8
BODY
  6
Continuous
370
    15
100
AcDbLine
 10
11.2813313403
 20
20.0490580637
 30
0.0
 11
3.5113311533
 21
20.0490580637
 31
0.0
  0
LINE
  5
1C0
330
1F
100
AcDbEntity
  8
BODY
  6
Continuous
370
    15
100
AcDbLine
 10
11.3963313451
 20
14.6010581595
 30
0.0
 11
11.3963313451
 21
19.9890580102
 31
0.0
  0
LINE
  5
1C1
330
1F
100
AcDbEntity
  8
BODY
  6
Continuous
370
    15
100
AcDbLine
 10
11.3413313938
 20
14.6010581595
 30
0.0
 11
11.3413313938
 21
19.9890580102
 31
0.0
  0
ARC
  5
1C2
330
1F
100
AcDbEntity
  8
BODY
  6
Continuous
370
    15
100
AcDbCircle
 10
3.511331395299999
 20
19.9890581395
 30
0.0
 40
0.0600000000000023
100
AcDbArc
 50
90.0
 51
180.0
  0
LINE
  5
1C3
330
1F
100
AcDbEntity
  8
BODY
  6
Continuous
370
    15
100
AcDbLine
 10
3.451331686399999
 20
19.9890580102
 30
0.0
 11
3.3963311485
 21
19.9890580102
 31
0.0
  0
ARC
  5
1C4
330
1F
100
AcDbEntity
  8
BODY
  6
Continuous
370
    15
100
AcDbCircle
 10
3.511331395299999
 20
19.9890581395
 30
0.0
 40
0.115000000000002
100
AcDbArc
 50
90.0
 51
180.0
  0
LINE
  5
1C5
330
1F
100
AcDbEntity
  8
BODY
  6
Continuous
370
    15
100
AcDbLine
 10
3.451331686399999
 20
19.9890580102
 30
0.0
 11
3.451331686399999
 21
14.6010581595
 31
0.0
  0
LINE
  5
1C6
330
1F
100
AcDbEntity
  8
BODY
  6
Continuous
370
    15
100
AcDbLine
 10
3.3963311485
 20
19.9890580102
 30
0.0
 11
3.3963311485
 21
14.6010581595
 31
0.0
  0
CIRCLE
  5
1C7
330
1F
100
AcDbEntity
  8
BODY
  6
Continuous
370
    15
100
AcDbCircle
 10
3.231831395299999
 20
14.9060581395
 30
0.0
 40
0.0600000000000005
  0
LINE
  5
1C8
330
1F
100
AcDbEntity
  8
BODY
  6
Continuous
370
    15
100
AcDbLine
 10
3.3155480817
 20
14.9920322163
 30
0.0
 11
3.334331171399999
 21
15.0660581344
 31
0.0
  0
LINE
  5
1C9
330
1F
100
AcDbEntity
  8
BODY
  6
Continuous
370
    15
100
AcDbLine
 10
3.334331171399999
 20
15.0660581344
 30
0.0
 11
3.334331171399999
 21
15.6560581354
 31
0.0
  0
LINE
  5
1CA
330
1F
100
AcDbEntity
  8
BODY
  6
Continuous
370
    15
100
AcDbLine
 10
3.3943312249
 20
15.6560581354
 30
0.0
 11
3.3943312249
 21
15.0585646543
 31
0.0
  0
LINE
  5
1CB
330
1F
100
AcDbEntity
  8
BODY
  6
Continuous
370
    15
100
AcDbLine
 10
3.3943312249
 20
15.0585646543
 30
0.0
 11
3.3481452518
 21
14.876544477
 31
0.0
  0
ARC
  5
1CC
330
1F
100
AcDbEntity
  8
BODY
  6
Continuous
370
    15
100
AcDbCircle
 10
3.231831395299999
 20
14.9060581395
 30
0.0
 40
0.120000000000001
100
AcDbArc
 50
45.7621895318
 51
345.7621895318
  0
LINE
  5
1CD
330
1F
100
AcDbEntity
  8
BODY
  6
Continuous
370
    15
100
AcDbLine
 10
3.334331171399999
 20
15.6560581354
 30
0.0
 11
3.3943312249
 21
15.6560581354
 31
0.0
  0
LINE
  5
1CE
330
1F
100
AcDbEntity
  8
FRONT_DOOR
  6
Continuous
370
    15
100
AcDbLine
 10
3.334331171399999
 20
14.1560581535
 30
0.0
 11
3.341402183
 21
14.1560581535
 31
0.0
  0
LINE
  5
1CF
330
1F
100
AcDbEntity
  8
FRONT_DOOR
  6
Continuous
370
    15
100
AcDbLine
 10
3.334331171399999
 20
14.7440581209
 30
0.0
 11
3.334331171399999
 21
14.6010581595
 31
0.0
  0
LINE
  5
1D0
330
1F
100
AcDbEntity
  8
FRONT_DOOR
  6
Continuous
370
    15
100
AcDbLine
 10
3.3943312249
 20
14.6010581595
 30
0.0
 11
3.3943312249
 21
14.7440581209
 31
0.0
  0
LINE
  5
1D1
330
1F
100
AcDbEntity
  8
FRONT_DOOR
  6
Continuous
370
    15
100
AcDbLine
 10
3.3943312249
 20
14.7440581209
 30
0.0
 11
3.334331171399999
 21
14.7440581209
 31
0.0
  0
LINE
  5
1D2
330
1F
100
AcDbEntity
  8
FRONT_DOOR
  6
Continuous
370
    15
100
AcDbLine
 10
3.334331171399999
 20
14.7460581178
 30
0.0
 11
3.3155480817
 21
14.8200841093
 31
0.0
  0
LINE
  5
1D3
330
1F
100
AcDbEntity
  8
FRONT_DOOR
  6
Continuous
370
    15
100
AcDbLine
 10
3.355633965299999
 20
14.9060581628
 30
0.0
 11
3.3943312249
 21
14.7535516712
 31
0.0
  0
LINE
  5
1D4
330
1F
100
AcDbEntity
  8
FRONT_DOOR
  6
Continuous
370
    15
100
AcDbLine
 10
3.334331171399999
 20
14.7440581209
 30
0.0
 11
3.334331171399999
 21
14.7460581178
 31
0.0
  0
LINE
  5
1D5
330
1F
100
AcDbEntity
  8
FRONT_DOOR
  6
Continuous
370
    15
100
AcDbLine
 10
3.3943312249
 20
14.7535516712
 30
0.0
 11
3.3943312249
 21
14.7440581209
 31
0.0
  0
LINE
  5
1D6
330
1F
100
AcDbEntity
  8
BODY
  6
Continuous
370
    15
100
AcDbLine
 10
11.2113313756
 20
14.6010581595
 30
0.0
 11
11.2113313756
 21
19.9340580589
 31
0.0
  0
LINE
  5
1D7
330
1F
100
AcDbEntity
  8
BODY
  6
Continuous
370
    15
100
AcDbLine
 10
3.581331411299999
 20
19.9340580589
 30
0.0
 11
3.581331411299999
 21
14.6010581595
 31
0.0
  0
LINE
  5
1D8
330
1F
100
AcDbEntity
  8
BODY
  6
HIDDEN
370
     0
100
AcDbLine
 10
3.581331411299999
 20
19.9340580589
 30
0.0
 11
11.2113313756
 21
19.9340580589
 31
0.0
  0
LINE
  5
1D9
330
1F
100
AcDbEntity
  8
BODY
  6
HIDDEN
370
     0
100
AcDbLine
 10
3.581331411299999
 20
14.1090581898
 30
0.0
 11
3.581331411299999
 21
19.9340580589
 31
0.0
  0
LINE
  5
1DA
330
1F
100
AcDbEntity
  8
BODY
  6
HIDDEN
370
     0
100
AcDbLine
 10
11.2113313756
 20
19.9340580589
 30
0.0
 11
11.2113313756
 21
14.1090581898
 31
0.0
  0
LINE
  5
1DB
330
1F
100
AcDbEntity
  8
BODY
  6
HIDDEN
370
     0
100
AcDbLine
 10
3.581331411299999
 20
19.9340580589
 30
0.0
 11
11.2113313756
 21
19.9340580589
 31
0.0
  0
LINE
  5
1DC
330
1F
100
AcDbEntity
  8
BODY
  6
HIDDEN
370
     0
100
AcDbLine
 10
11.2113313756
 20
19.9340580589
 30
0.0
 11
11.2113313756
 21
14.1090581898
 31
0.0
  0
LINE
  5
1DD
330
1F
100
AcDbEntity
  8
BODY
  6
HIDDEN
370
     0
100
AcDbLine
 10
3.581331411299999
 20
14.1090581898
 30
0.0
 11
3.581331411299999
 21
19.9340580589
 31
0.0
  0
LINE
  5
1DE
330
1F
100
AcDbEntity
  8
BODY
  6
HIDDEN
370
     0
100
AcDbLine
 10
10.8263314231
 20
14.2240581946
 30
0.0
 11
3.966331363799999
 21
14.2240581946
 31
0.0
  0
LINE
  5
1DF
330
1F
100
AcDbEntity
  8
BODY
  6
HIDDEN
370
     0
100
AcDbLine
 10
10.8263314231
 20
14.2240581946
 30
0.0
 11
3.966331363799999
 21
14.2240581946
 31
0.0
  0
LINE
  5
1E0
330
1F
100
AcDbEntity
  8
BODY
  6
HIDDEN
370
     0
100
AcDbLine
 10
11.3263313804
 20
14.6010581595
 30
0.0
 11
11.3263313804
 21
14.1090581898
 31
0.0
  0
LINE
  5
1E1
330
1F
100
AcDbEntity
  8
BODY
  6
HIDDEN
370
     0
100
AcDbLine
 10
11.3263313804
 20
14.1090581898
 30
0.0
 11
11.2113313756
 21
14.1090581898
 31
0.0
  0
LINE
  5
1E2
330
1F
100
AcDbEntity
  8
BODY
  6
HIDDEN
370
     0
100
AcDbLine
 10
3.581331411299999
 20
14.1090581898
 30
0.0
 11
3.966331363799999
 21
14.1090581898
 31
0.0
  0
LINE
  5
1E3
330
1F
100
AcDbEntity
  8
BODY
  6
HIDDEN
370
     0
100
AcDbLine
 10
10.8263314231
 20
14.1090581898
 30
0.0
 11
11.2113313756
 21
14.1090581898
 31
0.0
  0
LINE
  5
1E4
330
1F
100
AcDbEntity
  8
BODY
  6
HIDDEN
370
     0
100
AcDbLine
 10
10.8263314231
 20
14.1090581898
 30
0.0
 11
10.8263314231
 21
14.2240581946
 31
0.0
  0
LINE
  5
1E5
330
1F
100
AcDbEntity
  8
BODY
  6
HIDDEN
370
     0
100
AcDbLine
 10
3.966331363799999
 20
14.2240581946
 30
0.0
 11
10.8263314231
 21
14.2240581946
 31
0.0
  0
LINE
  5
1E6
330
1F
100
AcDbEntity
  8
BODY
  6
HIDDEN
370
     0
100
AcDbLine
 10
3.966331363799999
 20
14.2240581946
 30
0.0
 11
3.966331363799999
 21
14.1090581898
 31
0.0
  0
LINE
  5
1E7
330
1F
100
AcDbEntity
  8
BODY
  6
HIDDEN
370
     0
100
AcDbLine
 10
3.581331411299999
 20
14.1090581898
 30
0.0
 11
3.466331406499999
 21
14.1090581898
 31
0.0
  0
LINE
  5
1E8
330
1F
100
AcDbEntity
  8
BODY
  6
HIDDEN
370
     0
100
AcDbLine
 10
3.466331406499999
 20
14.6010581595
 30
0.0
 11
3.466331406499999
 21
14.1090581898
 31
0.0
  0
LINE
  5
1E9
330
1F
100
AcDbEntity
  8
BODY
  6
HIDDEN
370
     0
100
AcDbLine
 10
10.8263314231
 20
14.1090581898
 30
0.0
 11
3.966331363799999
 21
14.1090581898
 31
0.0
  0
LINE
  5
1EA
330
1F
100
AcDbEntity
  8
BODY
  6
HIDDEN
370
     0
100
AcDbLine
 10
11.2713314291
 20
19.9869871008
 30
0.0
 11
11.2713314291
 21
14.1090581898
 31
0.0
  0
LINE
  5
1EB
330
1F
100
AcDbEntity
  8
BODY
  6
HIDDEN
370
     0
100
AcDbLine
 10
11.2113313756
 20
14.1090581898
 30
0.0
 11
11.2113313756
 21
19.9340580589
 31
0.0
  0
LINE
  5
1EC
330
1F
100
AcDbEntity
  8
BODY
  6
HIDDEN
370
     0
100
AcDbLine
 10
3.5284023694
 20
19.9940581124
 30
0.0
 11
11.2642602708
 21
19.9940581124
 31
0.0
  0
LINE
  5
1ED
330
1F
100
AcDbEntity
  8
BODY
  6
HIDDEN
370
     0
100
AcDbLine
 10
11.2113313756
 20
19.9340580589
 30
0.0
 11
3.581331411299999
 21
19.9340580589
 31
0.0
  0
LINE
  5
1EE
330
1F
100
AcDbEntity
  8
BODY
  6
HIDDEN
370
     0
100
AcDbLine
 10
3.521331357799999
 20
14.1090581898
 30
0.0
 11
3.521331357799999
 21
19.9869871008
 31
0.0
  0
LINE
  5
1EF
330
1F
100
AcDbEntity
  8
BODY
  6
HIDDEN
370
     0
100
AcDbLine
 10
3.581331411299999
 20
19.9340580589
 30
0.0
 11
3.581331411299999
 21
14.1090581898
 31
0.0
  0
LINE
  5
1F0
330
1F
100
AcDbEntity
  8
BODY
  6
HIDDEN
370
     0
100
AcDbLine
 10
10.8263314231
 20
14.1640581411
 30
0.0
 11
3.966331363799999
 21
14.1640581411
 31
0.0
  0
LINE
  5
1F1
330
1F
100
AcDbEntity
  8
BODY
  6
HIDDEN
370
     0
100
AcDbLine
 10
3.966331363799999
 20
14.2240581946
 30
0.0
 11
10.8263314231
 21
14.2240581946
 31
0.0
  0
LINE
  5
1F2
330
1F
100
AcDbEntity
  8
FRONT_DOOR
  6
HIDDEN
370
     0
100
AcDbLine
 10
11.4643313862
 20
14.0960581
 30
0.0
 11
3.3943312249
 21
14.0960581
 31
0.0
  0
LINE
  5
1F3
330
1F
100
AcDbEntity
  8
FRONT_DOOR
  6
HIDDEN
370
     0
100
AcDbLine
 10
3.341402183
 20
14.1560581535
 30
0.0
 11
11.5172604281
 21
14.1560581535
 31
0.0
  0
SPLINE
  5
1F4
330
1F
100
AcDbEntity
  8
FRONT_DOOR
  6
HIDDEN
370
     0
100
AcDbSpline
210
0.0
220
0.0
230
1.0
 70
     8
 71
     3
 72
    11
 73
     7
 74
     0
 42
0.0000000001
 43
0.0000000001
 40
0.0
 40
0.0
 40
0.0
 40
0.0
 40
0.2647547141816544
 40
0.5114053975324051
 40
0.7580181989650482
 40
1.0
 40
1.0
 40
1.0
 40
1.0
 10
3.394331224902913
 20
14.0960580999528
 30
0.0
 10
3.389656584948091
 20
14.09706874987096
 30
0.0
 10
3.380626958745561
 20
14.09902094107088
 30
0.0
 10
3.367258215523451
 20
14.11346352980775
 30
0.0
 10
3.35428707304689
 20
14.13309004528691
 30
0.0
 10
3.345669921308836
 20
14.14845064774402
 30
0.0
 10
3.341402183010388
 20
14.15605815349373
 30
0.0
  0
SPLINE
  5
1F5
330
1F
100
AcDbEntity
  8
FRONT_DOOR
  6
HIDDEN
370
     0
100
AcDbSpline
210
0.0
220
0.0
230
1.0
 70
     8
 71
     3
 72
    11
 73
     7
 74
     0
 42
0.0000000001
 43
0.0000000001
 40
0.0
 40
0.0
 40
0.0
 40
0.0
 40
0.2647556266469037
 40
0.5114084704130497
 40
0.758021099488889
 40
1.0
 40
1.0
 40
1.0
 40
1.0
 10
11.5172604281316
 20
14.15605815349373
 30
0.0
 10
11.51258565221528
 20
14.14772615914039
 30
0.0
 10
11.50355574025017
 20
14.13163187422681
 30
0.0
 10
11.49018723625168
 20
14.1118866126142
 30
0.0
 10
11.47721597606023
 20
14.09860759552238
 30
0.0
 10
11.46859900883919
 20
14.09690254165119
 30
0.0
 10
11.46433138623908
 20
14.0960580999528
 30
0.0
  0
SPLINE
  5
1F6
330
1F
100
AcDbEntity
  8
FRONT_DOOR
  6
HIDDEN
370
     0
100
AcDbSpline
210
0.0
220
0.0
230
1.0
 70
     8
 71
     3
 72
     9
 73
     5
 74
     0
 42
0.0000000001
 43
0.0000000001
 40
0.0
 40
0.0
 40
0.0
 40
0.0
 40
0.473267531371839
 40
1.0
 40
1.0
 40
1.0
 40
1.0
 10
3.354976319534138
 20
14.11138708287108
 30
0.0
 10
3.360448440491024
 20
14.10713567453538
 30
0.0
 10
3.37201086680205
 20
14.09815257712454
 30
0.0
 10
3.386630558568298
 20
14.09678070797603
 30
0.0
 10
3.394331224902913
 20
14.0960580999528
 30
0.0
  0
LINE
  5
1F7
330
1F
100
AcDbEntity
  8
FRONT_DOOR
  6
HIDDEN
370
     0
100
AcDbLine
 10
3.3943312249
 20
14.0960581
 30
0.0
 11
3.3943312249
 21
14.0410581487
 31
0.0
  0
SPLINE
  5
1F8
330
1F
100
AcDbEntity
  8
FRONT_DOOR
  6
HIDDEN
370
     0
100
AcDbSpline
210
0.0
220
0.0
230
1.0
 70
     8
 71
     3
 72
     9
 73
     5
 74
     0
 42
0.0000000001
 43
0.0000000001
 40
0.0
 40
0.0
 40
0.0
 40
0.0
 40
0.5723614142595095
 40
1.0
 40
1.0
 40
1.0
 40
1.0
 10
11.46433138623908
 20
14.0960580999528
 30
0.0
 10
11.47279039413501
 20
14.0968987500466
 30
0.0
 10
11.4875695313815
 20
14.09836749002952
 30
0.0
 10
11.498916987308
 20
14.10776751723895
 30
0.0
 10
11.50376959731216
 20
14.11178733158071
 30
0.0
  0
LINE
  5
1F9
330
1F
100
AcDbEntity
  8
FRONT_DOOR
  6
HIDDEN
370
     0
100
AcDbLine
 10
11.4643313862
 20
14.0960581
 30
0.0
 11
11.4643313862
 21
14.0410581487
 31
0.0
  0
LINE
  5
1FA
330
1F
100
AcDbEntity
  8
FRONT_DOOR
  6
HIDDEN
370
     0
100
AcDbLine
 10
10.2291836681
 20
14.2860581717
 30
0.0
 11
9.3094790493
 21
14.2860581717
 31
0.0
  0
LINE
  5
1FB
330
1F
100
AcDbEntity
  8
FRONT_DOOR
  6
HIDDEN
370
     0
100
AcDbLine
 10
10.2068313397
 20
14.2310580738
 30
0.0
 11
9.3318313777
 21
14.2310580738
 31
0.0
  0
LINE
  5
1FC
330
1F
100
AcDbEntity
  8
FRONT_DOOR
  6
HIDDEN
370
     0
100
AcDbLine
 10
10.0943313859
 20
14.2310580738
 30
0.0
 11
10.0943313859
 21
14.2860581717
 31
0.0
  0
LINE
  5
1FD
330
1F
100
AcDbEntity
  8
FRONT_DOOR
  6
HIDDEN
370
     0
100
AcDbLine
 10
9.444331404799999
 20
14.2310580738
 30
0.0
 11
9.444331404799999
 21
14.2860581717
 31
0.0
  0
LINE
  5
1FE
330
1F
100
AcDbEntity
  8
BODY
  6
HIDDEN
370
     0
100
AcDbLine
 10
11.3963313451
 20
14.2190580924
 30
0.0
 11
11.3963313451
 21
14.6010581595
 31
0.0
  0
LINE
  5
1FF
330
1F
100
AcDbEntity
  8
BODY
  6
HIDDEN
370
     0
100
AcDbLine
 10
11.3413313938
 20
14.2190580924
 30
0.0
 11
11.3963313451
 21
14.2190580924
 31
0.0
  0
LINE
  5
200
330
1F
100
AcDbEntity
  8
BODY
  6
HIDDEN
370
     0
100
AcDbLine
 10
11.3413313938
 20
14.2190580924
 30
0.0
 11
11.3413313938
 21
14.6010581595
 31
0.0
  0
LINE
  5
201
330
1F
100
AcDbEntity
  8
BODY
  6
HIDDEN
370
     0
100
AcDbLine
 10
3.451331686399999
 20
14.6010581595
 30
0.0
 11
3.451331686399999
 21
14.2190580924
 31
0.0
  0
LINE
  5
202
330
1F
100
AcDbEntity
  8
BODY
  6
HIDDEN
370
     0
100
AcDbLine
 10
3.451331686399999
 20
14.2190580924
 30
0.0
 11
3.3963311485
 21
14.2190580924
 31
0.0
  0
LINE
  5
203
330
1F
100
AcDbEntity
  8
BODY
  6
HIDDEN
370
     0
100
AcDbLine
 10
3.3963311485
 20
14.6010581595
 30
0.0
 11
3.3963311485
 21
14.2190580924
 31
0.0
  0
ARC
  5
204
330
1F
100
AcDbEntity
  8
BODY
  6
HIDDEN
370
     0
100
AcDbCircle
 10
11.2813313953
 20
14.2190581395
 30
0.0
 40
0.1150000000000038
100
AcDbArc
 50
270.0
 51
0.0
  0
LINE
  5
205
330
1F
100
AcDbEntity
  8
BODY
  6
HIDDEN
370
     0
100
AcDbLine
 10
11.2813313403
 20
14.1590581855
 30
0.0
 11
11.2813313403
 21
14.1040580875
 31
0.0
  0
ARC
  5
206
330
1F
100
AcDbEntity
  8
BODY
  6
HIDDEN
370
     0
100
AcDbCircle
 10
11.2813313953
 20
14.2190581395
 30
0.0
 40
0.0600000000000023
100
AcDbArc
 50
270.0
 51
0.0
  0
LINE
  5
207
330
1F
100
AcDbEntity
  8
BODY
  6
HIDDEN
370
     0
100
AcDbLine
 10
10.8663313611
 20
14.1040580875
 30
0.0
 11
10.8663313611
 21
14.1590581855
 31
0.0
  0
LINE
  5
208
330
1F
100
AcDbEntity
  8
BODY
  6
HIDDEN
370
     0
100
AcDbLine
 10
10.8663313611
 20
14.1590581855
 30
0.0
 11
11.2813313403
 21
14.1590581855
 31
0.0
  0
LINE
  5
209
330
1F
100
AcDbEntity
  8
BODY
  6
HIDDEN
370
     0
100
AcDbLine
 10
10.8663313611
 20
14.1040580875
 30
0.0
 11
11.2813313403
 21
14.1040580875
 31
0.0
  0
LINE
  5
20A
330
1F
100
AcDbEntity
  8
BODY
  6
HIDDEN
370
     0
100
AcDbLine
 10
3.5113311533
 20
14.1590581855
 30
0.0
 11
3.5113311533
 21
14.1040580875
 31
0.0
  0
ARC
  5
20B
330
1F
100
AcDbEntity
  8
BODY
  6
HIDDEN
370
     0
100
AcDbCircle
 10
3.511331395299999
 20
14.2190581395
 30
0.0
 40
0.1150000000000038
100
AcDbArc
 50
180.0
 51
270.0
  0
ARC
  5
20C
330
1F
100
AcDbEntity
  8
BODY
  6
HIDDEN
370
     0
100
AcDbCircle
 10
3.511331395299999
 20
14.2190581395
 30
0.0
 40
0.0600000000000023
100
AcDbArc
 50
180.0
 51
270.0
  0
LINE
  5
20D
330
1F
100
AcDbEntity
  8
BODY
  6
HIDDEN
370
     0
100
AcDbLine
 10
3.5113311533
 20
14.1040580875
 30
0.0
 11
3.926331425899999
 21
14.1040580875
 31
0.0
  0
LINE
  5
20E
330
1F
100
AcDbEntity
  8
BODY
  6
HIDDEN
370
     0
100
AcDbLine
 10
3.5113311533
 20
14.1590581855
 30
0.0
 11
3.926331425899999
 21
14.1590581855
 31
0.0
  0
LINE
  5
20F
330
1F
100
AcDbEntity
  8
BODY
  6
HIDDEN
370
     0
100
AcDbLine
 10
3.926331425899999
 20
14.1040580875
 30
0.0
 11
3.926331425899999
 21
14.1590581855
 31
0.0
  0
LINE
  5
210
330
1F
100
AcDbEntity
  8
BODY
  6
HIDDEN
370
     0
100
AcDbLine
 10
11.3413313938
 20
19.9890580102
 30
0.0
 11
11.3963313451
 21
19.9890580102
 31
0.0
  0
LINE
  5
211
330
1F
100
AcDbEntity
  8
BODY
  6
HIDDEN
370
     0
100
AcDbLine
 10
11.2813313403
 20
20.0490580637
 30
0.0
 11
11.2813313403
 21
20.104058015
 31
0.0
  0
LINE
  5
212
330
1F
100
AcDbEntity
  8
BODY
  6
HIDDEN
370
     0
100
AcDbLine
 10
3.5113311533
 20
20.0490580637
 30
0.0
 11
3.5113311533
 21
20.104058015
 31
0.0
  0
LINE
  5
213
330
1F
100
AcDbEntity
  8
BODY
  6
HIDDEN
370
     0
100
AcDbLine
 10
3.451331686399999
 20
19.9890580102
 30
0.0
 11
3.3963311485
 21
19.9890580102
 31
0.0
  0
LINE
  5
214
330
1F
100
AcDbEntity
  8
BODY
  6
HIDDEN
370
     0
100
AcDbLine
 10
11.3413313938
 20
14.2190580924
 30
0.0
 11
11.3963313451
 21
14.2190580924
 31
0.0
  0
LINE
  5
215
330
1F
100
AcDbEntity
  8
BODY
  6
HIDDEN
370
     0
100
AcDbLine
 10
11.2813313403
 20
14.1590581855
 30
0.0
 11
11.2813313403
 21
14.1040580875
 31
0.0
  0
LINE
  5
216
330
1F
100
AcDbEntity
  8
BODY
  6
HIDDEN
370
     0
100
AcDbLine
 10
3.451331686399999
 20
14.2190580924
 30
0.0
 11
3.3963311485
 21
14.2190580924
 31
0.0
  0
LINE
  5
217
330
1F
100
AcDbEntity
  8
BODY
  6
HIDDEN
370
     0
100
AcDbLine
 10
3.5113311533
 20
14.1590581855
 30
0.0
 11
3.5113311533
 21
14.1040580875
 31
0.0
  0
LINE
  5
218
330
1F
100
AcDbEntity
  8
FRONT_DOOR
  6
HIDDEN
370
     0
100
AcDbLine
 10
9.336831406599999
 20
14.0910581444
 30
0.0
 11
10.2018313841
 21
14.0910581444
 31
0.0
  0
LINE
  5
219
330
1F
100
AcDbEntity
  8
FRONT_DOOR
  6
HIDDEN
370
     0
100
AcDbLine
 10
9.3768313812
 20
14.0510582065
 30
0.0
 11
10.1618314462
 21
14.0510582065
 31
0.0
  0
LINE
  5
21A
330
1F
100
AcDbEntity
  8
FRONT_DOOR
  6
HIDDEN
370
     0
100
AcDbLine
 10
9.449331396999999
 20
14.5710581327
 30
0.0
 11
10.0893314304
 21
14.5710581327
 31
0.0
  0
LINE
  5
21B
330
1F
100
AcDbEntity
  8
FRONT_DOOR
  6
HIDDEN
370
     0
100
AcDbLine
 10
9.4820887253
 20
14.6610580664
 30
0.0
 11
10.0565741021
 21
14.6610580664
 31
0.0
  0
LINE
  5
21C
330
1F
100
AcDbEntity
  8
FRONT_DOOR
  6
HIDDEN
370
     0
100
AcDbLine
 10
10.1193314571
 20
14.1610581091
 30
0.0
 11
9.419331406900001
 21
14.1610581091
 31
0.0
  0
LINE
  5
21D
330
1F
100
AcDbEntity
  8
FRONT_DOOR
  6
HIDDEN
370
     0
100
AcDbLine
 10
9.419331406900001
 20
14.1610581091
 30
0.0
 11
9.419331406900001
 21
14.0510582065
 31
0.0
  0
LINE
  5
21E
330
1F
100
AcDbEntity
  8
FRONT_DOOR
  6
HIDDEN
370
     0
100
AcDbLine
 10
10.1193314571
 20
14.1610581091
 30
0.0
 11
10.1193314571
 21
14.0510582065
 31
0.0
  0
LINE
  5
21F
330
1F
100
AcDbEntity
  8
FRONT_DOOR
  6
HIDDEN
370
     0
100
AcDbLine
 10
9.149331386
 20
14.2335581249
 30
0.0
 11
9.255157313499999
 21
14.2335581249
 31
0.0
  0
SPLINE
  5
220
330
1F
100
AcDbEntity
  8
FRONT_DOOR
  6
HIDDEN
370
     0
100
AcDbSpline
210
0.0
220
0.0
230
1.0
 70
     8
 71
     3
 72
     9
 73
     5
 74
     0
 42
0.0000000001
 43
0.0000000001
 40
0.0
 40
0.0
 40
0.0
 40
0.0
 40
0.2118308987865428
 40
1.0
 40
1.0
 40
1.0
 40
1.0
 10
9.255157313473148
 20
14.23355812487413
 30
0.0
 10
9.27326300010689
 20
14.24375974222031
 30
0.0
 10
9.358735359132216
 20
14.29191899285192
 30
0.0
 10
9.449021823632344
 20
14.33058373607156
 30
0.0
 10
9.520182825209154
 20
14.36105809198363
 30
0.0
  0
LINE
  5
221
330
1F
100
AcDbEntity
  8
FRONT_DOOR
  6
HIDDEN
370
     0
100
AcDbLine
 10
10.0591578256
 20
14.361058092
 30
0.0
 11
9.520182825199999
 21
14.361058092
 31
0.0
  0
SPLINE
  5
222
330
1F
100
AcDbEntity
  8
FRONT_DOOR
  6
HIDDEN
370
     0
100
AcDbSpline
210
0.0
220
0.0
230
1.0
 70
     8
 71
     3
 72
     9
 73
     5
 74
     0
 42
0.0000000001
 43
0.0000000001
 40
0.0
 40
0.0
 40
0.0
 40
0.0
 40
0.574962911419942
 40
1.0
 40
1.0
 40
1.0
 40
1.0
 10
10.05915782559062
 20
14.36105809198363
 30
0.0
 10
10.12867378973545
 20
14.33073333160631
 30
0.0
 10
10.24957891729081
 20
14.27799121594108
 30
0.0
 10
10.36259300609933
 20
14.20996973166389
 30
0.0
 10
10.41062818537504
 20
14.18105807802582
 30
0.0
  0
LINE
  5
223
330
1F
100
AcDbEntity
  8
FRONT_DOOR
  6
HIDDEN
370
     0
100
AcDbLine
 10
10.4106281854
 20
14.181058078
 30
0.0
 11
9.0193314044
 21
14.181058078
 31
0.0
  0
LINE
  5
224
330
1F
100
AcDbEntity
  8
FRONT_DOOR
  6
HIDDEN
370
     0
100
AcDbLine
 10
10.4106281854
 20
14.1360581845
 30
0.0
 11
9.0193314044
 21
14.1360581845
 31
0.0
  0
LINE
  5
225
330
1F
100
AcDbEntity
  8
FRONT_DOOR
  6
HIDDEN
370
     0
100
AcDbLine
 10
10.4106281854
 20
14.181058078
 30
0.0
 11
10.4106281854
 21
14.1360581845
 31
0.0
  0
LINE
  5
226
330
1F
100
AcDbEntity
  8
FRONT_DOOR
  6
HIDDEN
370
     0
100
AcDbLine
 10
10.3893314047
 20
14.1635581602
 30
0.0
 11
9.054331386799999
 21
14.1635581602
 31
0.0
  0
SPLINE
  5
227
330
1F
100
AcDbEntity
  8
FRONT_DOOR
  6
HIDDEN
370
     0
100
AcDbSpline
210
0.0
220
0.0
230
1.0
 70
    24
 71
     3
 72
    10
 73
     6
 74
     0
 42
0.0000000001
 43
0.0000000001
 40
0.0
 40
0.0
 40
0.0
 40
0.0
 40
0.4129706157952232
 40
0.8335648618048015
 40
1.0
 40
1.0
 40
1.0
 40
1.0
 10
10.3893314047306
 20
14.16355816018636
 30
0.0
 10
10.3893314047306
 20
14.17946330409975
 30
0.0
 10
10.3893314047306
 20
14.21156720830276
 30
0.0
 10
10.3893314047306
 20
14.23556482934247
 30
0.0
 10
10.3893314047306
 20
14.23194857310717
 30
0.0
 10
10.3893314047306
 20
14.23092328864532
 30
0.0
  0
SPLINE
  5
228
330
1F
100
AcDbEntity
  8
FRONT_DOOR
  6
HIDDEN
370
     0
100
AcDbSpline
210
0.0
220
0.0
230
1.0
 70
     8
 71
     3
 72
     9
 73
     5
 74
     0
 42
0.0000000001
 43
0.0000000001
 40
0.0
 40
0.0
 40
0.0
 40
0.0
 40
0.1906914841347128
 40
1.0
 40
1.0
 40
1.0
 40
1.0
 10
10.27133136787709
 20
14.26773810335744
 30
0.0
 10
10.26518884343661
 20
14.271544782903
 30
0.0
 10
10.23297699890484
 20
14.29150728706427
 30
0.0
 10
10.20024484186364
 20
14.31060343472097
 30
0.0
 10
10.17375442842756
 20
14.32605810963975
 30
0.0
  0
LINE
  5
229
330
1F
100
AcDbEntity
  8
FRONT_DOOR
  6
HIDDEN
370
     0
100
AcDbLine
 10
10.1737544284
 20
14.3260581096
 30
0.0
 11
9.393290014399999
 21
14.3260581096
 31
0.0
  0
SPLINE
  5
22A
330
1F
100
AcDbEntity
  8
FRONT_DOOR
  6
HIDDEN
370
     0
100
AcDbSpline
210
0.0
220
0.0
230
1.0
 70
     8
 71
     3
 72
     9
 73
     5
 74
     0
 42
0.0000000001
 43
0.0000000001
 40
0.0
 40
0.0
 40
0.0
 40
0.0
 40
0.942953787125694
 40
1.0
 40
1.0
 40
1.0
 40
1.0
 10
9.393290014419068
 20
14.32605810963975
 30
0.0
 10
9.367697411080671
 20
14.31125522012838
 30
0.0
 10
9.34055652285496
 20
14.29555679491023
 30
0.0
 10
9.313786331842532
 20
14.27923897129171
 30
0.0
 10
9.312259193827351
 20
14.27830810125192
 30
0.0
  0
LINE
  5
22B
330
1F
100
AcDbEntity
  8
FRONT_DOOR
  6
HIDDEN
370
     0
100
AcDbLine
 10
9.312259193799999
 20
14.2783081013
 30
0.0
 11
9.2673313862
 21
14.2783081013
 31
0.0
  0
LINE
  5
22C
330
1F
100
AcDbEntity
  8
FRONT_DOOR
  6
HIDDEN
370
     0
100
AcDbLine
 10
10.3893314047
 20
14.1360581845
 30
0.0
 11
10.3893314047
 21
14.1635581602
 31
0.0
  0
LINE
  5
22D
330
1F
100
AcDbEntity
  8
FRONT_DOOR
  6
HIDDEN
370
     0
100
AcDbLine
 10
9.769331413699999
 20
14.7560581756
 30
0.0
 11
9.769331413699999
 21
14.361058092
 31
0.0
  0
LINE
  5
22E
330
1F
100
AcDbEntity
  8
FRONT_DOOR
  6
HIDDEN
370
     0
100
AcDbLine
 10
9.769331413699999
 20
14.7560581756
 30
0.0
 11
10.3893314047
 21
14.7560581756
 31
0.0
  0
LINE
  5
22F
330
1F
100
AcDbEntity
  8
FRONT_DOOR
  6
HIDDEN
370
     0
100
AcDbLine
 10
10.3893314047
 20
14.7560581756
 30
0.0
 11
10.3893314047
 21
14.6760581531
 31
0.0
  0
LINE
  5
230
330
1F
100
AcDbEntity
  8
FRONT_DOOR
  6
HIDDEN
370
     0
100
AcDbLine
 10
10.3893314047
 20
14.6760581531
 30
0.0
 11
11.2143314076
 21
14.2960580829
 31
0.0
  0
LINE
  5
231
330
1F
100
AcDbEntity
  8
FRONT_DOOR
  6
HIDDEN
370
     0
100
AcDbLine
 10
11.2143314076
 20
14.2960580829
 30
0.0
 11
11.2143314076
 21
14.2060581492
 31
0.0
  0
ARC
  5
232
330
1F
100
AcDbEntity
  8
FRONT_DOOR
  6
HIDDEN
370
     0
100
AcDbCircle
 10
11.1843313953
 20
14.2060581395
 30
0.0
 40
0.0300000000000029
100
AcDbArc
 50
270.0
 51
0.0
  0
LINE
  5
233
330
1F
100
AcDbEntity
  8
FRONT_DOOR
  6
HIDDEN
370
     0
100
AcDbLine
 10
11.1843313808
 20
14.1760581225
 30
0.0
 11
10.7543313882
 21
14.1760581225
 31
0.0
  0
LINE
  5
234
330
1F
100
AcDbEntity
  8
FRONT_DOOR
  6
HIDDEN
370
     0
100
AcDbLine
 10
10.7543313882
 20
14.1760581225
 30
0.0
 11
10.519331423
 21
14.1360581845
 31
0.0
  0
LINE
  5
235
330
1F
100
AcDbEntity
  8
FRONT_DOOR
  6
HIDDEN
370
     0
100
AcDbLine
 10
10.519331423
 20
14.1360581845
 30
0.0
 11
10.4106281854
 21
14.1360581845
 31
0.0
  0
LINE
  5
236
330
1F
100
AcDbEntity
  8
FRONT_DOOR
  6
HIDDEN
370
     0
100
AcDbLine
 10
9.255157313499999
 20
14.7560581756
 30
0.0
 11
9.769331413699999
 21
14.7560581756
 31
0.0
  0
LINE
  5
237
330
1F
100
AcDbEntity
  8
FRONT_DOOR
  6
HIDDEN
370
     0
100
AcDbLine
 10
9.255157313499999
 20
14.7560581756
 30
0.0
 11
9.255157313499999
 21
14.2335581249
 31
0.0
  0
LINE
  5
238
330
1F
100
AcDbEntity
  8
FRONT_DOOR
  6
HIDDEN
370
     0
100
AcDbLine
 10
9.149331386
 20
14.7560581756
 30
0.0
 11
9.149331386
 21
14.2335581249
 31
0.0
  0
LINE
  5
239
330
1F
100
AcDbEntity
  8
FRONT_DOOR
  6
HIDDEN
370
     0
100
AcDbLine
 10
9.149331386
 20
14.7560581756
 30
0.0
 11
9.255157313499999
 21
14.7560581756
 31
0.0
  0
LINE
  5
23A
330
1F
100
AcDbEntity
  8
FRONT_DOOR
  6
HIDDEN
370
     0
100
AcDbLine
 10
9.764179439899999
 20
14.3260581096
 30
0.0
 11
9.764179439899999
 21
14.696058122
 31
0.0
  0
LINE
  5
23B
330
1F
100
AcDbEntity
  8
FRONT_DOOR
  6
HIDDEN
370
     0
100
AcDbLine
 10
10.2713313679
 20
14.696058122
 30
0.0
 11
9.764179439899999
 21
14.696058122
 31
0.0
  0
LINE
  5
23C
330
1F
100
AcDbEntity
  8
FRONT_DOOR
  6
HIDDEN
370
     0
100
AcDbLine
 10
9.764179439899999
 20
14.696058122
 30
0.0
 11
9.312259193799999
 21
14.696058122
 31
0.0
  0
LINE
  5
23D
330
1F
100
AcDbEntity
  8
FRONT_DOOR
  6
HIDDEN
370
     0
100
AcDbLine
 10
9.312259193799999
 20
14.696058122
 30
0.0
 11
9.2673313862
 21
14.696058122
 31
0.0
  0
LINE
  5
23E
330
1F
100
AcDbEntity
  8
FRONT_DOOR
  6
HIDDEN
370
     0
100
AcDbLine
 10
9.312259193799999
 20
14.2783081013
 30
0.0
 11
9.312259193799999
 21
14.696058122
 31
0.0
  0
LINE
  5
23F
330
1F
100
AcDbEntity
  8
FRONT_DOOR
  6
HIDDEN
370
     0
100
AcDbLine
 10
10.2713313679
 20
14.2677381034
 30
0.0
 11
10.2713313679
 21
14.696058122
 31
0.0
  0
LINE
  5
240
330
1F
100
AcDbEntity
  8
FRONT_DOOR
  6
HIDDEN
370
     0
100
AcDbLine
 10
9.2673313862
 20
14.2783081013
 30
0.0
 11
9.2673313862
 21
14.696058122
 31
0.0
  0
LINE
  5
241
330
1F
100
AcDbEntity
  8
BODY
  6
HIDDEN
370
     0
100
AcDbLine
 10
3.3943312249
 20
15.0680581313
 30
0.0
 11
3.334331171399999
 21
15.0680581313
 31
0.0
  0
LINE
  5
242
330
1F
100
AcDbEntity
  8
FRONT_DOOR
  6
HIDDEN
370
     0
100
AcDbLine
 10
3.341402183
 20
14.1560581535
 30
0.0
 11
3.3943312249
 21
14.1560581535
 31
0.0
  0
LINE
  5
243
330
1F
100
AcDbEntity
  8
FRONT_DOOR
  6
HIDDEN
370
     0
100
AcDbLine
 10
3.3943312249
 20
14.1560581535
 30
0.0
 11
3.3943312249
 21
14.6010581595
 31
0.0
  0
LINE
  5
244
330
1F
100
AcDbEntity
  8
FRONT_DOOR
  6
HIDDEN
370
     0
100
AcDbLine
 10
3.3481452518
 20
14.9355717752
 30
0.0
 11
3.355633965299999
 21
14.9060581628
 31
0.0
  0
LWPOLYLINE
  5
245
330
1F
100
AcDbEntity
  8
FRONT_DOOR
  6
HIDDEN
370
     0
100
AcDbPolyline
 90
        3
 70
   128
 43
0.0
 10
3.3481452518
 20
14.9355717752
 10
3.3310364894
 20
14.9735736228
 10
3.3155480817
 20
14.9920322163
  0
LINE
  5
246
330
1F
100
AcDbEntity
  8
PANEL
  6
HIDDEN
370
     0
100
AcDbLine
 10
10.5213313465
 20
19.5420580806
 30
0.0
 11
10.5213313465
 21
19.6140582622
 31
0.0
  0
LINE
  5
247
330
1F
100
AcDbEntity
  8
PANEL
  6
HIDDEN
370
     0
100
AcDbLine
 10
10.5213313465
 20
19.5420580806
 30
0.0
 11
4.2713314404
 21
19.5420580806
 31
0.0
  0
LINE
  5
248
330
1F
100
AcDbEntity
  8
PANEL
  6
HIDDEN
370
     0
100
AcDbLine
 10
4.2713314404
 20
19.5420580806
 30
0.0
 11
4.2713314404
 21
19.6140582622
 31
0.0
  0
LINE
  5
249
330
1F
100
AcDbEntity
  8
PANEL
  6
HIDDEN
370
     0
100
AcDbLine
 10
10.5213313465
 20
19.6140582622
 30
0.0
 11
4.2713314404
 21
19.6140582622
 31
0.0
  0
LINE
  5
24A
330
1F
100
AcDbEntity
  8
BODY
  6
HIDDEN
370
     0
100
AcDbLine
 10
4.583831377
 20
19.9440582634
 30
0.0
 11
4.8963313137
 21
19.9440582634
 31
0.0
  0
LINE
  5
24B
330
1F
100
AcDbEntity
  8
BODY
  6
HIDDEN
370
     0
100
AcDbLine
 10
4.2713314404
 20
19.9440582634
 30
0.0
 11
4.583831377
 21
19.9440582634
 31
0.0
  0
LINE
  5
24C
330
1F
100
AcDbEntity
  8
BODY
  6
HIDDEN
370
     0
100
AcDbLine
 10
4.583831377
 20
19.9140582366
 30
0.0
 11
4.8663312869
 21
19.9140582366
 31
0.0
  0
LINE
  5
24D
330
1F
100
AcDbEntity
  8
BODY
  6
HIDDEN
370
     0
100
AcDbLine
 10
4.3013314672
 20
19.9140582366
 30
0.0
 11
4.583831377
 21
19.9140582366
 31
0.0
  0
LINE
  5
24E
330
1F
100
AcDbEntity
  8
BODY
  6
HIDDEN
370
     0
100
AcDbLine
 10
10.2088314099
 20
19.9440582634
 30
0.0
 11
10.5213313465
 21
19.9440582634
 31
0.0
  0
LINE
  5
24F
330
1F
100
AcDbEntity
  8
BODY
  6
HIDDEN
370
     0
100
AcDbLine
 10
9.896331399899999
 20
19.9440582634
 30
0.0
 11
10.2088314099
 21
19.9440582634
 31
0.0
  0
LINE
  5
250
330
1F
100
AcDbEntity
  8
BODY
  6
HIDDEN
370
     0
100
AcDbLine
 10
10.2088314099
 20
19.9140582366
 30
0.0
 11
10.4913314664
 21
19.9140582366
 31
0.0
  0
LINE
  5
251
330
1F
100
AcDbEntity
  8
BODY
  6
HIDDEN
370
     0
100
AcDbLine
 10
9.926331426699999
 20
19.9140582366
 30
0.0
 11
10.2088314099
 21
19.9140582366
 31
0.0
  0
LINE
  5
252
330
1F
100
AcDbEntity
  8
FRONT_DOOR
  6
HIDDEN
370
     0
100
AcDbLine
 10
10.4243313871
 20
14.0960581
 30
0.0
 11
10.2291836681
 21
14.2860581717
 31
0.0
  0
LINE
  5
253
330
1F
100
AcDbEntity
  8
FRONT_DOOR
  6
HIDDEN
370
     0
100
AcDbLine
 10
9.3094790493
 20
14.2860581717
 30
0.0
 11
9.114331403599999
 21
14.0960581
 31
0.0
  0
LINE
  5
254
330
1F
100
AcDbEntity
  8
FRONT_DOOR
  6
HIDDEN
370
     0
100
AcDbLine
 10
10.4019790586
 20
14.0410581487
 30
0.0
 11
10.2068313397
 21
14.2310580738
 31
0.0
  0
LINE
  5
255
330
1F
100
AcDbEntity
  8
FRONT_DOOR
  6
HIDDEN
370
     0
100
AcDbLine
 10
9.3318313777
 20
14.2310580738
 30
0.0
 11
9.136683732099999
 21
14.0410581487
 31
0.0
  0
LINE
  5
256
330
1F
100
AcDbEntity
  8
BODY
  6
HIDDEN
370
     0
100
AcDbLine
 10
4.036831455999999
 20
20.0490580637
 30
0.0
 11
4.036831455999999
 21
20.104058015
 31
0.0
  0
LINE
  5
257
330
1F
100
AcDbEntity
  8
BODY
  6
HIDDEN
370
     0
100
AcDbLine
 10
3.7558316355
 20
20.104058015
 30
0.0
 11
3.7558316355
 21
20.0490580637
 31
0.0
  0
LINE
  5
258
330
1F
100
AcDbEntity
  8
BODY
  6
HIDDEN
370
     0
100
AcDbLine
 10
11.0368314448
 20
20.0490580637
 30
0.0
 11
11.0368314448
 21
20.104058015
 31
0.0
  0
LINE
  5
259
330
1F
100
AcDbEntity
  8
BODY
  6
HIDDEN
370
     0
100
AcDbLine
 10
10.7558313309
 20
20.104058015
 30
0.0
 11
10.7558313309
 21
20.0490580637
 31
0.0
  0
LINE
  5
25A
330
1F
100
AcDbEntity
  8
BODY
  6
HIDDEN
370
     0
100
AcDbLine
 10
11.2018314453
 20
14.1040580875
 30
0.0
 11
11.2018314453
 21
14.1590581855
 31
0.0
  0
LINE
  5
25B
330
1F
100
AcDbEntity
  8
BODY
  6
HIDDEN
370
     0
100
AcDbLine
 10
11.0288314572
 20
14.1590581855
 30
0.0
 11
11.0288314572
 21
14.1040580875
 31
0.0
  0
LINE
  5
25C
330
1F
100
AcDbEntity
  8
BODY
  6
HIDDEN
370
     0
100
AcDbLine
 10
3.7638313297
 20
14.1040580875
 30
0.0
 11
3.7638313297
 21
14.1590581855
 31
0.0
  0
LINE
  5
25D
330
1F
100
AcDbEntity
  8
BODY
  6
HIDDEN
370
     0
100
AcDbLine
 10
3.5908311949
 20
14.1590581855
 30
0.0
 11
3.5908311949
 21
14.1040580875
 31
0.0
  0
LINE
  5
25E
330
1F
100
AcDbEntity
  8
FRONT_DOOR
  6
HIDDEN
370
     0
100
AcDbLine
 10
9.336831406599999
 20
14.2310580738
 30
0.0
 11
9.336831406599999
 21
14.0910581444
 31
0.0
  0
LINE
  5
25F
330
1F
100
AcDbEntity
  8
FRONT_DOOR
  6
HIDDEN
370
     0
100
AcDbLine
 10
10.2018313841
 20
14.0910581444
 30
0.0
 11
10.2018313841
 21
14.2310580738
 31
0.0
  0
LINE
  5
260
330
1F
100
AcDbEntity
  8
FRONT_DOOR
  6
HIDDEN
370
     0
100
AcDbLine
 10
9.336831406599999
 20
14.0910581444
 30
0.0
 11
9.3768313812
 21
14.0510582065
 31
0.0
  0
LINE
  5
261
330
1F
100
AcDbEntity
  8
FRONT_DOOR
  6
HIDDEN
370
     0
100
AcDbLine
 10
10.1618314462
 20
14.0510582065
 30
0.0
 11
10.2018313841
 21
14.0910581444
 31
0.0
  0
LINE
  5
262
330
1F
100
AcDbEntity
  8
FRONT_DOOR
  6
HIDDEN
370
     0
100
AcDbLine
 10
10.0893314304
 20
14.5710581327
 30
0.0
 11
10.0565741021
 21
14.6610580664
 31
0.0
  0
LINE
  5
263
330
1F
100
AcDbEntity
  8
FRONT_DOOR
  6
HIDDEN
370
     0
100
AcDbLine
 10
9.4820887253
 20
14.6610580664
 30
0.0
 11
9.449331396999999
 21
14.5710581327
 31
0.0
  0
LINE
  5
264
330
1F
100
AcDbEntity
  8
FRONT_DOOR
  6
HIDDEN
370
     0
100
AcDbLine
 10
9.449331396999999
 20
14.5710581327
 30
0.0
 11
9.449331396999999
 21
14.2310580738
 31
0.0
  0
LINE
  5
265
330
1F
100
AcDbEntity
  8
FRONT_DOOR
  6
HIDDEN
370
     0
100
AcDbLine
 10
10.0893314304
 20
14.2310580738
 30
0.0
 11
10.0893314304
 21
14.5710581327
 31
0.0
  0
LINE
  5
266
330
1F
100
AcDbEntity
  8
FRONT_DOOR
  6
HIDDEN
370
     0
100
AcDbLine
 10
9.147723094599999
 20
14.2773519923
 30
0.0
 11
9.0193314044
 21
14.181058078
 31
0.0
  0
LINE
  5
267
330
1F
100
AcDbEntity
  8
FRONT_DOOR
  6
HIDDEN
370
     0
100
AcDbLine
 10
9.0193314044
 20
14.181058078
 30
0.0
 11
9.0193314044
 21
14.1360581845
 31
0.0
  0
LINE
  5
268
330
1F
100
AcDbEntity
  8
FRONT_DOOR
  6
HIDDEN
370
     0
100
AcDbLine
 10
10.3893314047
 20
14.2348081504
 30
0.0
 11
10.2728414304
 21
14.3221755945
 31
0.0
  0
LINE
  5
269
330
1F
100
AcDbEntity
  8
FRONT_DOOR
  6
HIDDEN
370
     0
100
AcDbLine
 10
9.2657547011
 20
14.3221255817
 30
0.0
 11
9.054331386799999
 21
14.1635581602
 31
0.0
  0
LINE
  5
26A
330
1F
100
AcDbEntity
  8
FRONT_DOOR
  6
HIDDEN
370
     0
100
AcDbLine
 10
9.054331386799999
 20
14.1635581602
 30
0.0
 11
9.054331386799999
 21
14.1360581845
 31
0.0
  0
LINE
  5
26B
330
1F
100
AcDbEntity
  8
PANEL
  6
HIDDEN
370
     0
100
AcDbLine
 10
10.0838313472
 20
19.6140582622
 30
0.0
 11
10.0838313472
 21
19.5420580806
 31
0.0
  0
LINE
  5
26C
330
1F
100
AcDbEntity
  8
PANEL
  6
HIDDEN
370
     0
100
AcDbLine
 10
10.3338313259
 20
19.5420580806
 30
0.0
 11
10.3338313259
 21
19.6140582622
 31
0.0
  0
LINE
  5
26D
330
1F
100
AcDbEntity
  8
PANEL
  6
HIDDEN
370
     0
100
AcDbLine
 10
4.458831460999999
 20
19.6140582622
 30
0.0
 11
4.458831460999999
 21
19.5420580806
 31
0.0
  0
LINE
  5
26E
330
1F
100
AcDbEntity
  8
PANEL
  6
HIDDEN
370
     0
100
AcDbLine
 10
4.708831293
 20
19.5420580806
 30
0.0
 11
4.708831293
 21
19.6140582622
 31
0.0
  0
LINE
  5
26F
330
1F
100
AcDbEntity
  8
PANEL
  6
HIDDEN
370
     0
100
AcDbLine
 10
5.724331348499999
 20
19.6140582622
 30
0.0
 11
5.724331348499999
 21
19.5420580806
 31
0.0
  0
LINE
  5
270
330
1F
100
AcDbEntity
  8
PANEL
  6
HIDDEN
370
     0
100
AcDbLine
 10
5.943331485299999
 20
19.5420580806
 30
0.0
 11
5.943331485299999
 21
19.6140582622
 31
0.0
  0
LINE
  5
271
330
1F
100
AcDbEntity
  8
BODY
  6
HIDDEN
370
     0
100
AcDbLine
 10
4.2713314404
 20
20.0490580637
 30
0.0
 11
4.2713314404
 21
19.9440582634
 31
0.0
  0
LINE
  5
272
330
1F
100
AcDbEntity
  8
BODY
  6
HIDDEN
370
     0
100
AcDbLine
 10
4.8963313137
 20
19.9440582634
 30
0.0
 11
4.8963313137
 21
20.0490580637
 31
0.0
  0
LINE
  5
273
330
1F
100
AcDbEntity
  8
BODY
  6
HIDDEN
370
     0
100
AcDbLine
 10
4.2713314404
 20
19.9440582634
 30
0.0
 11
4.3013314672
 21
19.9140582366
 31
0.0
  0
LINE
  5
274
330
1F
100
AcDbEntity
  8
BODY
  6
HIDDEN
370
     0
100
AcDbLine
 10
4.8663312869
 20
19.9140582366
 30
0.0
 11
4.8963313137
 21
19.9440582634
 31
0.0
  0
LINE
  5
275
330
1F
100
AcDbEntity
  8
BODY
  6
HIDDEN
370
     0
100
AcDbLine
 10
4.433831536499999
 20
19.9140582366
 30
0.0
 11
4.433831536499999
 21
19.6140582622
 31
0.0
  0
LINE
  5
276
330
1F
100
AcDbEntity
  8
BODY
  6
HIDDEN
370
     0
100
AcDbLine
 10
4.733831510899999
 20
19.6140582622
 30
0.0
 11
4.733831510899999
 21
19.9140582366
 31
0.0
  0
LINE
  5
277
330
1F
100
AcDbEntity
  8
BODY
  6
HIDDEN
370
     0
100
AcDbLine
 10
4.488831487799999
 20
20.0490580637
 30
0.0
 11
4.488831487799999
 21
19.6140582622
 31
0.0
  0
LINE
  5
278
330
1F
100
AcDbEntity
  8
BODY
  6
HIDDEN
370
     0
100
AcDbLine
 10
4.6788312662
 20
19.6140582622
 30
0.0
 11
4.6788312662
 21
20.0490580637
 31
0.0
  0
LINE
  5
279
330
1F
100
AcDbEntity
  8
BODY
  6
HIDDEN
370
     0
100
AcDbLine
 10
9.896331399899999
 20
20.0490580637
 30
0.0
 11
9.896331399899999
 21
19.9440582634
 31
0.0
  0
LINE
  5
27A
330
1F
100
AcDbEntity
  8
BODY
  6
HIDDEN
370
     0
100
AcDbLine
 10
10.5213313465
 20
19.9440582634
 30
0.0
 11
10.5213313465
 21
20.0490580637
 31
0.0
  0
LINE
  5
27B
330
1F
100
AcDbEntity
  8
BODY
  6
HIDDEN
370
     0
100
AcDbLine
 10
9.896331399899999
 20
19.9440582634
 30
0.0
 11
9.926331426699999
 21
19.9140582366
 31
0.0
  0
LINE
  5
27C
330
1F
100
AcDbEntity
  8
BODY
  6
HIDDEN
370
     0
100
AcDbLine
 10
10.4913314664
 20
19.9140582366
 30
0.0
 11
10.5213313465
 21
19.9440582634
 31
0.0
  0
LINE
  5
27D
330
1F
100
AcDbEntity
  8
BODY
  6
HIDDEN
370
     0
100
AcDbLine
 10
10.0588314227
 20
19.9140582366
 30
0.0
 11
10.0588314227
 21
19.6140582622
 31
0.0
  0
LINE
  5
27E
330
1F
100
AcDbEntity
  8
BODY
  6
HIDDEN
370
     0
100
AcDbLine
 10
10.3588313971
 20
19.6140582622
 30
0.0
 11
10.3588313971
 21
19.9140582366
 31
0.0
  0
LINE
  5
27F
330
1F
100
AcDbEntity
  8
BODY
  6
HIDDEN
370
     0
100
AcDbLine
 10
10.113831374
 20
20.0490580637
 30
0.0
 11
10.113831374
 21
19.6140582622
 31
0.0
  0
LINE
  5
280
330
1F
100
AcDbEntity
  8
BODY
  6
HIDDEN
370
     0
100
AcDbLine
 10
10.3038314458
 20
19.6140582622
 30
0.0
 11
10.3038314458
 21
20.0490580637
 31
0.0
  0
LINE
  5
281
330
1F
100
AcDbEntity
  8
BODY
  6
HIDDEN
370
     0
100
AcDbLine
 10
11.2113313756
 20
14.1090581898
 30
0.0
 11
11.2113313756
 21
14.6010581595
 31
0.0
  0
LINE
  5
282
330
1F
100
AcDbEntity
  8
BODY
  6
HIDDEN
370
     0
100
AcDbLine
 10
3.581331411299999
 20
14.6010581595
 30
0.0
 11
3.581331411299999
 21
14.1090581898
 31
0.0
  0
LINE
  5
283
330
1F
100
AcDbEntity
  8
FRONT_DOOR
  6
HIDDEN
370
     0
100
AcDbLine
 10
3.3943312249
 20
14.1560581535
 30
0.0
 11
11.5172604281
 21
14.1560581535
 31
0.0
  0
LINE
  5
284
330
1F
100
AcDbEntity
  8
FRONT_DOOR
  6
HIDDEN
370
     0
100
AcDbLine
 10
11.5172604281
 20
14.1560581535
 30
0.0
 11
3.3943312249
 21
14.1560581535
 31
0.0
  0
LINE
  5
285
330
1F
100
AcDbEntity
  8
FRONT_DOOR
  6
Continuous
370
    15
100
AcDbLine
 10
13.4430348977
 20
2.5136991649
 30
0.0
 11
13.8880349037
 21
2.5136991649
 31
0.0
  0
LINE
  5
286
330
1F
100
AcDbEntity
  8
FRONT_DOOR
  6
Continuous
370
    15
100
AcDbLine
 10
13.4430348977
 20
2.5136991649
 30
0.0
 11
13.4430348977
 21
12.749556706
 31
0.0
  0
LINE
  5
287
330
1F
100
AcDbEntity
  8
FRONT_DOOR
  6
Continuous
370
    15
100
AcDbLine
 10
13.4430348977
 20
12.749556706
 30
0.0
 11
13.8880349037
 21
12.749556706
 31
0.0
  0
LINE
  5
288
330
1F
100
AcDbEntity
  8
FRONT_DOOR
  6
Continuous
370
    15
100
AcDbLine
 10
13.8880349037
 20
12.749556706
 30
0.0
 11
13.8880349037
 21
2.5136991649
 31
0.0
  0
SPLINE
  5
289
330
1F
100
AcDbEntity
  8
FRONT_DOOR
  6
Continuous
370
    15
100
AcDbSpline
210
0.0
220
0.0
230
1.0
 70
     8
 71
     3
 72
    12
 73
     8
 74
     0
 42
0.0000000001
 43
0.0000000001
 40
0.0
 40
0.0
 40
0.0
 40
0.0
 40
0.2237433741292764
 40
0.44752350968811
 40
0.6713034897572463
 40
0.8950832639802811
 40
1.0
 40
1.0
 40
1.0
 40
1.0
 10
13.32803489283632
 20
12.6966279574797
 30
0.0
 10
13.32941664310786
 20
12.70057685265551
 30
0.0
 10
13.33218037067493
 20
12.70847529181755
 30
0.0
 10
13.35366836183637
 20
12.72032521828346
 30
0.0
 10
13.38505941210711
 20
12.73216864357076
 30
0.0
 10
13.41703211108851
 20
12.74193709776697
 30
0.0
 10
13.43674328292841
 20
12.74771307133581
 30
0.0
 10
13.44303489767978
 20
12.74955670604228
 30
0.0
  0
SPLINE
  5
28A
330
1F
100
AcDbEntity
  8
FRONT_DOOR
  6
Continuous
370
    15
100
AcDbSpline
210
0.0
220
0.0
230
1.0
 70
     8
 71
     3
 72
    12
 73
     8
 74
     0
 42
0.0000000001
 43
0.0000000001
 40
0.0
 40
0.0
 40
0.0
 40
0.0
 40
0.2237439072696679
 40
0.4475239037797364
 40
0.6713042513408686
 40
0.8950825506106154
 40
1.0
 40
1.0
 40
1.0
 40
1.0
 10
13.44303489767978
 20
2.513699164875385
 30
0.0
 10
13.42956078037738
 20
2.517648099986694
 30
0.0
 10
13.40261037243673
 20
2.525546607161039
 30
0.0
 10
13.36708711446619
 20
2.537395919676206
 30
0.0
 10
13.34102952760684
 20
2.549240025217734
 30
0.0
 10
13.32932770539291
 20
2.559008029338106
 30
0.0
 10
13.32834770295507
 20
2.564783976896587
 30
0.0
 10
13.32803489283632
 20
2.56662762010802
 30
0.0
  0
LINE
  5
28B
330
1F
100
AcDbEntity
  8
FRONT_DOOR
  6
Continuous
370
    15
100
AcDbLine
 10
13.3280348928
 20
2.566627620099999
 30
0.0
 11
13.3280348928
 21
12.6966279575
 31
0.0
  0
LINE
  5
28C
330
1F
100
AcDbEntity
  8
FRONT_DOOR
  6
Continuous
370
    15
100
AcDbLine
 10
13.4430348977
 20
12.8116279623
 30
0.0
 11
13.4430348977
 21
12.756628011
 31
0.0
  0
SPLINE
  5
28D
330
1F
100
AcDbEntity
  8
FRONT_DOOR
  6
Continuous
370
    15
100
AcDbSpline
210
0.0
220
0.0
230
1.0
 70
     8
 71
     3
 72
    10
 73
     6
 74
     0
 42
0.0000000001
 43
0.0000000001
 40
0.0
 40
0.0
 40
0.0
 40
0.0
 40
0.4897424117809572
 40
0.9459984698996626
 40
1.0
 40
1.0
 40
1.0
 40
1.0
 10
13.44303489767978
 20
12.75662801102063
 30
0.0
 10
13.43486769054485
 20
12.75551295229234
 30
0.0
 10
13.41909171266925
 20
12.75335907746869
 30
0.0
 10
13.40339651691045
 20
12.74408176109521
 30
0.0
 10
13.39884547271207
 20
12.73675822040509
 30
0.0
 10
13.39836382705713
 20
12.73598315617842
 30
0.0
  0
SPLINE
  5
28E
330
1F
100
AcDbEntity
  8
FRONT_DOOR
  6
Continuous
370
    15
100
AcDbSpline
210
0.0
220
0.0
230
1.0
 70
     8
 71
     3
 72
    12
 73
     8
 74
     0
 42
0.0000000001
 43
0.0000000001
 40
0.0
 40
0.0
 40
0.0
 40
0.0
 40
0.2237445430566091
 40
0.4475237149507856
 40
0.6713035513477774
 40
0.8950836391850375
 40
1.0
 40
1.0
 40
1.0
 40
1.0
 10
13.44303489767978
 20
12.81162796232316
 30
0.0
 10
13.42956080076996
 20
12.8102461567142
 30
0.0
 10
13.40261052157067
 20
12.80748233163487
 30
0.0
 10
13.36708707963212
 20
12.78599448348685
 30
0.0
 10
13.34102940517739
 20
12.75460345607317
 30
0.0
 10
13.32932775742032
 20
12.72263057715273
 30
0.0
 10
13.3283477125783
 20
12.70291951568136
 30
0.0
 10
13.32803489283632
 20
12.6966279574797
 30
0.0
  0
SPLINE
  5
28F
330
1F
100
AcDbEntity
  8
FRONT_DOOR
  6
Continuous
370
    15
100
AcDbSpline
210
0.0
220
0.0
230
1.0
 70
     8
 71
     3
 72
    12
 73
     8
 74
     0
 42
0.0000000001
 43
0.0000000001
 40
0.0
 40
0.0
 40
0.0
 40
0.0
 40
0.2237420245176002
 40
0.447523586040337
 40
0.6713027370688783
 40
0.8950826399175264
 40
1.0
 40
1.0
 40
1.0
 40
1.0
 10
13.32803489283632
 20
2.56662762010802
 30
0.0
 10
13.32941667677229
 20
2.553153673854953
 30
0.0
 10
13.33218048881651
 20
2.526203400394756
 30
0.0
 10
13.35366818799052
 20
2.490680035612825
 30
0.0
 10
13.3850595012784
 20
2.464622625099585
 30
0.0
 10
13.41703220106035
 20
2.452920901269493
 30
0.0
 10
13.43674328725074
 20
2.4519405386446
 30
0.0
 10
13.44303489767978
 20
2.451627615264556
 30
0.0
  0
SPLINE
  5
290
330
1F
100
AcDbEntity
  8
FRONT_DOOR
  6
Continuous
370
    15
100
AcDbSpline
210
0.0
220
0.0
230
1.0
 70
     8
 71
     3
 72
    10
 73
     6
 74
     0
 42
0.0000000001
 43
0.0000000001
 40
0.0
 40
0.0
 40
0.0
 40
0.0
 40
0.0908750511810496
 40
0.5497504881653789
 40
1.0
 40
1.0
 40
1.0
 40
1.0
 10
13.39876407576676
 20
2.527189995694824
 30
0.0
 10
13.39960458871525
 20
2.525913768907999
 30
0.0
 10
13.40468928905643
 20
2.518193208754811
 30
0.0
 10
13.42044563784549
 20
2.509430892516534
 30
0.0
 10
13.43555292453148
 20
2.50755647138614
 30
0.0
 10
13.44303489767978
 20
2.506628153226982
 30
0.0
  0
LINE
  5
291
330
1F
100
AcDbEntity
  8
FRONT_DOOR
  6
Continuous
370
    15
100
AcDbLine
 10
13.4430348977
 20
2.4516276153
 30
0.0
 11
13.4430348977
 21
2.506628153199999
 31
0.0
  0
LINE
  5
292
330
1F
100
AcDbEntity
  8
FRONT_DOOR
  6
Continuous
370
    15
100
AcDbLine
 10
13.4430348977
 20
12.756628011
 30
0.0
 11
13.8880349037
 21
12.756628011
 31
0.0
  0
LINE
  5
293
330
1F
100
AcDbEntity
  8
FRONT_DOOR
  6
Continuous
370
    15
100
AcDbLine
 10
13.8880349037
 20
12.756628011
 30
0.0
 11
13.8880349037
 21
12.8116279623
 31
0.0
  0
LINE
  5
294
330
1F
100
AcDbEntity
  8
FRONT_DOOR
  6
Continuous
370
    15
100
AcDbLine
 10
13.8880349037
 20
12.8116279623
 30
0.0
 11
13.4430348977
 21
12.8116279623
 31
0.0
  0
LINE
  5
295
330
1F
100
AcDbEntity
  8
FRONT_DOOR
  6
Continuous
370
    15
100
AcDbLine
 10
13.4430348977
 20
2.4516276153
 30
0.0
 11
13.8880349037
 21
2.4516276153
 31
0.0
  0
LINE
  5
296
330
1F
100
AcDbEntity
  8
FRONT_DOOR
  6
Continuous
370
    15
100
AcDbLine
 10
13.4430348977
 20
2.506628153199999
 30
0.0
 11
13.8880349037
 21
2.506628153199999
 31
0.0
  0
LINE
  5
297
330
1F
100
AcDbEntity
  8
FRONT_DOOR
  6
Continuous
370
    15
100
AcDbLine
 10
13.8880349037
 20
2.506628153199999
 30
0.0
 11
13.8880349037
 21
2.4516276153
 31
0.0
  0
LINE
  5
298
330
1F
100
AcDbEntity
  8
BODY
  6
Continuous
370
    15
100
AcDbLine
 10
19.2760347544
 20
2.6316277759
 30
0.0
 11
19.2760347544
 21
12.6316278017
 31
0.0
  0
LINE
  5
299
330
1F
100
AcDbEntity
  8
BODY
  6
Continuous
370
    15
100
AcDbLine
 10
19.2760347544
 20
2.6316277759
 30
0.0
 11
13.8880349037
 21
2.6316277759
 31
0.0
  0
LINE
  5
29A
330
1F
100
AcDbEntity
  8
BODY
  6
Continuous
370
    15
100
AcDbLine
 10
13.8880349037
 20
12.6316278017
 30
0.0
 11
19.2760347544
 21
12.6316278017
 31
0.0
  0
LINE
  5
29B
330
1F
100
AcDbEntity
  8
BODY
  6
Continuous
370
    15
100
AcDbLine
 10
19.3910347592
 20
2.6316277759
 30
0.0
 11
19.2760347544
 21
2.6316277759
 31
0.0
  0
LINE
  5
29C
330
1F
100
AcDbEntity
  8
BODY
  6
Continuous
370
    15
100
AcDbLine
 10
19.2760347544
 20
12.6316278017
 30
0.0
 11
19.3910347592
 21
12.6316278017
 31
0.0
  0
LINE
  5
29D
330
1F
100
AcDbEntity
  8
BODY
  6
Continuous
370
    15
100
AcDbLine
 10
19.3910347592
 20
12.6316278017
 30
0.0
 11
19.3910347592
 21
2.6316277759
 31
0.0
  0
LINE
  5
29E
330
1F
100
AcDbEntity
  8
BODY
  6
HIDDEN
370
     0
100
AcDbLine
 10
13.396034934
 20
2.746627780699999
 30
0.0
 11
13.396034934
 21
3.251627840299999
 31
0.0
  0
LINE
  5
29F
330
1F
100
AcDbEntity
  8
BODY
  6
HIDDEN
370
     0
100
AcDbLine
 10
13.396034934
 20
3.251627840299999
 30
0.0
 11
19.273963845
 21
3.251627840299999
 31
0.0
  0
LINE
  5
2A0
330
1F
100
AcDbEntity
  8
BODY
  6
HIDDEN
370
     0
100
AcDbLine
 10
19.273963845
 20
2.746627780699999
 30
0.0
 11
19.273963845
 21
3.251627840299999
 31
0.0
  0
LINE
  5
2A1
330
1F
100
AcDbEntity
  8
BODY
  6
HIDDEN
370
     0
100
AcDbLine
 10
19.273963845
 20
2.746627780699999
 30
0.0
 11
13.396034934
 21
2.746627780699999
 31
0.0
  0
LINE
  5
2A2
330
1F
100
AcDbEntity
  8
BODY
  6
HIDDEN
370
     0
100
AcDbLine
 10
13.396034934
 20
2.6316277759
 30
0.0
 11
13.396034934
 21
2.746627780699999
 31
0.0
  0
SPLINE
  5
2A3
330
1F
100
AcDbEntity
  8
BODY
  6
HIDDEN
370
     0
100
AcDbSpline
210
0.0
220
0.0
230
1.0
 70
     8
 71
     3
 72
    12
 73
     8
 74
     0
 42
0.0000000001
 43
0.0000000001
 40
0.0
 40
0.0
 40
0.0
 40
0.0
 40
0.2237447135623055
 40
0.4475239221096814
 40
0.6713029370141989
 40
0.8950827037383657
 40
1.0
 40
1.0
 40
1.0
 40
1.0
 10
19.27396384495768
 20
2.746627780730805
 30
0.0
 10
19.27001495886722
 20
2.733153596816445
 30
0.0
 10
19.26211657788191
 20
2.706203151656978
 30
0.0
 10
19.25026659581474
 20
2.670680193005855
 30
0.0
 10
19.23842307278379
 20
2.644622763092721
 30
0.0
 10
19.22865485935052
 20
2.63292106422499
 30
0.0
 10
19.22287855128467
 20
2.631940699831806
 30
0.0
 10
19.22103480306515
 20
2.63162777588734
 30
0.0
  0
LINE
  5
2A4
330
1F
100
AcDbEntity
  8
BODY
  6
HIDDEN
370
     0
100
AcDbLine
 10
19.2210348031
 20
2.6866277272
 30
0.0
 11
13.396034934
 21
2.6866277272
 31
0.0
  0
LINE
  5
2A5
330
1F
100
AcDbEntity
  8
BODY
  6
HIDDEN
370
     0
100
AcDbLine
 10
13.396034934
 20
2.746627780699999
 30
0.0
 11
19.273963845
 21
2.746627780699999
 31
0.0
  0
SPLINE
  5
2A6
330
1F
100
AcDbEntity
  8
BODY
  6
HIDDEN
370
     0
100
AcDbSpline
210
0.0
220
0.0
230
1.0
 70
     8
 71
     3
 72
    11
 73
     7
 74
     0
 42
0.0000000001
 43
0.0000000001
 40
0.0
 40
0.0
 40
0.0
 40
0.0
 40
0.2647532993256185
 40
0.5114070363121687
 40
0.758019714041528
 40
1.0
 40
1.0
 40
1.0
 40
1.0
 10
19.27396384495768
 20
2.746627780730805
 30
0.0
 10
19.26928900485988
 20
2.738295952575338
 30
0.0
 10
19.26025891486389
 20
2.722201892350581
 30
0.0
 10
19.24689119898593
 20
2.702455858492994
 30
0.0
 10
19.23391922135983
 20
2.689177514475644
 30
0.0
 10
19.22530237681612
 20
2.687472267086242
 30
0.0
 10
19.22103480306515
 20
2.686627727189878
 30
0.0
  0
SPLINE
  5
2A7
330
1F
100
AcDbEntity
  8
BODY
  6
HIDDEN
370
     0
100
AcDbSpline
210
0.0
220
0.0
230
1.0
 70
     8
 71
     3
 72
    11
 73
     7
 74
     0
 42
0.0000000001
 43
0.0000000001
 40
0.0
 40
0.0
 40
0.0
 40
0.0
 40
0.2647567167941874
 40
0.5114104216627334
 40
0.7580209977736473
 40
1.0
 40
1.0
 40
1.0
 40
1.0
 10
19.22103480306515
 20
2.686627727189878
 30
0.0
 10
19.22936677121368
 20
2.687638411918266
 30
0.0
 10
19.24546100064709
 20
2.689590674770636
 30
0.0
 10
19.26520653929278
 20
2.704033566928989
 30
0.0
 10
19.27848512036732
 20
2.723659726440471
 30
0.0
 10
19.28019033270044
 20
2.739020299368866
 30
0.0
 10
19.28103485660608
 20
2.746627780730805
 30
0.0
  0
LINE
  5
2A8
330
1F
100
AcDbEntity
  8
BODY
  6
HIDDEN
370
     0
100
AcDbLine
 10
19.3360348079
 20
2.746627780699999
 30
0.0
 11
19.2810348566
 21
2.746627780699999
 31
0.0
  0
SPLINE
  5
2A9
330
1F
100
AcDbEntity
  8
BODY
  6
HIDDEN
370
     0
100
AcDbSpline
210
0.0
220
0.0
230
1.0
 70
     8
 71
     3
 72
    12
 73
     8
 74
     0
 42
0.0000000001
 43
0.0000000001
 40
0.0
 40
0.0
 40
0.0
 40
0.0
 40
0.2237450407720798
 40
0.4475244134492047
 40
0.6713053858032828
 40
0.8950823722045956
 40
1.0
 40
1.0
 40
1.0
 40
1.0
 10
19.22103480306515
 20
2.631627775887341
 30
0.0
 10
19.23450895482132
 20
2.633009583863083
 30
0.0
 10
19.26145932583556
 20
2.63577341184206
 30
0.0
 10
19.29698284637343
 20
2.657261223892001
 30
0.0
 10
19.32304024791464
 20
2.688652450368524
 30
0.0
 10
19.33474200171672
 20
2.720625070659288
 30
0.0
 10
19.33572199810825
 20
2.740336116444711
 30
0.0
 10
19.33603480790861
 20
2.746627780730805
 30
0.0
  0
LINE
  5
2AA
330
1F
100
AcDbEntity
  8
BODY
  6
HIDDEN
370
     0
100
AcDbLine
 10
19.2210348031
 20
2.6866277272
 30
0.0
 11
19.2210348031
 21
2.6316277759
 31
0.0
  0
LINE
  5
2AB
330
1F
100
AcDbEntity
  8
BODY
  6
HIDDEN
370
     0
100
AcDbLine
 10
19.2810348566
 20
2.746627780699999
 30
0.0
 11
19.2810348566
 21
3.251627840299999
 31
0.0
  0
LINE
  5
2AC
330
1F
100
AcDbEntity
  8
BODY
  6
HIDDEN
370
     0
100
AcDbLine
 10
19.2810348566
 20
3.251627840299999
 30
0.0
 11
19.3360348079
 21
3.251627840299999
 31
0.0
  0
LINE
  5
2AD
330
1F
100
AcDbEntity
  8
BODY
  6
HIDDEN
370
     0
100
AcDbLine
 10
13.4510348853
 20
2.746627780699999
 30
0.0
 11
13.396034934
 21
2.746627780699999
 31
0.0
  0
ARC
  5
2AE
330
1F
100
AcDbEntity
  8
BODY
  6
HIDDEN
370
     0
100
AcDbCircle
 10
13.5110348837
 20
2.746627906999999
 30
0.0
 40
0.0600000000000005
100
AcDbArc
 50
180.0
 51
270.0
  0
ARC
  5
2AF
330
1F
100
AcDbEntity
  8
BODY
  6
HIDDEN
370
     0
100
AcDbCircle
 10
13.5110348837
 20
2.746627906999999
 30
0.0
 40
0.1150000000000007
100
AcDbArc
 50
180.0
 51
211.4489813894
  0
ARC
  5
2B0
330
1F
100
AcDbEntity
  8
BODY
  6
HIDDEN
370
     0
100
AcDbCircle
 10
13.5110348837
 20
2.746627906999999
 30
0.0
 40
0.1150000000000007
100
AcDbArc
 50
211.4489813894
 51
270.0
  0
LINE
  5
2B1
330
1F
100
AcDbEntity
  8
BODY
  6
HIDDEN
370
     0
100
AcDbLine
 10
13.396034934
 20
3.161628053299999
 30
0.0
 11
13.4510348853
 21
3.161628053299999
 31
0.0
  0
LINE
  5
2B2
330
1F
100
AcDbEntity
  8
BODY
  6
HIDDEN
370
     0
100
AcDbLine
 10
13.4510348853
 20
3.161628053299999
 30
0.0
 11
13.4510348853
 21
2.746627780699999
 31
0.0
  0
LINE
  5
2B3
330
1F
100
AcDbEntity
  8
BODY
  6
HIDDEN
370
     0
100
AcDbLine
 10
13.4510348853
 20
2.746627780699999
 30
0.0
 11
13.396034934
 21
2.746627780699999
 31
0.0
  0
LINE
  5
2B4
330
1F
100
AcDbEntity
  8
BODY
  6
HIDDEN
370
     0
100
AcDbLine
 10
19.273963845
 20
2.746627780699999
 30
0.0
 11
13.396034934
 21
2.746627780699999
 31
0.0
  0
LINE
  5
2B5
330
1F
100
AcDbEntity
  8
BODY
  6
HIDDEN
370
     0
100
AcDbLine
 10
19.273963845
 20
2.746627780699999
 30
0.0
 11
13.396034934
 21
2.746627780699999
 31
0.0
  0
LINE
  5
2B6
330
1F
100
AcDbEntity
  8
BODY
  6
HIDDEN
370
     0
100
AcDbLine
 10
13.396034934
 20
12.0116280307
 30
0.0
 11
13.396034934
 21
12.5166277969
 31
0.0
  0
LINE
  5
2B7
330
1F
100
AcDbEntity
  8
BODY
  6
HIDDEN
370
     0
100
AcDbLine
 10
19.273963845
 20
12.5166277969
 30
0.0
 11
13.396034934
 21
12.5166277969
 31
0.0
  0
LINE
  5
2B8
330
1F
100
AcDbEntity
  8
BODY
  6
HIDDEN
370
     0
100
AcDbLine
 10
19.273963845
 20
12.0116280307
 30
0.0
 11
19.273963845
 21
12.5166277969
 31
0.0
  0
LINE
  5
2B9
330
1F
100
AcDbEntity
  8
BODY
  6
HIDDEN
370
     0
100
AcDbLine
 10
19.273963845
 20
12.0116280307
 30
0.0
 11
13.396034934
 21
12.0116280307
 31
0.0
  0
SPLINE
  5
2BA
330
1F
100
AcDbEntity
  8
BODY
  6
HIDDEN
370
     0
100
AcDbSpline
210
0.0
220
0.0
230
1.0
 70
     8
 71
     3
 72
    12
 73
     8
 74
     0
 42
0.0000000001
 43
0.0000000001
 40
0.0
 40
0.0
 40
0.0
 40
0.0
 40
0.2237442030596059
 40
0.4475240531563725
 40
0.6713033332855806
 40
0.8950821787193245
 40
1.0
 40
1.0
 40
1.0
 40
1.0
 10
19.22103480306515
 20
12.63162780170038
 30
0.0
 10
19.22498385163127
 20
12.63024613834046
 30
0.0
 10
19.23288257792789
 20
12.62748259149333
 30
0.0
 10
19.24473191671342
 20
12.60599430435528
 30
0.0
 10
19.25657556231497
 20
12.57460328880181
 30
0.0
 10
19.26634383488668
 20
12.54263058149297
 30
0.0
 10
19.27212009924133
 20
12.52291945819844
 30
0.0
 10
19.27396384495768
 20
12.51662779685691
 30
0.0
  0
LINE
  5
2BB
330
1F
100
AcDbEntity
  8
BODY
  6
HIDDEN
370
     0
100
AcDbLine
 10
13.396034934
 20
12.5166277969
 30
0.0
 11
13.396034934
 21
12.6316278017
 31
0.0
  0
LINE
  5
2BC
330
1F
100
AcDbEntity
  8
BODY
  6
HIDDEN
370
     0
100
AcDbLine
 10
13.396034934
 20
12.5766278504
 30
0.0
 11
19.2210348031
 21
12.5766278504
 31
0.0
  0
LINE
  5
2BD
330
1F
100
AcDbEntity
  8
BODY
  6
HIDDEN
370
     0
100
AcDbLine
 10
19.273963845
 20
12.5166277969
 30
0.0
 11
13.396034934
 21
12.5166277969
 31
0.0
  0
SPLINE
  5
2BE
330
1F
100
AcDbEntity
  8
BODY
  6
HIDDEN
370
     0
100
AcDbSpline
210
0.0
220
0.0
230
1.0
 70
     8
 71
     3
 72
    11
 73
     7
 74
     0
 42
0.0000000001
 43
0.0000000001
 40
0.0
 40
0.0
 40
0.0
 40
0.0
 40
0.2647553693434955
 40
0.5114066137056679
 40
0.758019003110416
 40
1.0
 40
1.0
 40
1.0
 40
1.0
 10
19.22103480306515
 20
12.57662785039784
 30
0.0
 10
19.22570957079832
 20
12.57561726234123
 30
0.0
 10
19.23473944294865
 20
12.57366519082265
 30
0.0
 10
19.24810803534882
 20
12.55922258549223
 30
0.0
 10
19.26107932378351
 20
12.53959611164758
 30
0.0
 10
19.26969623121439
 20
12.52423536678798
 30
0.0
 10
19.27396384495768
 20
12.51662779685691
 30
0.0
  0
LINE
  5
2BF
330
1F
100
AcDbEntity
  8
BODY
  6
HIDDEN
370
     0
100
AcDbLine
 10
19.3360348079
 20
12.5166277969
 30
0.0
 11
19.2810348566
 21
12.5166277969
 31
0.0
  0
SPLINE
  5
2C0
330
1F
100
AcDbEntity
  8
BODY
  6
HIDDEN
370
     0
100
AcDbSpline
210
0.0
220
0.0
230
1.0
 70
     8
 71
     3
 72
    11
 73
     7
 74
     0
 42
0.0000000001
 43
0.0000000001
 40
0.0
 40
0.0
 40
0.0
 40
0.0
 40
0.26475467747374
 40
0.5114062049675383
 40
0.7580192460658378
 40
1.0
 40
1.0
 40
1.0
 40
1.0
 10
19.28103485660608
 20
12.51662779685691
 30
0.0
 10
19.28002426436383
 20
12.52495976817409
 30
0.0
 10
19.27807218121913
 20
12.54105399499522
 30
0.0
 10
19.26362957002831
 20
12.56079959883437
 30
0.0
 10
19.24400316610484
 20
12.57407854600843
 30
0.0
 10
19.22864237961273
 20
12.57578347031503
 30
0.0
 10
19.22103480306515
 20
12.57662785039784
 30
0.0
  0
SPLINE
  5
2C1
330
1F
100
AcDbEntity
  8
BODY
  6
HIDDEN
370
     0
100
AcDbSpline
210
0.0
220
0.0
230
1.0
 70
     8
 71
     3
 72
    12
 73
     8
 74
     0
 42
0.0000000001
 43
0.0000000001
 40
0.0
 40
0.0
 40
0.0
 40
0.0
 40
0.223744388999365
 40
0.4475245702635577
 40
0.6713039971310582
 40
0.8950822307639764
 40
1.0
 40
1.0
 40
1.0
 40
1.0
 10
19.33603480790861
 20
12.51662779685691
 30
0.0
 10
19.33465314366387
 20
12.5301019766031
 30
0.0
 10
19.33188959415033
 20
12.55705249155247
 30
0.0
 10
19.31040131126847
 20
12.59257560615047
 30
0.0
 10
19.27901037740738
 20
12.61863343569889
 30
0.0
 10
19.24703754481216
 20
12.63033497138835
 30
0.0
 10
19.22732646129564
 20
12.631314986746
 30
0.0
 10
19.22103480306515
 20
12.63162780170038
 30
0.0
  0
LINE
  5
2C2
330
1F
100
AcDbEntity
  8
BODY
  6
HIDDEN
370
     0
100
AcDbLine
 10
19.2210348031
 20
12.5766278504
 30
0.0
 11
19.2210348031
 21
12.6316278017
 31
0.0
  0
LINE
  5
2C3
330
1F
100
AcDbEntity
  8
BODY
  6
HIDDEN
370
     0
100
AcDbLine
 10
19.2810348566
 20
12.5166277969
 30
0.0
 11
19.2810348566
 21
12.0116280307
 31
0.0
  0
LINE
  5
2C4
330
1F
100
AcDbEntity
  8
BODY
  6
HIDDEN
370
     0
100
AcDbLine
 10
19.2810348566
 20
12.0116280307
 30
0.0
 11
19.3360348079
 21
12.0116280307
 31
0.0
  0
ARC
  5
2C5
330
1F
100
AcDbEntity
  8
BODY
  6
HIDDEN
370
     0
100
AcDbCircle
 10
13.5110348837
 20
12.516627907
 30
0.0
 40
0.1149999999999984
100
AcDbArc
 50
90.0
 51
148.5510186106
  0
LINE
  5
2C6
330
1F
100
AcDbEntity
  8
BODY
  6
HIDDEN
370
     0
100
AcDbLine
 10
13.4510348853
 20
12.5166277969
 30
0.0
 11
13.396034934
 21
12.5166277969
 31
0.0
  0
ARC
  5
2C7
330
1F
100
AcDbEntity
  8
BODY
  6
HIDDEN
370
     0
100
AcDbCircle
 10
13.5110348837
 20
12.516627907
 30
0.0
 40
0.1150000000000002
100
AcDbArc
 50
148.5510186106
 51
180.0
  0
ARC
  5
2C8
330
1F
100
AcDbEntity
  8
BODY
  6
HIDDEN
370
     0
100
AcDbCircle
 10
13.5110348837
 20
12.516627907
 30
0.0
 40
0.0599999999999987
100
AcDbArc
 50
90.0
 51
180.0
  0
LINE
  5
2C9
330
1F
100
AcDbEntity
  8
BODY
  6
HIDDEN
370
     0
100
AcDbLine
 10
13.4510348853
 20
12.5166277969
 30
0.0
 11
13.4510348853
 21
12.1016278176
 31
0.0
  0
LINE
  5
2CA
330
1F
100
AcDbEntity
  8
BODY
  6
HIDDEN
370
     0
100
AcDbLine
 10
13.396034934
 20
12.1016278176
 30
0.0
 11
13.4510348853
 21
12.1016278176
 31
0.0
  0
LINE
  5
2CB
330
1F
100
AcDbEntity
  8
BODY
  6
HIDDEN
370
     0
100
AcDbLine
 10
13.4510348853
 20
12.5166277969
 30
0.0
 11
13.396034934
 21
12.5166277969
 31
0.0
  0
LINE
  5
2CC
330
1F
100
AcDbEntity
  8
BODY
  6
HIDDEN
370
     0
100
AcDbLine
 10
19.273963845
 20
12.5166277969
 30
0.0
 11
13.396034934
 21
12.5166277969
 31
0.0
  0
LINE
  5
2CD
330
1F
100
AcDbEntity
  8
BODY
  6
HIDDEN
370
     0
100
AcDbLine
 10
13.396034934
 20
12.5166277969
 30
0.0
 11
19.273963845
 21
12.5166277969
 31
0.0
  0
LINE
  5
2CE
330
1F
100
AcDbEntity
  8
FRONT_DOOR
  6
HIDDEN
370
     0
100
AcDbLine
 10
13.3830348441
 20
2.566627620099999
 30
0.0
 11
13.3830348441
 21
12.6966279575
 31
0.0
  0
LINE
  5
2CF
330
1F
100
AcDbEntity
  8
FRONT_DOOR
  6
HIDDEN
370
     0
100
AcDbLine
 10
13.4430348977
 20
12.749556706
 30
0.0
 11
13.4430348977
 21
2.5136991649
 31
0.0
  0
SPLINE
  5
2D0
330
1F
100
AcDbEntity
  8
FRONT_DOOR
  6
HIDDEN
370
     0
100
AcDbSpline
210
0.0
220
0.0
230
1.0
 70
     8
 71
     3
 72
    11
 73
     7
 74
     0
 42
0.0000000001
 43
0.0000000001
 40
0.0
 40
0.0
 40
0.0
 40
0.0
 40
0.264754994620758
 40
0.5114085004235355
 40
0.758021791428067
 40
1.0
 40
1.0
 40
1.0
 40
1.0
 10
13.44303489767978
 20
2.513699164875385
 30
0.0
 10
13.43470289383147
 20
2.518373824026181
 30
0.0
 10
13.41860855121222
 20
2.527403532529786
 30
0.0
 10
13.39886336484184
 20
2.540772061345681
 30
0.0
 10
13.38558436308455
 20
2.553743357292983
 30
0.0
 10
13.38387929199964
 20
2.562360113804408
 30
0.0
 10
13.38303484413885
 20
2.56662762010802
 30
0.0
  0
SPLINE
  5
2D1
330
1F
100
AcDbEntity
  8
FRONT_DOOR
  6
HIDDEN
370
     0
100
AcDbSpline
210
0.0
220
0.0
230
1.0
 70
     8
 71
     3
 72
    11
 73
     7
 74
     0
 42
0.0000000001
 43
0.0000000001
 40
0.0
 40
0.0
 40
0.0
 40
0.0
 40
0.2647562375042941
 40
0.5114076937182484
 40
0.7580207166977236
 40
1.0
 40
1.0
 40
1.0
 40
1.0
 10
13.38303484413885
 20
12.6966279574797
 30
0.0
 10
13.38404548957824
 20
12.70130276914023
 30
0.0
 10
13.3859976696598
 20
12.71033271560123
 30
0.0
 10
13.40044027015883
 20
12.72370069136534
 30
0.0
 10
13.42006664622658
 20
12.73667260407715
 30
0.0
 10
13.43542737351022
 20
12.74528924505151
 30
0.0
 10
13.44303489767978
 20
12.74955670604228
 30
0.0
  0
SPLINE
  5
2D2
330
1F
100
AcDbEntity
  8
FRONT_DOOR
  6
HIDDEN
370
     0
100
AcDbSpline
210
0.0
220
0.0
230
1.0
 70
     8
 71
     3
 72
     9
 73
     5
 74
     0
 42
0.0000000001
 43
0.0000000001
 40
0.0
 40
0.0
 40
0.0
 40
0.0
 40
0.4732698177652771
 40
1.0
 40
1.0
 40
1.0
 40
1.0
 10
13.39836382705713
 20
12.73598315617842
 30
0.0
 10
13.39411241875793
 20
12.73051092987576
 30
0.0
 10
13.38512936482206
 20
12.71894833683211
 30
0.0
 10
13.3837574651193
 20
12.70432860925212
 30
0.0
 10
13.38303484413885
 20
12.6966279574797
 30
0.0
  0
LINE
  5
2D3
330
1F
100
AcDbEntity
  8
FRONT_DOOR
  6
HIDDEN
370
     0
100
AcDbLine
 10
13.3830348441
 20
12.6966279575
 30
0.0
 11
13.3280348928
 21
12.6966279575
 31
0.0
  0
SPLINE
  5
2D4
330
1F
100
AcDbEntity
  8
FRONT_DOOR
  6
HIDDEN
370
     0
100
AcDbSpline
210
0.0
220
0.0
230
1.0
 70
     8
 71
     3
 72
     9
 73
     5
 74
     0
 42
0.0000000001
 43
0.0000000001
 40
0.0
 40
0.0
 40
0.0
 40
0.0
 40
0.5723616754034869
 40
1.0
 40
1.0
 40
1.0
 40
1.0
 10
13.38303484413885
 20
2.56662762010802
 30
0.0
 10
13.38387549239232
 20
2.558168702416603
 30
0.0
 10
13.38534422848977
 20
2.543389729513753
 30
0.0
 10
13.39474426142933
 20
2.532042504141732
 30
0.0
 10
13.39876407576676
 20
2.527189995694824
 30
0.0
  0
LINE
  5
2D5
330
1F
100
AcDbEntity
  8
FRONT_DOOR
  6
HIDDEN
370
     0
100
AcDbLine
 10
13.3830348441
 20
2.566627620099999
 30
0.0
 11
13.3280348928
 21
2.566627620099999
 31
0.0
  0
LINE
  5
2D6
330
1F
100
AcDbEntity
  8
FRONT_DOOR
  6
HIDDEN
370
     0
100
AcDbLine
 10
13.5730349159
 20
7.631627898799999
 30
0.0
 11
13.5730349159
 21
8.091480249499999
 31
0.0
  0
LINE
  5
2D7
330
1F
100
AcDbEntity
  8
FRONT_DOOR
  6
HIDDEN
370
     0
100
AcDbLine
 10
13.5730349159
 20
7.1717755344
 30
0.0
 11
13.5730349159
 21
7.631627898799999
 31
0.0
  0
LINE
  5
2D8
330
1F
100
AcDbEntity
  8
FRONT_DOOR
  6
HIDDEN
370
     0
100
AcDbLine
 10
13.5180348179
 20
7.703101663099999
 30
0.0
 11
13.5180348179
 21
8.0691279073
 31
0.0
  0
LINE
  5
2D9
330
1F
100
AcDbEntity
  8
FRONT_DOOR
  6
HIDDEN
370
     0
100
AcDbLine
 10
13.5180348179
 20
7.1941279362
 30
0.0
 11
13.5180348179
 21
7.631627898799999
 31
0.0
  0
LINE
  5
2DA
330
1F
100
AcDbEntity
  8
FRONT_DOOR
  6
HIDDEN
370
     0
100
AcDbLine
 10
13.5180348179
 20
7.4347142236
 30
0.0
 11
13.5730349159
 21
7.4347142236
 31
0.0
  0
LINE
  5
2DB
330
1F
100
AcDbEntity
  8
FRONT_DOOR
  6
HIDDEN
370
     0
100
AcDbLine
 10
13.5180348179
 20
7.828541592399999
 30
0.0
 11
13.5730349159
 21
7.828541592399999
 31
0.0
  0
LINE
  5
2DC
330
1F
100
AcDbEntity
  8
BODY
  6
HIDDEN
370
     0
100
AcDbLine
 10
13.8880349037
 20
2.6316277759
 30
0.0
 11
13.5060348366
 21
2.6316277759
 31
0.0
  0
LINE
  5
2DD
330
1F
100
AcDbEntity
  8
BODY
  6
HIDDEN
370
     0
100
AcDbLine
 10
13.5060348366
 20
12.6316278017
 30
0.0
 11
13.5060348366
 21
2.6316277759
 31
0.0
  0
LINE
  5
2DE
330
1F
100
AcDbEntity
  8
BODY
  6
HIDDEN
370
     0
100
AcDbLine
 10
13.5060348366
 20
12.6316278017
 30
0.0
 11
13.8880349037
 21
12.6316278017
 31
0.0
  0
LINE
  5
2DF
330
1F
100
AcDbEntity
  8
BODY
  6
HIDDEN
370
     0
100
AcDbLine
 10
13.5060348366
 20
2.6316277759
 30
0.0
 11
13.3910348317
 21
2.6316277759
 31
0.0
  0
LINE
  5
2E0
330
1F
100
AcDbEntity
  8
BODY
  6
HIDDEN
370
     0
100
AcDbLine
 10
13.3910348317
 20
2.6316277759
 30
0.0
 11
13.3910348317
 21
12.6316278017
 31
0.0
  0
LINE
  5
2E1
330
1F
100
AcDbEntity
  8
BODY
  6
HIDDEN
370
     0
100
AcDbLine
 10
13.3910348317
 20
12.6316278017
 30
0.0
 11
13.5060348366
 21
12.6316278017
 31
0.0
  0
LINE
  5
2E2
330
1F
100
AcDbEntity
  8
BODY
  6
HIDDEN
370
     0
100
AcDbLine
 10
13.4460349297
 20
2.6316277759
 30
0.0
 11
13.4460349297
 21
12.6316278017
 31
0.0
  0
LINE
  5
2E3
330
1F
100
AcDbEntity
  8
BODY
  6
HIDDEN
370
     0
100
AcDbLine
 10
13.5060348366
 20
12.6316278017
 30
0.0
 11
13.5060348366
 21
2.6316277759
 31
0.0
  0
LINE
  5
2E4
330
1F
100
AcDbEntity
  8
BODY
  6
HIDDEN
370
     0
100
AcDbLine
 10
19.3360348079
 20
12.6316278017
 30
0.0
 11
19.3360348079
 21
2.6316277759
 31
0.0
  0
LINE
  5
2E5
330
1F
100
AcDbEntity
  8
BODY
  6
HIDDEN
370
     0
100
AcDbLine
 10
19.2760347544
 20
2.6316277759
 30
0.0
 11
19.2760347544
 21
12.6316278017
 31
0.0
  0
LINE
  5
2E6
330
1F
100
AcDbEntity
  8
BODY
  6
HIDDEN
370
     0
100
AcDbLine
 10
19.2760347544
 20
2.6316277759
 30
0.0
 11
19.2760347544
 21
12.6316278017
 31
0.0
  0
LINE
  5
2E7
330
1F
100
AcDbEntity
  8
BODY
  6
HIDDEN
370
     0
100
AcDbLine
 10
19.2760347544
 20
12.6316278017
 30
0.0
 11
19.2760347544
 21
2.6316277759
 31
0.0
  0
LINE
  5
2E8
330
1F
100
AcDbEntity
  8
BODY
  6
HIDDEN
370
     0
100
AcDbLine
 10
13.5060348366
 20
2.6316277759
 30
0.0
 11
13.5060348366
 21
12.6316278017
 31
0.0
  0
LINE
  5
2E9
330
1F
100
AcDbEntity
  8
BODY
  6
HIDDEN
370
     0
100
AcDbLine
 10
13.5060348366
 20
2.6316277759
 30
0.0
 11
13.5060348366
 21
12.6316278017
 31
0.0
  0
LINE
  5
2EA
330
1F
100
AcDbEntity
  8
FRONT_DOOR
  6
HIDDEN
370
     0
100
AcDbLine
 10
13.3780348886
 20
8.064127906999999
 30
0.0
 11
13.3780348886
 21
7.199127891699999
 31
0.0
  0
LINE
  5
2EB
330
1F
100
AcDbEntity
  8
FRONT_DOOR
  6
HIDDEN
370
     0
100
AcDbLine
 10
13.3380349506
 20
8.0241279083
 30
0.0
 11
13.3380349506
 21
7.239127902999999
 31
0.0
  0
LINE
  5
2EC
330
1F
100
AcDbEntity
  8
FRONT_DOOR
  6
HIDDEN
370
     0
100
AcDbLine
 10
13.4480348533
 20
7.676627902299999
 30
0.0
 11
13.3380349506
 21
7.676627902299999
 31
0.0
  0
LINE
  5
2ED
330
1F
100
AcDbEntity
  8
FRONT_DOOR
  6
HIDDEN
370
     0
100
AcDbLine
 10
13.4480348533
 20
7.586627895299999
 30
0.0
 11
13.4480348533
 21
7.676627902299999
 31
0.0
  0
LINE
  5
2EE
330
1F
100
AcDbEntity
  8
FRONT_DOOR
  6
HIDDEN
370
     0
100
AcDbLine
 10
13.4480348533
 20
7.586627895299999
 30
0.0
 11
13.3380349506
 21
7.586627895299999
 31
0.0
  0
LINE
  5
2EF
330
1F
100
AcDbEntity
  8
FRONT_DOOR
  6
HIDDEN
370
     0
100
AcDbLine
 10
13.8580348769
 20
7.951627906299999
 30
0.0
 11
13.8580348769
 21
7.3116279188
 31
0.0
  0
LINE
  5
2F0
330
1F
100
AcDbEntity
  8
FRONT_DOOR
  6
HIDDEN
370
     0
100
AcDbLine
 10
13.9480348105
 20
7.9188705872
 30
0.0
 11
13.9480348105
 21
7.344385247
 31
0.0
  0
LINE
  5
2F1
330
1F
100
AcDbEntity
  8
FRONT_DOOR
  6
HIDDEN
370
     0
100
AcDbLine
 10
14.0430349198
 20
7.2408708695
 30
0.0
 11
14.0430349198
 21
7.1866279295
 31
0.0
  0
LINE
  5
2F2
330
1F
100
AcDbEntity
  8
FRONT_DOOR
  6
HIDDEN
370
     0
100
AcDbLine
 10
14.0430349198
 20
7.1866279295
 30
0.0
 11
13.6480348362
 21
7.1866279295
 31
0.0
  0
SPLINE
  5
2F3
330
1F
100
AcDbEntity
  8
FRONT_DOOR
  6
HIDDEN
370
     0
100
AcDbSpline
210
0.0
220
0.0
230
1.0
 70
     8
 71
     3
 72
    10
 73
     6
 74
     0
 42
0.0000000001
 43
0.0000000001
 40
0.0
 40
0.0
 40
0.0
 40
0.0
 40
0.1665312829213377
 40
0.5820636074857588
 40
1.0
 40
1.0
 40
1.0
 40
1.0
 10
13.46803482221186
 20
7.242734101326923
 30
0.0
 10
13.47932416493141
 20
7.241087535581374
 30
0.0
 10
13.51878291066506
 20
7.235332424703682
 30
0.0
 10
13.58390505565952
 20
7.225285369228375
 30
0.0
 10
13.62661717620194
 20
7.216426620427753
 30
0.0
 10
13.64803483616967
 20
7.211984469882621
 30
0.0
  0
LINE
  5
2F4
330
1F
100
AcDbEntity
  8
FRONT_DOOR
  6
HIDDEN
370
     0
100
AcDbLine
 10
13.4230349287
 20
7.242734101299999
 30
0.0
 11
13.4680348222
 21
7.242734101299999
 31
0.0
  0
LINE
  5
2F5
330
1F
100
AcDbEntity
  8
FRONT_DOOR
  6
HIDDEN
370
     0
100
AcDbLine
 10
13.4230349287
 20
7.252244371499999
 30
0.0
 11
13.4230349287
 21
7.242734101299999
 31
0.0
  0
LINE
  5
2F6
330
1F
100
AcDbEntity
  8
FRONT_DOOR
  6
HIDDEN
370
     0
100
AcDbLine
 10
13.4630348666
 20
7.272804233999999
 30
0.0
 11
13.4230349287
 21
7.252244371499999
 31
0.0
  0
LINE
  5
2F7
330
1F
100
AcDbEntity
  8
FRONT_DOOR
  6
HIDDEN
370
     0
100
AcDbLine
 10
13.4630348666
 20
7.310424386
 30
0.0
 11
13.4630348666
 21
7.272804233999999
 31
0.0
  0
ELLIPSE
  5
2F8
330
1F
100
AcDbEntity
  8
FRONT_DOOR
  6
HIDDEN
370
     0
100
AcDbEllipse
 10
13.4930348837
 20
7.3104243659
 30
0.0
 11
0.0300000000000029
 21
0.0
 31
0.0
210
0.0
220
0.0
230
1.0
 40
0.0874886635
 41
1.570796326794897
 42
3.141592653589792
  0
LINE
  5
2F9
330
1F
100
AcDbEntity
  8
FRONT_DOOR
  6
HIDDEN
370
     0
100
AcDbLine
 10
13.5830348271
 20
7.313049029
 30
0.0
 11
13.4930348934
 21
7.313049029
 31
0.0
  0
LINE
  5
2FA
330
1F
100
AcDbEntity
  8
FRONT_DOOR
  6
HIDDEN
370
     0
100
AcDbLine
 10
13.9630348973
 20
7.2408708695
 30
0.0
 11
13.5830348271
 21
7.313049029
 31
0.0
  0
LINE
  5
2FB
330
1F
100
AcDbEntity
  8
FRONT_DOOR
  6
HIDDEN
370
     0
100
AcDbLine
 10
14.0430349198
 20
7.2408708695
 30
0.0
 11
13.9630348973
 21
7.2408708695
 31
0.0
  0
LINE
  5
2FC
330
1F
100
AcDbEntity
  8
FRONT_DOOR
  6
HIDDEN
370
     0
100
AcDbLine
 10
14.0430349198
 20
8.0766279071
 30
0.0
 11
13.6480348362
 21
8.0766279071
 31
0.0
  0
LINE
  5
2FD
330
1F
100
AcDbEntity
  8
FRONT_DOOR
  6
HIDDEN
370
     0
100
AcDbLine
 10
14.0430349198
 20
8.0766279071
 30
0.0
 11
14.0430349198
 21
8.0223849372
 31
0.0
  0
LINE
  5
2FE
330
1F
100
AcDbEntity
  8
FRONT_DOOR
  6
HIDDEN
370
     0
100
AcDbLine
 10
14.0430349198
 20
8.0223849372
 30
0.0
 11
13.9630348973
 21
8.0223849372
 31
0.0
  0
LINE
  5
2FF
330
1F
100
AcDbEntity
  8
FRONT_DOOR
  6
HIDDEN
370
     0
100
AcDbLine
 10
13.9630348973
 20
8.0223849372
 30
0.0
 11
13.5830348271
 21
7.9502067869
 31
0.0
  0
LINE
  5
300
330
1F
100
AcDbEntity
  8
FRONT_DOOR
  6
HIDDEN
370
     0
100
AcDbLine
 10
13.5830348271
 20
7.9502067869
 30
0.0
 11
13.4930348934
 21
7.9502067869
 31
0.0
  0
ELLIPSE
  5
301
330
1F
100
AcDbEntity
  8
FRONT_DOOR
  6
HIDDEN
370
     0
100
AcDbEllipse
 10
13.4930348837
 20
7.952831448099999
 30
0.0
 11
0.0300000000000029
 21
0.0
 31
0.0
210
0.0
220
0.0
230
1.0
 40
0.0874886635
 41
3.141592653589792
 42
4.712388980384691
  0
LINE
  5
302
330
1F
100
AcDbEntity
  8
FRONT_DOOR
  6
HIDDEN
370
     0
100
AcDbLine
 10
13.4630348666
 20
7.9528314482
 30
0.0
 11
13.4630348666
 21
7.990451572799999
 31
0.0
  0
LINE
  5
303
330
1F
100
AcDbEntity
  8
FRONT_DOOR
  6
HIDDEN
370
     0
100
AcDbLine
 10
13.4630348666
 20
7.990451572799999
 30
0.0
 11
13.4230349287
 21
8.011011407799999
 31
0.0
  0
LINE
  5
304
330
1F
100
AcDbEntity
  8
FRONT_DOOR
  6
HIDDEN
370
     0
100
AcDbLine
 10
13.4230349287
 20
8.011011407799999
 30
0.0
 11
13.4230349287
 21
8.0205217054
 31
0.0
  0
LINE
  5
305
330
1F
100
AcDbEntity
  8
FRONT_DOOR
  6
HIDDEN
370
     0
100
AcDbLine
 10
13.4680348222
 20
8.0205217054
 30
0.0
 11
13.4230349287
 21
8.0205217054
 31
0.0
  0
SPLINE
  5
306
330
1F
100
AcDbEntity
  8
FRONT_DOOR
  6
HIDDEN
370
     0
100
AcDbSpline
210
0.0
220
0.0
230
1.0
 70
     8
 71
     3
 72
     9
 73
     5
 74
     0
 42
0.0000000001
 43
0.0000000001
 40
0.0
 40
0.0
 40
0.0
 40
0.0
 40
0.574962911419942
 40
1.0
 40
1.0
 40
1.0
 40
1.0
 10
13.64803483616967
 20
8.05127138041028
 30
0.0
 10
13.61771007579234
 20
8.045189519744292
 30
0.0
 10
13.56496796012712
 20
8.034611688469981
 30
0.0
 10
13.49694647584993
 20
8.024724238411257
 30
0.0
 10
13.46803482221186
 20
8.020521705424815
 30
0.0
  0
LINE
  5
307
330
1F
100
AcDbEntity
  8
FRONT_DOOR
  6
HIDDEN
370
     0
100
AcDbLine
 10
13.5830348271
 20
7.9502067869
 30
0.0
 11
13.5830348271
 21
7.313049029
 31
0.0
  0
LINE
  5
308
330
1F
100
AcDbEntity
  8
FRONT_DOOR
  6
HIDDEN
370
     0
100
AcDbLine
 10
13.9630348973
 20
8.0223849372
 30
0.0
 11
13.9630348973
 21
7.2408708695
 31
0.0
  0
LINE
  5
309
330
1F
100
AcDbEntity
  8
FRONT_DOOR
  6
HIDDEN
370
     0
100
AcDbLine
 10
13.4930348934
 20
7.9502067869
 30
0.0
 11
13.4930348934
 21
7.313049029
 31
0.0
  0
LINE
  5
30A
330
1F
100
AcDbEntity
  8
FRONT_DOOR
  6
HIDDEN
370
     0
100
AcDbLine
 10
13.4630348666
 20
7.9528314482
 30
0.0
 11
13.4630348666
 21
7.310424386
 31
0.0
  0
LINE
  5
30B
330
1F
100
AcDbEntity
  8
FRONT_DOOR
  6
HIDDEN
370
     0
100
AcDbLine
 10
13.4230349287
 20
8.011011407799999
 30
0.0
 11
13.4230349287
 21
7.252244371499999
 31
0.0
  0
LINE
  5
30C
330
1F
100
AcDbEntity
  8
FRONT_DOOR
  6
HIDDEN
370
     0
100
AcDbLine
 10
13.6480348362
 20
7.121627920399999
 30
0.0
 11
13.6480348362
 21
7.211984469899999
 31
0.0
  0
SPLINE
  5
30D
330
1F
100
AcDbEntity
  8
FRONT_DOOR
  6
HIDDEN
370
     0
100
AcDbSpline
210
0.0
220
0.0
230
1.0
 70
    24
 71
     3
 72
     9
 73
     5
 74
     0
 42
0.0000000001
 43
0.0000000001
 40
0.0
 40
0.0
 40
0.0
 40
0.0
 40
0.4980476750814736
 40
1.0
 40
1.0
 40
1.0
 40
1.0
 10
13.64803483616967
 20
7.186627929470206
 30
0.0
 10
13.62951877088425
 20
7.186627929470206
 30
0.0
 10
13.59234147599497
 20
7.186627929470206
 30
0.0
 10
13.54453263030561
 20
7.186627929470206
 30
0.0
 10
13.52053486906017
 20
7.186627929470206
 30
0.0
  0
LINE
  5
30E
330
1F
100
AcDbEntity
  8
FRONT_DOOR
  6
HIDDEN
370
     0
100
AcDbLine
 10
13.5205348691
 20
7.1866279295
 30
0.0
 11
13.5205348691
 21
7.352343141799999
 31
0.0
  0
SPLINE
  5
30F
330
1F
100
AcDbEntity
  8
FRONT_DOOR
  6
HIDDEN
370
     0
100
AcDbSpline
210
0.0
220
0.0
230
1.0
 70
     8
 71
     3
 72
    11
 73
     7
 74
     0
 42
0.0000000001
 43
0.0000000001
 40
0.0
 40
0.0
 40
0.0
 40
0.0
 40
0.1351776147020441
 40
0.400187383169934
 40
0.673304301384709
 40
1.0
 40
1.0
 40
1.0
 40
1.0
 10
13.52053486906017
 20
7.352343141780601
 30
0.0
 10
13.52761527382895
 20
7.376912620785048
 30
0.0
 10
13.54857650074841
 20
7.449649482804035
 30
0.0
 10
13.56803805779962
 20
7.576053448249298
 30
0.0
 10
13.56513125706465
 20
7.740873250853967
 30
0.0
 10
13.5362599822534
 20
7.850955169965442
 30
0.0
 10
13.52053486906017
 20
7.910912710803942
 30
0.0
  0
LINE
  5
310
330
1F
100
AcDbEntity
  8
FRONT_DOOR
  6
HIDDEN
370
     0
100
AcDbLine
 10
13.5205348691
 20
7.9109127108
 30
0.0
 11
13.5205348691
 21
8.0766279071
 31
0.0
  0
SPLINE
  5
311
330
1F
100
AcDbEntity
  8
FRONT_DOOR
  6
HIDDEN
370
     0
100
AcDbSpline
210
0.0
220
0.0
230
1.0
 70
    24
 71
     3
 72
     9
 73
     5
 74
     0
 42
0.0000000001
 43
0.0000000001
 40
0.0
 40
0.0
 40
0.0
 40
0.0
 40
0.2118308987865428
 40
1.0
 40
1.0
 40
1.0
 40
1.0
 10
13.52053486906017
 20
8.076627907072852
 30
0.0
 10
13.53073648640635
 20
8.076627907072852
 30
0.0
 10
13.57889573703796
 20
8.076627907072852
 30
0.0
 10
13.6175604802576
 20
8.076627907072852
 30
0.0
 10
13.64803483616967
 20
8.076627907072852
 30
0.0
  0
LINE
  5
312
330
1F
100
AcDbEntity
  8
FRONT_DOOR
  6
HIDDEN
370
     0
100
AcDbLine
 10
13.6480348362
 20
8.051271380399999
 30
0.0
 11
13.6480348362
 21
8.141627904699999
 31
0.0
  0
LINE
  5
313
330
1F
100
AcDbEntity
  8
FRONT_DOOR
  6
HIDDEN
370
     0
100
AcDbLine
 10
13.4680348222
 20
8.0205217054
 30
0.0
 11
13.4680348222
 21
8.381627908099998
 31
0.0
  0
LINE
  5
314
330
1F
100
AcDbEntity
  8
FRONT_DOOR
  6
HIDDEN
370
     0
100
AcDbLine
 10
13.4680348222
 20
8.0205217054
 30
0.0
 11
13.4680348222
 21
7.242734101299999
 31
0.0
  0
LINE
  5
315
330
1F
100
AcDbEntity
  8
FRONT_DOOR
  6
HIDDEN
370
     0
100
AcDbLine
 10
13.4680348222
 20
6.8816279262
 30
0.0
 11
13.4680348222
 21
7.242734101299999
 31
0.0
  0
LINE
  5
316
330
1F
100
AcDbEntity
  8
FRONT_DOOR
  6
HIDDEN
370
     0
100
AcDbLine
 10
13.4230349287
 20
8.0205217054
 30
0.0
 11
13.4230349287
 21
8.381627908099998
 31
0.0
  0
LINE
  5
317
330
1F
100
AcDbEntity
  8
FRONT_DOOR
  6
HIDDEN
370
     0
100
AcDbLine
 10
13.4230349287
 20
6.8816279262
 30
0.0
 11
13.4230349287
 21
7.242734101299999
 31
0.0
  0
LINE
  5
318
330
1F
100
AcDbEntity
  8
FRONT_DOOR
  6
HIDDEN
370
     0
100
AcDbLine
 10
14.0430349198
 20
8.0223849372
 30
0.0
 11
14.0430349198
 21
7.2408708695
 31
0.0
  0
LINE
  5
319
330
1F
100
AcDbEntity
  8
FRONT_DOOR
  6
HIDDEN
370
     0
100
AcDbLine
 10
13.4505349044
 20
7.9877528869
 30
0.0
 11
13.4505349044
 21
8.3466279074
 31
0.0
  0
LINE
  5
31A
330
1F
100
AcDbEntity
  8
FRONT_DOOR
  6
HIDDEN
370
     0
100
AcDbLine
 10
13.4505349044
 20
7.9877528869
 30
0.0
 11
13.4505349044
 21
7.275502942799999
 31
0.0
  0
LINE
  5
31B
330
1F
100
AcDbEntity
  8
FRONT_DOOR
  6
HIDDEN
370
     0
100
AcDbLine
 10
13.4505349044
 20
6.9166279085
 30
0.0
 11
13.4505349044
 21
7.275502942799999
 31
0.0
  0
SPLINE
  5
31C
330
1F
100
AcDbEntity
  8
FRONT_DOOR
  6
HIDDEN
370
     0
100
AcDbSpline
210
0.0
220
0.0
230
1.0
 70
     8
 71
     3
 72
    12
 73
     8
 74
     0
 42
0.0000000001
 43
0.0000000001
 40
0.0
 40
0.0
 40
0.0
 40
0.0
 40
0.2064569492402092
 40
0.4167251900735514
 40
0.6458551614861388
 40
0.8836840172998993
 40
1.0
 40
1.0
 40
1.0
 40
1.0
 10
13.4505349043724
 20
7.987752886889671
 30
0.0
 10
13.46680039835847
 20
7.940189462315805
 30
0.0
 10
13.49963165493729
 20
7.844184570162567
 30
0.0
 10
13.5249350777133
 20
7.688206529100772
 30
0.0
 10
13.52021595246799
 20
7.522542683158221
 30
0.0
 10
13.48878517471696
 20
7.383337130799905
 30
0.0
 10
13.4599918401746
 20
7.302163695348718
 30
0.0
 10
13.4505349043724
 20
7.275502942778468
 30
0.0
  0
SPLINE
  5
31D
330
1F
100
AcDbEntity
  8
FRONT_DOOR
  6
HIDDEN
370
     0
100
AcDbSpline
210
0.0
220
0.0
230
1.0
 70
     8
 71
     3
 72
     9
 73
     5
 74
     0
 42
0.0000000001
 43
0.0000000001
 40
0.0
 40
0.0
 40
0.0
 40
0.0
 40
0.1906914841347128
 40
1.0
 40
1.0
 40
1.0
 40
1.0
 10
13.55471484754347
 20
7.914257854660553
 30
0.0
 10
13.55852152708903
 20
7.9147952579624
 30
0.0
 10
13.57848403125031
 20
7.917613439929393
 30
0.0
 10
13.597580178907
 20
7.920477128957696
 30
0.0
 10
13.61303485382578
 20
7.922794736875096
 30
0.0
  0
LINE
  5
31E
330
1F
100
AcDbEntity
  8
FRONT_DOOR
  6
HIDDEN
370
     0
100
AcDbLine
 10
13.6130348538
 20
7.9227947369
 30
0.0
 11
13.6130348538
 21
8.1299612424
 31
0.0
  0
SPLINE
  5
31F
330
1F
100
AcDbEntity
  8
FRONT_DOOR
  6
HIDDEN
370
     0
100
AcDbSpline
210
0.0
220
0.0
230
1.0
 70
    24
 71
     3
 72
     9
 73
     5
 74
     0
 42
0.0000000001
 43
0.0000000001
 40
0.0
 40
0.0
 40
0.0
 40
0.0
 40
0.942953787125694
 40
1.0
 40
1.0
 40
1.0
 40
1.0
 10
13.61303485382579
 20
7.958627904593951
 30
0.0
 10
13.59823196431442
 20
7.958627904593951
 30
0.0
 10
13.58253353909627
 20
7.958627904593951
 30
0.0
 10
13.56621571547775
 20
7.958627904593951
 30
0.0
 10
13.56528484543796
 20
7.958627904593951
 30
0.0
  0
LINE
  5
320
330
1F
100
AcDbEntity
  8
FRONT_DOOR
  6
HIDDEN
370
     0
100
AcDbLine
 10
13.5652848454
 20
7.9586279046
 30
0.0
 11
13.5652848454
 21
7.884293696599999
 31
0.0
  0
LINE
  5
321
330
1F
100
AcDbEntity
  8
FRONT_DOOR
  6
HIDDEN
370
     0
100
AcDbLine
 10
13.5652848454
 20
7.304627892999999
 30
0.0
 11
13.5652848454
 21
7.378962100899999
 31
0.0
  0
SPLINE
  5
322
330
1F
100
AcDbEntity
  8
FRONT_DOOR
  6
HIDDEN
370
     0
100
AcDbSpline
210
0.0
220
0.0
230
1.0
 70
    24
 71
     3
 72
     9
 73
     5
 74
     0
 42
0.0000000001
 43
0.0000000001
 40
0.0
 40
0.0
 40
0.0
 40
0.0
 40
0.942953787125694
 40
1.0
 40
1.0
 40
1.0
 40
1.0
 10
13.61303485382579
 20
7.304627892991228
 30
0.0
 10
13.59823196431442
 20
7.304627892991228
 30
0.0
 10
13.58253353909627
 20
7.304627892991228
 30
0.0
 10
13.56621571547775
 20
7.304627892991228
 30
0.0
 10
13.56528484543796
 20
7.304627892991228
 30
0.0
  0
LINE
  5
323
330
1F
100
AcDbEntity
  8
FRONT_DOOR
  6
HIDDEN
370
     0
100
AcDbLine
 10
13.6130348538
 20
7.133294605599999
 30
0.0
 11
13.6130348538
 21
7.340461078999999
 31
0.0
  0
SPLINE
  5
324
330
1F
100
AcDbEntity
  8
FRONT_DOOR
  6
HIDDEN
370
     0
100
AcDbSpline
210
0.0
220
0.0
230
1.0
 70
     8
 71
     3
 72
     9
 73
     5
 74
     0
 42
0.0000000001
 43
0.0000000001
 40
0.0
 40
0.0
 40
0.0
 40
0.0
 40
0.1906914636599301
 40
1.0
 40
1.0
 40
1.0
 40
1.0
 10
13.55471484754347
 20
7.348997933758061
 30
0.0
 10
13.55852152713453
 20
7.348460543905326
 30
0.0
 10
13.57848403367781
 20
7.345642432163867
 30
0.0
 10
13.59758017977673
 20
7.342778712120217
 30
0.0
 10
13.61303485382578
 20
7.340461079043202
 30
0.0
  0
SPLINE
  5
325
330
1F
100
AcDbEntity
  8
FRONT_DOOR
  6
HIDDEN
370
     0
100
AcDbSpline
210
0.0
220
0.0
230
1.0
 70
     8
 71
     3
 72
    12
 73
     8
 74
     0
 42
0.0000000001
 43
0.0000000001
 40
0.0
 40
0.0
 40
0.0
 40
0.0
 40
0.2060339228400252
 40
0.4157718084055098
 40
0.6503030289204713
 40
0.8937678514322099
 40
1.0
 40
1.0
 40
1.0
 40
1.0
 10
13.55471484754347
 20
7.914257854660553
 30
0.0
 10
13.56740188322774
 20
7.87655601514687
 30
0.0
 10
13.59300403503382
 20
7.800474553517909
 30
0.0
 10
13.61285477001275
 20
7.675908496932433
 30
0.0
 10
13.60893425221327
 20
7.5424979872065
 30
0.0
 10
13.58380944375875
 20
7.431968077988755
 30
0.0
 10
13.56149393081425
 20
7.368330098142352
 30
0.0
 10
13.55471484754347
 20
7.348997933758061
 30
0.0
  0
LINE
  5
326
330
1F
100
AcDbEntity
  8
FRONT_DOOR
  6
HIDDEN
370
     0
100
AcDbLine
 10
13.4505349044
 20
7.275502942799999
 30
0.0
 11
13.4230349287
 21
7.275502942799999
 31
0.0
  0
LINE
  5
327
330
1F
100
AcDbEntity
  8
FRONT_DOOR
  6
HIDDEN
370
     0
100
AcDbLine
 10
13.4230349287
 20
7.9877528869
 30
0.0
 11
13.4505349044
 21
7.9877528869
 31
0.0
  0
LINE
  5
328
330
1F
100
AcDbEntity
  8
FRONT_DOOR
  6
HIDDEN
370
     0
100
AcDbLine
 10
13.9830348662
 20
7.348997933799999
 30
0.0
 11
13.9830348662
 21
7.304627892999999
 31
0.0
  0
LINE
  5
329
330
1F
100
AcDbEntity
  8
FRONT_DOOR
  6
HIDDEN
370
     0
100
AcDbLine
 10
13.9830348662
 20
7.9142578547
 30
0.0
 11
13.9830348662
 21
7.348997933799999
 31
0.0
  0
LINE
  5
32A
330
1F
100
AcDbEntity
  8
FRONT_DOOR
  6
HIDDEN
370
     0
100
AcDbLine
 10
13.5547148475
 20
7.348997933799999
 30
0.0
 11
13.9830348662
 21
7.348997933799999
 31
0.0
  0
LINE
  5
32B
330
1F
100
AcDbEntity
  8
FRONT_DOOR
  6
HIDDEN
370
     0
100
AcDbLine
 10
13.5547148475
 20
7.9142578547
 30
0.0
 11
13.9830348662
 21
7.9142578547
 31
0.0
  0
LINE
  5
32C
330
1F
100
AcDbEntity
  8
FRONT_DOOR
  6
HIDDEN
370
     0
100
AcDbLine
 10
13.9830348662
 20
7.9142578547
 30
0.0
 11
13.9830348662
 21
7.9586279046
 31
0.0
  0
LINE
  5
32D
330
1F
100
AcDbEntity
  8
FRONT_DOOR
  6
HIDDEN
370
     0
100
AcDbLine
 10
13.6130348538
 20
7.9586279046
 30
0.0
 11
13.9830348662
 21
7.9586279046
 31
0.0
  0
LINE
  5
32E
330
1F
100
AcDbEntity
  8
FRONT_DOOR
  6
HIDDEN
370
     0
100
AcDbLine
 10
13.6130348538
 20
7.304627892999999
 30
0.0
 11
13.9830348662
 21
7.304627892999999
 31
0.0
  0
LINE
  5
32F
330
1F
100
AcDbEntity
  8
FRONT_DOOR
  6
HIDDEN
370
     0
100
AcDbLine
 10
13.5652848454
 20
7.378962100899999
 30
0.0
 11
13.9830348662
 21
7.378962100899999
 31
0.0
  0
LINE
  5
330
330
1F
100
AcDbEntity
  8
FRONT_DOOR
  6
HIDDEN
370
     0
100
AcDbLine
 10
13.5652848454
 20
7.884293696599999
 30
0.0
 11
13.9830348662
 21
7.884293696599999
 31
0.0
  0
LINE
  5
331
330
1F
100
AcDbEntity
  8
FRONT_DOOR
  6
HIDDEN
370
     0
100
AcDbLine
 10
14.0430349198
 20
7.9109127108
 30
0.0
 11
13.5205348691
 21
7.9109127108
 31
0.0
  0
LINE
  5
332
330
1F
100
AcDbEntity
  8
FRONT_DOOR
  6
HIDDEN
370
     0
100
AcDbLine
 10
14.0430349198
 20
7.352343141799999
 30
0.0
 11
13.5205348691
 21
7.352343141799999
 31
0.0
  0
LINE
  5
333
330
1F
100
AcDbEntity
  8
BODY
  6
HIDDEN
370
     0
100
AcDbLine
 10
14.9430348796
 20
12.311628005
 30
0.0
 11
14.3455413985
 21
12.311628005
 31
0.0
  0
LINE
  5
334
330
1F
100
AcDbEntity
  8
BODY
  6
HIDDEN
370
     0
100
AcDbLine
 10
14.9430348796
 20
10.3116278825
 30
0.0
 11
14.9430348796
 21
12.311628005
 31
0.0
  0
LINE
  5
335
330
1F
100
AcDbEntity
  8
BODY
  6
HIDDEN
370
     0
100
AcDbLine
 10
14.9430348796
 20
10.3116278825
 30
0.0
 11
14.3550348755
 21
10.3116278825
 31
0.0
  0
LINE
  5
336
330
1F
100
AcDbEntity
  8
BODY
  6
HIDDEN
370
     0
100
AcDbLine
 10
14.3550348755
 20
10.8116278398
 30
0.0
 11
14.3550348755
 21
10.3116278825
 31
0.0
  0
LINE
  5
337
330
1F
100
AcDbEntity
  8
BODY
  6
HIDDEN
370
     0
100
AcDbLine
 10
14.3455413985
 20
10.8116278398
 30
0.0
 11
14.3550348755
 21
10.8116278398
 31
0.0
  0
LINE
  5
338
330
1F
100
AcDbEntity
  8
BODY
  6
HIDDEN
370
     0
100
AcDbLine
 10
14.3455413985
 20
10.8116278398
 30
0.0
 11
14.3455413985
 21
11.3116277971
 31
0.0
  0
LINE
  5
339
330
1F
100
AcDbEntity
  8
BODY
  6
HIDDEN
370
     0
100
AcDbLine
 10
14.3455413985
 20
11.3116277971
 30
0.0
 11
14.3550348755
 21
11.3116277971
 31
0.0
  0
LINE
  5
33A
330
1F
100
AcDbEntity
  8
BODY
  6
HIDDEN
370
     0
100
AcDbLine
 10
14.3550348755
 20
11.3116277971
 30
0.0
 11
14.3550348755
 21
11.8116280477
 31
0.0
  0
LINE
  5
33B
330
1F
100
AcDbEntity
  8
BODY
  6
HIDDEN
370
     0
100
AcDbLine
 10
14.3455413985
 20
11.8116280477
 30
0.0
 11
14.3550348755
 21
11.8116280477
 31
0.0
  0
LINE
  5
33C
330
1F
100
AcDbEntity
  8
BODY
  6
HIDDEN
370
     0
100
AcDbLine
 10
14.3455413985
 20
11.8116280477
 30
0.0
 11
14.3455413985
 21
12.311628005
 31
0.0
  0
LINE
  5
33D
330
1F
100
AcDbEntity
  8
BODY
  6
HIDDEN
370
     0
100
AcDbLine
 10
14.1930349069
 20
10.8116278398
 30
0.0
 11
14.3455413985
 21
10.8116278398
 31
0.0
  0
LINE
  5
33E
330
1F
100
AcDbEntity
  8
BODY
  6
HIDDEN
370
     0
100
AcDbLine
 10
14.1635212212
 20
10.8116278398
 30
0.0
 11
14.1635212212
 21
11.3116277971
 31
0.0
  0
LINE
  5
33F
330
1F
100
AcDbEntity
  8
BODY
  6
HIDDEN
370
     0
100
AcDbLine
 10
14.1930349069
 20
11.3116277971
 30
0.0
 11
14.3455413985
 21
11.3116277971
 31
0.0
  0
LINE
  5
340
330
1F
100
AcDbEntity
  8
BODY
  6
HIDDEN
370
     0
100
AcDbLine
 10
14.3455413985
 20
12.311628005
 30
0.0
 11
14.1635212212
 21
12.311628005
 31
0.0
  0
LINE
  5
341
330
1F
100
AcDbEntity
  8
BODY
  6
HIDDEN
370
     0
100
AcDbLine
 10
14.1635212212
 20
11.8116280477
 30
0.0
 11
14.1635212212
 21
12.311628005
 31
0.0
  0
LINE
  5
342
330
1F
100
AcDbEntity
  8
BODY
  6
HIDDEN
370
     0
100
AcDbLine
 10
14.1930349069
 20
11.8116280477
 30
0.0
 11
14.3455413985
 21
11.8116280477
 31
0.0
  0
LINE
  5
343
330
1F
100
AcDbEntity
  8
BODY
  6
HIDDEN
370
     0
100
AcDbLine
 10
14.2790089604
 20
10.8116278398
 30
0.0
 11
14.2790089604
 21
11.3116277971
 31
0.0
  0
LINE
  5
344
330
1F
100
AcDbEntity
  8
BODY
  6
HIDDEN
370
     0
100
AcDbLine
 10
14.2790089604
 20
11.8116280477
 30
0.0
 11
14.2790089604
 21
12.311628005
 31
0.0
  0
LINE
  5
345
330
1F
100
AcDbEntity
  8
BODY
  6
HIDDEN
370
     0
100
AcDbLine
 10
14.1635212212
 20
12.311628005
 30
0.0
 11
14.0730348732
 21
12.311628005
 31
0.0
  0
LINE
  5
346
330
1F
100
AcDbEntity
  8
BODY
  6
HIDDEN
370
     0
100
AcDbLine
 10
14.3530348786
 20
10.8116278398
 30
0.0
 11
14.3530348786
 21
11.3116277971
 31
0.0
  0
LINE
  5
347
330
1F
100
AcDbEntity
  8
BODY
  6
HIDDEN
370
     0
100
AcDbLine
 10
14.3530348786
 20
11.8116280477
 30
0.0
 11
14.3530348786
 21
12.311628005
 31
0.0
  0
LINE
  5
348
330
1F
100
AcDbEntity
  8
BODY
  6
HIDDEN
370
     0
100
AcDbLine
 10
14.9430348796
 20
5.0066279397
 30
0.0
 11
14.3455413985
 21
5.0066279397
 31
0.0
  0
LINE
  5
349
330
1F
100
AcDbEntity
  8
BODY
  6
HIDDEN
370
     0
100
AcDbLine
 10
14.9430348796
 20
3.0066278172
 30
0.0
 11
14.9430348796
 21
5.0066279397
 31
0.0
  0
LINE
  5
34A
330
1F
100
AcDbEntity
  8
BODY
  6
HIDDEN
370
     0
100
AcDbLine
 10
14.9430348796
 20
3.0066278172
 30
0.0
 11
14.3550348755
 21
3.0066278172
 31
0.0
  0
LINE
  5
34B
330
1F
100
AcDbEntity
  8
BODY
  6
HIDDEN
370
     0
100
AcDbLine
 10
14.3550348755
 20
3.5066277745
 30
0.0
 11
14.3550348755
 21
3.0066278172
 31
0.0
  0
LINE
  5
34C
330
1F
100
AcDbEntity
  8
BODY
  6
HIDDEN
370
     0
100
AcDbLine
 10
14.3455413985
 20
3.5066277745
 30
0.0
 11
14.3550348755
 21
3.5066277745
 31
0.0
  0
LINE
  5
34D
330
1F
100
AcDbEntity
  8
BODY
  6
HIDDEN
370
     0
100
AcDbLine
 10
14.3455413985
 20
3.5066277745
 30
0.0
 11
14.3455413985
 21
4.006628025099999
 31
0.0
  0
LINE
  5
34E
330
1F
100
AcDbEntity
  8
BODY
  6
HIDDEN
370
     0
100
AcDbLine
 10
14.3455413985
 20
4.006628025099999
 30
0.0
 11
14.3550348755
 21
4.006628025099999
 31
0.0
  0
LINE
  5
34F
330
1F
100
AcDbEntity
  8
BODY
  6
HIDDEN
370
     0
100
AcDbLine
 10
14.3550348755
 20
4.006628025099999
 30
0.0
 11
14.3550348755
 21
4.5066279824
 31
0.0
  0
LINE
  5
350
330
1F
100
AcDbEntity
  8
BODY
  6
HIDDEN
370
     0
100
AcDbLine
 10
14.3455413985
 20
4.5066279824
 30
0.0
 11
14.3550348755
 21
4.5066279824
 31
0.0
  0
LINE
  5
351
330
1F
100
AcDbEntity
  8
BODY
  6
HIDDEN
370
     0
100
AcDbLine
 10
14.3455413985
 20
4.5066279824
 30
0.0
 11
14.3455413985
 21
5.0066279397
 31
0.0
  0
LINE
  5
352
330
1F
100
AcDbEntity
  8
BODY
  6
HIDDEN
370
     0
100
AcDbLine
 10
14.1635212212
 20
3.5066277745
 30
0.0
 11
14.1635212212
 21
4.006628025099999
 31
0.0
  0
LINE
  5
353
330
1F
100
AcDbEntity
  8
BODY
  6
HIDDEN
370
     0
100
AcDbLine
 10
14.1930349069
 20
3.5066277745
 30
0.0
 11
14.3455413985
 21
3.5066277745
 31
0.0
  0
LINE
  5
354
330
1F
100
AcDbEntity
  8
BODY
  6
HIDDEN
370
     0
100
AcDbLine
 10
14.0405284154
 20
4.006628025099999
 30
0.0
 11
14.3455413985
 21
4.006628025099999
 31
0.0
  0
LINE
  5
355
330
1F
100
AcDbEntity
  8
BODY
  6
HIDDEN
370
     0
100
AcDbLine
 10
14.1635212212
 20
4.5066279824
 30
0.0
 11
14.1635212212
 21
5.0066279397
 31
0.0
  0
LINE
  5
356
330
1F
100
AcDbEntity
  8
BODY
  6
HIDDEN
370
     0
100
AcDbLine
 10
14.3455413985
 20
5.0066279397
 30
0.0
 11
14.1635212212
 21
5.0066279397
 31
0.0
  0
LINE
  5
357
330
1F
100
AcDbEntity
  8
BODY
  6
HIDDEN
370
     0
100
AcDbLine
 10
14.1930349069
 20
4.5066279824
 30
0.0
 11
14.3455413985
 21
4.5066279824
 31
0.0
  0
LINE
  5
358
330
1F
100
AcDbEntity
  8
BODY
  6
HIDDEN
370
     0
100
AcDbLine
 10
14.2790089604
 20
3.5066277745
 30
0.0
 11
14.2790089604
 21
4.006628025099999
 31
0.0
  0
LINE
  5
359
330
1F
100
AcDbEntity
  8
BODY
  6
HIDDEN
370
     0
100
AcDbLine
 10
14.2790089604
 20
4.5066279824
 30
0.0
 11
14.2790089604
 21
5.0066279397
 31
0.0
  0
LINE
  5
35A
330
1F
100
AcDbEntity
  8
BODY
  6
HIDDEN
370
     0
100
AcDbLine
 10
14.1635212212
 20
5.0066279397
 30
0.0
 11
14.0730348732
 21
5.0066279397
 31
0.0
  0
LINE
  5
35B
330
1F
100
AcDbEntity
  8
BODY
  6
HIDDEN
370
     0
100
AcDbLine
 10
14.3530348786
 20
4.5066279824
 30
0.0
 11
14.3530348786
 21
5.0066279397
 31
0.0
  0
LINE
  5
35C
330
1F
100
AcDbEntity
  8
BODY
  6
HIDDEN
370
     0
100
AcDbLine
 10
14.3530348786
 20
3.5066277745
 30
0.0
 11
14.3530348786
 21
4.006628025099999
 31
0.0
  0
LINE
  5
35D
330
1F
100
AcDbEntity
  8
FRONT_DOOR
  6
HIDDEN
370
     0
100
AcDbLine
 10
13.4430348977
 20
3.0066278172
 30
0.0
 11
14.0405284154
 21
3.0066278172
 31
0.0
  0
LINE
  5
35E
330
1F
100
AcDbEntity
  8
FRONT_DOOR
  6
HIDDEN
370
     0
100
AcDbLine
 10
13.4430348977
 20
5.0066279397
 30
0.0
 11
13.4430348977
 21
3.0066278172
 31
0.0
  0
LINE
  5
35F
330
1F
100
AcDbEntity
  8
FRONT_DOOR
  6
HIDDEN
370
     0
100
AcDbLine
 10
13.4430348977
 20
5.0066279397
 30
0.0
 11
14.0310348651
 21
5.0066279397
 31
0.0
  0
LINE
  5
360
330
1F
100
AcDbEntity
  8
FRONT_DOOR
  6
HIDDEN
370
     0
100
AcDbLine
 10
14.0310348651
 20
4.5066279824
 30
0.0
 11
14.0310348651
 21
5.0066279397
 31
0.0
  0
LINE
  5
361
330
1F
100
AcDbEntity
  8
FRONT_DOOR
  6
HIDDEN
370
     0
100
AcDbLine
 10
14.0405284154
 20
4.5066279824
 30
0.0
 11
14.0310348651
 21
4.5066279824
 31
0.0
  0
LINE
  5
362
330
1F
100
AcDbEntity
  8
FRONT_DOOR
  6
HIDDEN
370
     0
100
AcDbLine
 10
14.0405284154
 20
4.5066279824
 30
0.0
 11
14.0405284154
 21
4.006628025099999
 31
0.0
  0
LINE
  5
363
330
1F
100
AcDbEntity
  8
FRONT_DOOR
  6
HIDDEN
370
     0
100
AcDbLine
 10
14.0405284154
 20
4.006628025099999
 30
0.0
 11
14.0310348651
 21
4.006628025099999
 31
0.0
  0
LINE
  5
364
330
1F
100
AcDbEntity
  8
FRONT_DOOR
  6
HIDDEN
370
     0
100
AcDbLine
 10
14.0310348651
 20
4.006628025099999
 30
0.0
 11
14.0310348651
 21
3.5066277745
 31
0.0
  0
LINE
  5
365
330
1F
100
AcDbEntity
  8
FRONT_DOOR
  6
HIDDEN
370
     0
100
AcDbLine
 10
14.0405284154
 20
3.5066277745
 30
0.0
 11
14.0310348651
 21
3.5066277745
 31
0.0
  0
LINE
  5
366
330
1F
100
AcDbEntity
  8
FRONT_DOOR
  6
HIDDEN
370
     0
100
AcDbLine
 10
14.0405284154
 20
3.5066277745
 30
0.0
 11
14.0405284154
 21
3.0066278172
 31
0.0
  0
LINE
  5
367
330
1F
100
AcDbEntity
  8
FRONT_DOOR
  6
HIDDEN
370
     0
100
AcDbLine
 10
14.2225485193
 20
3.5066277745
 30
0.0
 11
14.2225485193
 21
3.0066278172
 31
0.0
  0
LINE
  5
368
330
1F
100
AcDbEntity
  8
FRONT_DOOR
  6
HIDDEN
370
     0
100
AcDbLine
 10
14.0405284154
 20
3.0066278172
 30
0.0
 11
14.2225485193
 21
3.0066278172
 31
0.0
  0
LINE
  5
369
330
1F
100
AcDbEntity
  8
FRONT_DOOR
  6
HIDDEN
370
     0
100
AcDbLine
 10
14.1930349069
 20
3.5066277745
 30
0.0
 11
14.0405284154
 21
3.5066277745
 31
0.0
  0
LINE
  5
36A
330
1F
100
AcDbEntity
  8
FRONT_DOOR
  6
HIDDEN
370
     0
100
AcDbLine
 10
14.2225485193
 20
4.5066279824
 30
0.0
 11
14.2225485193
 21
4.006628025099999
 31
0.0
  0
LINE
  5
36B
330
1F
100
AcDbEntity
  8
FRONT_DOOR
  6
HIDDEN
370
     0
100
AcDbLine
 10
14.1930349069
 20
4.5066279824
 30
0.0
 11
14.0405284154
 21
4.5066279824
 31
0.0
  0
LINE
  5
36C
330
1F
100
AcDbEntity
  8
FRONT_DOOR
  6
HIDDEN
370
     0
100
AcDbLine
 10
14.1070608535
 20
3.5066277745
 30
0.0
 11
14.1070608535
 21
3.0066278172
 31
0.0
  0
LINE
  5
36D
330
1F
100
AcDbEntity
  8
FRONT_DOOR
  6
HIDDEN
370
     0
100
AcDbLine
 10
14.2225485193
 20
3.0066278172
 30
0.0
 11
14.3130348674
 21
3.0066278172
 31
0.0
  0
LINE
  5
36E
330
1F
100
AcDbEntity
  8
FRONT_DOOR
  6
HIDDEN
370
     0
100
AcDbLine
 10
14.1070608535
 20
4.5066279824
 30
0.0
 11
14.1070608535
 21
4.006628025099999
 31
0.0
  0
LINE
  5
36F
330
1F
100
AcDbEntity
  8
FRONT_DOOR
  6
HIDDEN
370
     0
100
AcDbLine
 10
14.0330348619
 20
3.5066277745
 30
0.0
 11
14.0330348619
 21
3.0066278172
 31
0.0
  0
LINE
  5
370
330
1F
100
AcDbEntity
  8
FRONT_DOOR
  6
HIDDEN
370
     0
100
AcDbLine
 10
14.0330348619
 20
4.5066279824
 30
0.0
 11
14.0330348619
 21
4.006628025099999
 31
0.0
  0
LINE
  5
371
330
1F
100
AcDbEntity
  8
FRONT_DOOR
  6
HIDDEN
370
     0
100
AcDbLine
 10
13.4430348977
 20
10.3116278825
 30
0.0
 11
14.0405284154
 21
10.3116278825
 31
0.0
  0
LINE
  5
372
330
1F
100
AcDbEntity
  8
FRONT_DOOR
  6
HIDDEN
370
     0
100
AcDbLine
 10
13.4430348977
 20
12.311628005
 30
0.0
 11
13.4430348977
 21
10.3116278825
 31
0.0
  0
LINE
  5
373
330
1F
100
AcDbEntity
  8
FRONT_DOOR
  6
HIDDEN
370
     0
100
AcDbLine
 10
13.4430348977
 20
12.311628005
 30
0.0
 11
14.0310348651
 21
12.311628005
 31
0.0
  0
LINE
  5
374
330
1F
100
AcDbEntity
  8
FRONT_DOOR
  6
HIDDEN
370
     0
100
AcDbLine
 10
14.0310348651
 20
11.8116280477
 30
0.0
 11
14.0310348651
 21
12.311628005
 31
0.0
  0
LINE
  5
375
330
1F
100
AcDbEntity
  8
FRONT_DOOR
  6
HIDDEN
370
     0
100
AcDbLine
 10
14.0405284154
 20
11.8116280477
 30
0.0
 11
14.0310348651
 21
11.8116280477
 31
0.0
  0
LINE
  5
376
330
1F
100
AcDbEntity
  8
FRONT_DOOR
  6
HIDDEN
370
     0
100
AcDbLine
 10
14.0405284154
 20
11.8116280477
 30
0.0
 11
14.0405284154
 21
11.3116277971
 31
0.0
  0
LINE
  5
377
330
1F
100
AcDbEntity
  8
FRONT_DOOR
  6
HIDDEN
370
     0
100
AcDbLine
 10
14.0405284154
 20
11.3116277971
 30
0.0
 11
14.0310348651
 21
11.3116277971
 31
0.0
  0
LINE
  5
378
330
1F
100
AcDbEntity
  8
FRONT_DOOR
  6
HIDDEN
370
     0
100
AcDbLine
 10
14.0405284154
 20
10.8116278398
 30
0.0
 11
14.0310348651
 21
10.8116278398
 31
0.0
  0
LINE
  5
379
330
1F
100
AcDbEntity
  8
FRONT_DOOR
  6
HIDDEN
370
     0
100
AcDbLine
 10
14.0405284154
 20
10.8116278398
 30
0.0
 11
14.0405284154
 21
10.3116278825
 31
0.0
  0
LINE
  5
37A
330
1F
100
AcDbEntity
  8
FRONT_DOOR
  6
HIDDEN
370
     0
100
AcDbLine
 10
14.0310348651
 20
11.3116277971
 30
0.0
 11
14.0310348651
 21
10.8116278398
 31
0.0
  0
LINE
  5
37B
330
1F
100
AcDbEntity
  8
FRONT_DOOR
  6
HIDDEN
370
     0
100
AcDbLine
 10
14.0405284154
 20
10.3116278825
 30
0.0
 11
14.2225485193
 21
10.3116278825
 31
0.0
  0
LINE
  5
37C
330
1F
100
AcDbEntity
  8
FRONT_DOOR
  6
HIDDEN
370
     0
100
AcDbLine
 10
14.2225485193
 20
10.8116278398
 30
0.0
 11
14.2225485193
 21
10.3116278825
 31
0.0
  0
LINE
  5
37D
330
1F
100
AcDbEntity
  8
FRONT_DOOR
  6
HIDDEN
370
     0
100
AcDbLine
 10
14.1930349069
 20
10.8116278398
 30
0.0
 11
14.0405284154
 21
10.8116278398
 31
0.0
  0
LINE
  5
37E
330
1F
100
AcDbEntity
  8
FRONT_DOOR
  6
HIDDEN
370
     0
100
AcDbLine
 10
14.1930349069
 20
11.8116280477
 30
0.0
 11
14.0405284154
 21
11.8116280477
 31
0.0
  0
LINE
  5
37F
330
1F
100
AcDbEntity
  8
FRONT_DOOR
  6
HIDDEN
370
     0
100
AcDbLine
 10
14.2225485193
 20
11.8116280477
 30
0.0
 11
14.2225485193
 21
11.3116277971
 31
0.0
  0
LINE
  5
380
330
1F
100
AcDbEntity
  8
FRONT_DOOR
  6
HIDDEN
370
     0
100
AcDbLine
 10
14.1930349069
 20
11.3116277971
 30
0.0
 11
14.0405284154
 21
11.3116277971
 31
0.0
  0
LINE
  5
381
330
1F
100
AcDbEntity
  8
FRONT_DOOR
  6
HIDDEN
370
     0
100
AcDbLine
 10
14.1070608535
 20
11.8116280477
 30
0.0
 11
14.1070608535
 21
11.3116277971
 31
0.0
  0
LINE
  5
382
330
1F
100
AcDbEntity
  8
FRONT_DOOR
  6
HIDDEN
370
     0
100
AcDbLine
 10
14.1070608535
 20
10.8116278398
 30
0.0
 11
14.1070608535
 21
10.3116278825
 31
0.0
  0
LINE
  5
383
330
1F
100
AcDbEntity
  8
FRONT_DOOR
  6
HIDDEN
370
     0
100
AcDbLine
 10
14.2225485193
 20
10.3116278825
 30
0.0
 11
14.3130348674
 21
10.3116278825
 31
0.0
  0
LINE
  5
384
330
1F
100
AcDbEntity
  8
FRONT_DOOR
  6
HIDDEN
370
     0
100
AcDbLine
 10
14.0330348619
 20
11.8116280477
 30
0.0
 11
14.0330348619
 21
11.3116277971
 31
0.0
  0
LINE
  5
385
330
1F
100
AcDbEntity
  8
FRONT_DOOR
  6
HIDDEN
370
     0
100
AcDbLine
 10
14.0330348619
 20
10.8116278398
 30
0.0
 11
14.0330348619
 21
10.3116278825
 31
0.0
  0
LINE
  5
386
330
1F
100
AcDbEntity
  8
PANEL
  6
HIDDEN
370
     0
100
AcDbLine
 10
18.8290348248
 20
3.5066277745
 30
0.0
 11
18.9010350064
 21
3.5066277745
 31
0.0
  0
LINE
  5
387
330
1F
100
AcDbEntity
  8
PANEL
  6
HIDDEN
370
     0
100
AcDbLine
 10
18.8290348248
 20
3.5066277745
 30
0.0
 11
18.8290348248
 21
11.7566278031
 31
0.0
  0
LINE
  5
388
330
1F
100
AcDbEntity
  8
PANEL
  6
HIDDEN
370
     0
100
AcDbLine
 10
18.8290348248
 20
11.7566278031
 30
0.0
 11
18.9010350064
 21
11.7566278031
 31
0.0
  0
LINE
  5
389
330
1F
100
AcDbEntity
  8
PANEL
  6
HIDDEN
370
     0
100
AcDbLine
 10
18.9010350064
 20
3.5066277745
 30
0.0
 11
18.9010350064
 21
11.7566278031
 31
0.0
  0
LINE
  5
38A
330
1F
100
AcDbEntity
  8
BODY
  6
HIDDEN
370
     0
100
AcDbLine
 10
19.2310350075
 20
4.1316279411
 30
0.0
 11
19.2310350075
 21
3.5066277745
 31
0.0
  0
LINE
  5
38B
330
1F
100
AcDbEntity
  8
BODY
  6
HIDDEN
370
     0
100
AcDbLine
 10
19.2010349808
 20
4.101627914299999
 30
0.0
 11
19.2010349808
 21
3.536627801199999
 31
0.0
  0
LINE
  5
38C
330
1F
100
AcDbEntity
  8
BODY
  6
HIDDEN
370
     0
100
AcDbLine
 10
19.2310350075
 20
11.7566278031
 30
0.0
 11
19.2310350075
 21
11.1316279298
 31
0.0
  0
LINE
  5
38D
330
1F
100
AcDbEntity
  8
BODY
  6
HIDDEN
370
     0
100
AcDbLine
 10
19.2010349808
 20
11.7266277763
 30
0.0
 11
19.2010349808
 21
11.1616279566
 31
0.0
  0
LINE
  5
38E
330
1F
100
AcDbEntity
  8
FRONT_DOOR
  6
HIDDEN
370
     0
100
AcDbLine
 10
13.3830348441
 20
6.9766278887
 30
0.0
 11
13.5730349159
 21
7.1717755344
 31
0.0
  0
LINE
  5
38F
330
1F
100
AcDbEntity
  8
FRONT_DOOR
  6
HIDDEN
370
     0
100
AcDbLine
 10
13.5730349159
 20
8.091480249499999
 30
0.0
 11
13.3830348441
 21
8.286627908799999
 31
0.0
  0
LINE
  5
390
330
1F
100
AcDbEntity
  8
FRONT_DOOR
  6
HIDDEN
370
     0
100
AcDbLine
 10
13.3280348928
 20
6.9989802172
 30
0.0
 11
13.5180348179
 21
7.1941279362
 31
0.0
  0
LINE
  5
391
330
1F
100
AcDbEntity
  8
FRONT_DOOR
  6
HIDDEN
370
     0
100
AcDbLine
 10
13.5180348179
 20
8.0691279073
 30
0.0
 11
13.3280348928
 21
8.264275562099999
 31
0.0
  0
LINE
  5
392
330
1F
100
AcDbEntity
  8
FRONT_DOOR
  6
HIDDEN
370
     0
100
AcDbLine
 10
13.5180348179
 20
7.2516279386
 30
0.0
 11
13.5730349159
 21
7.2516279386
 31
0.0
  0
LINE
  5
393
330
1F
100
AcDbEntity
  8
FRONT_DOOR
  6
HIDDEN
370
     0
100
AcDbLine
 10
13.5730349159
 20
8.0116279048
 30
0.0
 11
13.5180348179
 21
8.0116279048
 31
0.0
  0
LINE
  5
394
330
1F
100
AcDbEntity
  8
BODY
  6
HIDDEN
370
     0
100
AcDbLine
 10
13.3910348317
 20
4.389127926399999
 30
0.0
 11
13.4460349297
 21
4.389127926399999
 31
0.0
  0
LINE
  5
395
330
1F
100
AcDbEntity
  8
BODY
  6
HIDDEN
370
     0
100
AcDbLine
 10
13.4460349297
 20
4.562127767899999
 30
0.0
 11
13.3910348317
 21
4.562127767899999
 31
0.0
  0
LINE
  5
396
330
1F
100
AcDbEntity
  8
BODY
  6
HIDDEN
370
     0
100
AcDbLine
 10
13.3910348317
 20
10.7011278097
 30
0.0
 11
13.4460349297
 21
10.7011278097
 31
0.0
  0
LINE
  5
397
330
1F
100
AcDbEntity
  8
BODY
  6
HIDDEN
370
     0
100
AcDbLine
 10
13.4460349297
 20
10.8741279445
 30
0.0
 11
13.3910348317
 21
10.8741279445
 31
0.0
  0
LINE
  5
398
330
1F
100
AcDbEntity
  8
BODY
  6
HIDDEN
370
     0
100
AcDbLine
 10
19.3360348079
 20
10.9911278729
 30
0.0
 11
19.3910347592
 21
10.9911278729
 31
0.0
  0
LINE
  5
399
330
1F
100
AcDbEntity
  8
BODY
  6
HIDDEN
370
     0
100
AcDbLine
 10
19.3910347592
 20
11.2721279868
 30
0.0
 11
19.3360348079
 21
11.2721279868
 31
0.0
  0
LINE
  5
39A
330
1F
100
AcDbEntity
  8
BODY
  6
HIDDEN
370
     0
100
AcDbLine
 10
19.3360348079
 20
3.991127884199999
 30
0.0
 11
19.3910347592
 21
3.991127884199999
 31
0.0
  0
LINE
  5
39B
330
1F
100
AcDbEntity
  8
BODY
  6
HIDDEN
370
     0
100
AcDbLine
 10
19.3910347592
 20
4.272127998
 30
0.0
 11
19.3360348079
 21
4.272127998
 31
0.0
  0
LINE
  5
39C
330
1F
100
AcDbEntity
  8
FRONT_DOOR
  6
HIDDEN
370
     0
100
AcDbLine
 10
13.5180348179
 20
8.064127906999999
 30
0.0
 11
13.3780348886
 21
8.064127906999999
 31
0.0
  0
LINE
  5
39D
330
1F
100
AcDbEntity
  8
FRONT_DOOR
  6
HIDDEN
370
     0
100
AcDbLine
 10
13.3780348886
 20
7.199127891699999
 30
0.0
 11
13.5180348179
 21
7.199127891699999
 31
0.0
  0
LINE
  5
39E
330
1F
100
AcDbEntity
  8
FRONT_DOOR
  6
HIDDEN
370
     0
100
AcDbLine
 10
13.3780348886
 20
8.064127906999999
 30
0.0
 11
13.3380349506
 21
8.0241279083
 31
0.0
  0
LINE
  5
39F
330
1F
100
AcDbEntity
  8
FRONT_DOOR
  6
HIDDEN
370
     0
100
AcDbLine
 10
13.3380349506
 20
7.239127902999999
 30
0.0
 11
13.3780348886
 21
7.199127891699999
 31
0.0
  0
LINE
  5
3A0
330
1F
100
AcDbEntity
  8
FRONT_DOOR
  6
HIDDEN
370
     0
100
AcDbLine
 10
13.8580348769
 20
7.3116279188
 30
0.0
 11
13.9480348105
 21
7.344385247
 31
0.0
  0
LINE
  5
3A1
330
1F
100
AcDbEntity
  8
FRONT_DOOR
  6
HIDDEN
370
     0
100
AcDbLine
 10
13.9480348105
 20
7.9188705872
 30
0.0
 11
13.8580348769
 21
7.951627906299999
 31
0.0
  0
LINE
  5
3A2
330
1F
100
AcDbEntity
  8
FRONT_DOOR
  6
HIDDEN
370
     0
100
AcDbLine
 10
13.8580348769
 20
7.951627906299999
 30
0.0
 11
13.5180348179
 21
7.951627906299999
 31
0.0
  0
LINE
  5
3A3
330
1F
100
AcDbEntity
  8
FRONT_DOOR
  6
HIDDEN
370
     0
100
AcDbLine
 10
13.5180348179
 20
7.3116279188
 30
0.0
 11
13.8580348769
 21
7.3116279188
 31
0.0
  0
LINE
  5
3A4
330
1F
100
AcDbEntity
  8
FRONT_DOOR
  6
HIDDEN
370
     0
100
AcDbLine
 10
13.4680348222
 20
6.8816279262
 30
0.0
 11
13.6480348362
 21
7.121627920399999
 31
0.0
  0
LINE
  5
3A5
330
1F
100
AcDbEntity
  8
FRONT_DOOR
  6
HIDDEN
370
     0
100
AcDbLine
 10
13.6480348362
 20
8.141627904699999
 30
0.0
 11
13.4680348222
 21
8.381627908099998
 31
0.0
  0
LINE
  5
3A6
330
1F
100
AcDbEntity
  8
FRONT_DOOR
  6
HIDDEN
370
     0
100
AcDbLine
 10
13.4230349287
 20
6.8816279262
 30
0.0
 11
13.4680348222
 21
6.8816279262
 31
0.0
  0
LINE
  5
3A7
330
1F
100
AcDbEntity
  8
FRONT_DOOR
  6
HIDDEN
370
     0
100
AcDbLine
 10
13.4680348222
 20
8.381627908099998
 30
0.0
 11
13.4230349287
 21
8.381627908099998
 31
0.0
  0
LINE
  5
3A8
330
1F
100
AcDbEntity
  8
FRONT_DOOR
  6
HIDDEN
370
     0
100
AcDbLine
 10
13.4505349044
 20
6.9166279085
 30
0.0
 11
13.6130348538
 21
7.133294605599999
 31
0.0
  0
LINE
  5
3A9
330
1F
100
AcDbEntity
  8
FRONT_DOOR
  6
HIDDEN
370
     0
100
AcDbLine
 10
13.6130348538
 20
8.1299612424
 30
0.0
 11
13.4505349044
 21
8.3466279074
 31
0.0
  0
LINE
  5
3AA
330
1F
100
AcDbEntity
  8
FRONT_DOOR
  6
HIDDEN
370
     0
100
AcDbLine
 10
13.4230349287
 20
6.9166279085
 30
0.0
 11
13.4505349044
 21
6.9166279085
 31
0.0
  0
LINE
  5
3AB
330
1F
100
AcDbEntity
  8
FRONT_DOOR
  6
HIDDEN
370
     0
100
AcDbLine
 10
13.4505349044
 20
8.3466279074
 30
0.0
 11
13.4230349287
 21
8.3466279074
 31
0.0
  0
LINE
  5
3AC
330
1F
100
AcDbEntity
  8
BODY
  6
HIDDEN
370
     0
100
AcDbLine
 10
14.0730348732
 20
11.3116277971
 30
0.0
 11
14.0730348732
 21
10.8116278398
 31
0.0
  0
LINE
  5
3AD
330
1F
100
AcDbEntity
  8
BODY
  6
HIDDEN
370
     0
100
AcDbLine
 10
14.3130348674
 20
10.8116278398
 30
0.0
 11
14.3130348674
 21
11.3116277971
 31
0.0
  0
LINE
  5
3AE
330
1F
100
AcDbEntity
  8
BODY
  6
HIDDEN
370
     0
100
AcDbLine
 10
14.0730348732
 20
12.311628005
 30
0.0
 11
14.0730348732
 21
11.8116280477
 31
0.0
  0
LINE
  5
3AF
330
1F
100
AcDbEntity
  8
BODY
  6
HIDDEN
370
     0
100
AcDbLine
 10
14.3130348674
 20
11.8116280477
 30
0.0
 11
14.3130348674
 21
12.311628005
 31
0.0
  0
LINE
  5
3B0
330
1F
100
AcDbEntity
  8
BODY
  6
HIDDEN
370
     0
100
AcDbLine
 10
14.1330348534
 20
11.3116277971
 30
0.0
 11
14.1330348534
 21
10.8116278398
 31
0.0
  0
LINE
  5
3B1
330
1F
100
AcDbEntity
  8
BODY
  6
HIDDEN
370
     0
100
AcDbLine
 10
14.2530348872
 20
10.8116278398
 30
0.0
 11
14.2530348872
 21
11.3116277971
 31
0.0
  0
LINE
  5
3B2
330
1F
100
AcDbEntity
  8
BODY
  6
HIDDEN
370
     0
100
AcDbLine
 10
14.1330348534
 20
12.311628005
 30
0.0
 11
14.1330348534
 21
11.8116280477
 31
0.0
  0
LINE
  5
3B3
330
1F
100
AcDbEntity
  8
BODY
  6
HIDDEN
370
     0
100
AcDbLine
 10
14.2530348872
 20
11.8116280477
 30
0.0
 11
14.2530348872
 21
12.311628005
 31
0.0
  0
LINE
  5
3B4
330
1F
100
AcDbEntity
  8
BODY
  6
HIDDEN
370
     0
100
AcDbLine
 10
14.0730348732
 20
4.006628025099999
 30
0.0
 11
14.0730348732
 21
3.5066277745
 31
0.0
  0
LINE
  5
3B5
330
1F
100
AcDbEntity
  8
BODY
  6
HIDDEN
370
     0
100
AcDbLine
 10
14.3130348674
 20
3.5066277745
 30
0.0
 11
14.3130348674
 21
4.006628025099999
 31
0.0
  0
LINE
  5
3B6
330
1F
100
AcDbEntity
  8
BODY
  6
HIDDEN
370
     0
100
AcDbLine
 10
14.0730348732
 20
5.0066279397
 30
0.0
 11
14.0730348732
 21
4.5066279824
 31
0.0
  0
LINE
  5
3B7
330
1F
100
AcDbEntity
  8
BODY
  6
HIDDEN
370
     0
100
AcDbLine
 10
14.3130348674
 20
4.5066279824
 30
0.0
 11
14.3130348674
 21
5.0066279397
 31
0.0
  0
LINE
  5
3B8
330
1F
100
AcDbEntity
  8
BODY
  6
HIDDEN
370
     0
100
AcDbLine
 10
14.1330348534
 20
4.006628025099999
 30
0.0
 11
14.1330348534
 21
3.5066277745
 31
0.0
  0
LINE
  5
3B9
330
1F
100
AcDbEntity
  8
BODY
  6
HIDDEN
370
     0
100
AcDbLine
 10
14.2530348872
 20
3.5066277745
 30
0.0
 11
14.2530348872
 21
4.006628025099999
 31
0.0
  0
LINE
  5
3BA
330
1F
100
AcDbEntity
  8
BODY
  6
HIDDEN
370
     0
100
AcDbLine
 10
14.1330348534
 20
5.0066279397
 30
0.0
 11
14.1330348534
 21
4.5066279824
 31
0.0
  0
LINE
  5
3BB
330
1F
100
AcDbEntity
  8
BODY
  6
HIDDEN
370
     0
100
AcDbLine
 10
14.2530348872
 20
4.5066279824
 30
0.0
 11
14.2530348872
 21
5.0066279397
 31
0.0
  0
LINE
  5
3BC
330
1F
100
AcDbEntity
  8
FRONT_DOOR
  6
HIDDEN
370
     0
100
AcDbLine
 10
14.3130348674
 20
3.0066278172
 30
0.0
 11
14.3130348674
 21
3.5066277745
 31
0.0
  0
LINE
  5
3BD
330
1F
100
AcDbEntity
  8
FRONT_DOOR
  6
HIDDEN
370
     0
100
AcDbLine
 10
14.0730348732
 20
3.5066277745
 30
0.0
 11
14.0730348732
 21
3.0066278172
 31
0.0
  0
LINE
  5
3BE
330
1F
100
AcDbEntity
  8
FRONT_DOOR
  6
HIDDEN
370
     0
100
AcDbLine
 10
14.3130348674
 20
4.006628025099999
 30
0.0
 11
14.3130348674
 21
4.5066279824
 31
0.0
  0
LINE
  5
3BF
330
1F
100
AcDbEntity
  8
FRONT_DOOR
  6
HIDDEN
370
     0
100
AcDbLine
 10
14.0730348732
 20
4.5066279824
 30
0.0
 11
14.0730348732
 21
4.006628025099999
 31
0.0
  0
LINE
  5
3C0
330
1F
100
AcDbEntity
  8
FRONT_DOOR
  6
HIDDEN
370
     0
100
AcDbLine
 10
14.2530348872
 20
4.006628025099999
 30
0.0
 11
14.2530348872
 21
4.5066279824
 31
0.0
  0
LINE
  5
3C1
330
1F
100
AcDbEntity
  8
FRONT_DOOR
  6
HIDDEN
370
     0
100
AcDbLine
 10
14.1330348534
 20
4.5066279824
 30
0.0
 11
14.1330348534
 21
4.006628025099999
 31
0.0
  0
LINE
  5
3C2
330
1F
100
AcDbEntity
  8
FRONT_DOOR
  6
HIDDEN
370
     0
100
AcDbLine
 10
14.2530348872
 20
3.0066278172
 30
0.0
 11
14.2530348872
 21
3.5066277745
 31
0.0
  0
LINE
  5
3C3
330
1F
100
AcDbEntity
  8
FRONT_DOOR
  6
HIDDEN
370
     0
100
AcDbLine
 10
14.1330348534
 20
3.5066277745
 30
0.0
 11
14.1330348534
 21
3.0066278172
 31
0.0
  0
LINE
  5
3C4
330
1F
100
AcDbEntity
  8
FRONT_DOOR
  6
HIDDEN
370
     0
100
AcDbLine
 10
14.3130348674
 20
11.3116277971
 30
0.0
 11
14.3130348674
 21
11.8116280477
 31
0.0
  0
LINE
  5
3C5
330
1F
100
AcDbEntity
  8
FRONT_DOOR
  6
HIDDEN
370
     0
100
AcDbLine
 10
14.0730348732
 20
11.8116280477
 30
0.0
 11
14.0730348732
 21
11.3116277971
 31
0.0
  0
LINE
  5
3C6
330
1F
100
AcDbEntity
  8
FRONT_DOOR
  6
HIDDEN
370
     0
100
AcDbLine
 10
14.3130348674
 20
10.3116278825
 30
0.0
 11
14.3130348674
 21
10.8116278398
 31
0.0
  0
LINE
  5
3C7
330
1F
100
AcDbEntity
  8
FRONT_DOOR
  6
HIDDEN
370
     0
100
AcDbLine
 10
14.0730348732
 20
10.8116278398
 30
0.0
 11
14.0730348732
 21
10.3116278825
 31
0.0
  0
LINE
  5
3C8
330
1F
100
AcDbEntity
  8
FRONT_DOOR
  6
HIDDEN
370
     0
100
AcDbLine
 10
14.2530348872
 20
10.3116278825
 30
0.0
 11
14.2530348872
 21
10.8116278398
 31
0.0
  0
LINE
  5
3C9
330
1F
100
AcDbEntity
  8
FRONT_DOOR
  6
HIDDEN
370
     0
100
AcDbLine
 10
14.1330348534
 20
10.8116278398
 30
0.0
 11
14.1330348534
 21
10.3116278825
 31
0.0
  0
LINE
  5
3CA
330
1F
100
AcDbEntity
  8
FRONT_DOOR
  6
HIDDEN
370
     0
100
AcDbLine
 10
14.2530348872
 20
11.3116277971
 30
0.0
 11
14.2530348872
 21
11.8116280477
 31
0.0
  0
LINE
  5
3CB
330
1F
100
AcDbEntity
  8
FRONT_DOOR
  6
HIDDEN
370
     0
100
AcDbLine
 10
14.1330348534
 20
11.8116280477
 30
0.0
 11
14.1330348534
 21
11.3116277971
 31
0.0
  0
LINE
  5
3CC
330
1F
100
AcDbEntity
  8
PANEL
  6
HIDDEN
370
     0
100
AcDbLine
 10
18.9010350064
 20
11.5691277825
 30
0.0
 11
18.8290348248
 21
11.5691277825
 31
0.0
  0
LINE
  5
3CD
330
1F
100
AcDbEntity
  8
PANEL
  6
HIDDEN
370
     0
100
AcDbLine
 10
18.8290348248
 20
11.3191279505
 30
0.0
 11
18.9010350064
 21
11.3191279505
 31
0.0
  0
LINE
  5
3CE
330
1F
100
AcDbEntity
  8
PANEL
  6
HIDDEN
370
     0
100
AcDbLine
 10
18.9010350064
 20
3.9441279204
 30
0.0
 11
18.8290348248
 21
3.9441279204
 31
0.0
  0
LINE
  5
3CF
330
1F
100
AcDbEntity
  8
PANEL
  6
HIDDEN
370
     0
100
AcDbLine
 10
18.8290348248
 20
3.6941277951
 30
0.0
 11
18.9010350064
 21
3.6941277951
 31
0.0
  0
LINE
  5
3D0
330
1F
100
AcDbEntity
  8
PANEL
  6
HIDDEN
370
     0
100
AcDbLine
 10
18.9010350064
 20
3.928627779499999
 30
0.0
 11
18.8290348248
 21
3.928627779499999
 31
0.0
  0
LINE
  5
3D1
330
1F
100
AcDbEntity
  8
PANEL
  6
HIDDEN
370
     0
100
AcDbLine
 10
18.8290348248
 20
3.709627936099999
 30
0.0
 11
18.9010350064
 21
3.709627936099999
 31
0.0
  0
LINE
  5
3D2
330
1F
100
AcDbEntity
  8
BODY
  6
HIDDEN
370
     0
100
AcDbLine
 10
19.3360348079
 20
4.1316279411
 30
0.0
 11
19.2310350075
 21
4.1316279411
 31
0.0
  0
LINE
  5
3D3
330
1F
100
AcDbEntity
  8
BODY
  6
HIDDEN
370
     0
100
AcDbLine
 10
19.2310350075
 20
3.5066277745
 30
0.0
 11
19.3360348079
 21
3.5066277745
 31
0.0
  0
LINE
  5
3D4
330
1F
100
AcDbEntity
  8
BODY
  6
HIDDEN
370
     0
100
AcDbLine
 10
19.2310350075
 20
4.1316279411
 30
0.0
 11
19.2010349808
 21
4.101627914299999
 31
0.0
  0
LINE
  5
3D5
330
1F
100
AcDbEntity
  8
BODY
  6
HIDDEN
370
     0
100
AcDbLine
 10
19.2010349808
 20
3.536627801199999
 30
0.0
 11
19.2310350075
 21
3.5066277745
 31
0.0
  0
LINE
  5
3D6
330
1F
100
AcDbEntity
  8
BODY
  6
HIDDEN
370
     0
100
AcDbLine
 10
19.2010349808
 20
3.969127845
 30
0.0
 11
18.9010350064
 21
3.969127845
 31
0.0
  0
LINE
  5
3D7
330
1F
100
AcDbEntity
  8
BODY
  6
HIDDEN
370
     0
100
AcDbLine
 10
18.9010350064
 20
3.6691278706
 30
0.0
 11
19.2010349808
 21
3.6691278706
 31
0.0
  0
LINE
  5
3D8
330
1F
100
AcDbEntity
  8
BODY
  6
HIDDEN
370
     0
100
AcDbLine
 10
19.3360348079
 20
3.914127893699999
 30
0.0
 11
18.9010350064
 21
3.914127893699999
 31
0.0
  0
LINE
  5
3D9
330
1F
100
AcDbEntity
  8
BODY
  6
HIDDEN
370
     0
100
AcDbLine
 10
18.9010350064
 20
3.724127821899999
 30
0.0
 11
19.3360348079
 21
3.724127821899999
 31
0.0
  0
LINE
  5
3DA
330
1F
100
AcDbEntity
  8
BODY
  6
HIDDEN
370
     0
100
AcDbLine
 10
19.3360348079
 20
11.7566278031
 30
0.0
 11
19.2310350075
 21
11.7566278031
 31
0.0
  0
LINE
  5
3DB
330
1F
100
AcDbEntity
  8
BODY
  6
HIDDEN
370
     0
100
AcDbLine
 10
19.2310350075
 20
11.1316279298
 30
0.0
 11
19.3360348079
 21
11.1316279298
 31
0.0
  0
LINE
  5
3DC
330
1F
100
AcDbEntity
  8
BODY
  6
HIDDEN
370
     0
100
AcDbLine
 10
19.2310350075
 20
11.7566278031
 30
0.0
 11
19.2010349808
 21
11.7266277763
 31
0.0
  0
LINE
  5
3DD
330
1F
100
AcDbEntity
  8
BODY
  6
HIDDEN
370
     0
100
AcDbLine
 10
19.2010349808
 20
11.1616279566
 30
0.0
 11
19.2310350075
 21
11.1316279298
 31
0.0
  0
LINE
  5
3DE
330
1F
100
AcDbEntity
  8
BODY
  6
HIDDEN
370
     0
100
AcDbLine
 10
19.2010349808
 20
11.5941280003
 30
0.0
 11
18.9010350064
 21
11.5941280003
 31
0.0
  0
LINE
  5
3DF
330
1F
100
AcDbEntity
  8
BODY
  6
HIDDEN
370
     0
100
AcDbLine
 10
18.9010350064
 20
11.2941280259
 30
0.0
 11
19.2010349808
 21
11.2941280259
 31
0.0
  0
LINE
  5
3E0
330
1F
100
AcDbEntity
  8
BODY
  6
HIDDEN
370
     0
100
AcDbLine
 10
19.3360348079
 20
11.539128049
 30
0.0
 11
18.9010350064
 21
11.539128049
 31
0.0
  0
LINE
  5
3E1
330
1F
100
AcDbEntity
  8
BODY
  6
HIDDEN
370
     0
100
AcDbLine
 10
18.9010350064
 20
11.3491279772
 30
0.0
 11
19.3360348079
 21
11.3491279772
 31
0.0
  0
LINE
  5
3E2
330
1F
100
AcDbEntity
  8
FRONT_DOOR
  6
HIDDEN
370
     0
100
AcDbLine
 10
13.4430348977
 20
12.749556706
 30
0.0
 11
13.4430348977
 21
12.311628005
 31
0.0
  0
LINE
  5
3E3
330
1F
100
AcDbEntity
  8
FRONT_DOOR
  6
HIDDEN
370
     0
100
AcDbLine
 10
13.4430348977
 20
10.3116278825
 30
0.0
 11
13.4430348977
 21
5.0066279397
 31
0.0
  0
LINE
  5
3E4
330
1F
100
AcDbEntity
  8
FRONT_DOOR
  6
HIDDEN
370
     0
100
AcDbLine
 10
13.4430348977
 20
3.0066278172
 30
0.0
 11
13.4430348977
 21
2.5136991649
 31
0.0
  0
LINE
  5
3E5
330
1F
100
AcDbEntity
  8
FRONT_DOOR
  6
HIDDEN
370
     0
100
AcDbLine
 10
13.4430348977
 20
2.5136991649
 30
0.0
 11
13.4430348977
 21
3.0066278172
 31
0.0
  0
LINE
  5
3E6
330
1F
100
AcDbEntity
  8
FRONT_DOOR
  6
HIDDEN
370
     0
100
AcDbLine
 10
13.4430348977
 20
5.0066279397
 30
0.0
 11
13.4430348977
 21
10.3116278825
 31
0.0
  0
LINE
  5
3E7
330
1F
100
AcDbEntity
  8
FRONT_DOOR
  6
HIDDEN
370
     0
100
AcDbLine
 10
13.4430348977
 20
12.311628005
 30
0.0
 11
13.4430348977
 21
12.749556706
 31
0.0
  0
ENDSEC
  0
SECTION
  2
OBJECTS
  0
DICTIONARY
  5
C
330
0
100
AcDbDictionary
281
     1
  3
ACAD_CIP_PREVIOUS_PRODUCT_INFO
350
469
  3
ACAD_COLOR
350
414
  3
ACAD_GROUP
350
D
  3
ACAD_LAYOUT
350
1A
  3
ACAD_MATERIAL
350
3EA
  3
ACAD_MLEADERSTYLE
350
439
  3
ACAD_MLINESTYLE
350
17
  3
ACAD_PLOTSETTINGS
350
19
  3
ACAD_PLOTSTYLENAME
350
E
  3
ACAD_SCALELIST
350
417
  3
ACAD_TABLESTYLE
350
415
  3
ACAD_VISUALSTYLE
350
403
  3
ACDB_RECOMPOSE_DATA
350
475
  3
AcDbVariableDictionary
350
455
  0
DICTIONARY
  5
440
330
10
100
AcDbDictionary
280
     1
281
     1
  3
ADSK_XREC_LAYER_RECONCILED
360
441
  0
DICTIONARY
  5
442
330
2F
100
AcDbDictionary
280
     1
281
     1
  3
ADSK_XREC_LAYER_RECONCILED
360
443
  0
DICTIONARY
  5
444
330
30
100
AcDbDictionary
280
     1
281
     1
  3
ADSK_XREC_LAYER_RECONCILED
360
445
  0
DICTIONARY
  5
446
330
31
100
AcDbDictionary
280
     1
281
     1
  3
ADSK_XREC_LAYER_RECONCILED
360
447
  0
DICTIONARY
  5
448
330
32
100
AcDbDictionary
280
     1
281
     1
  3
ADSK_XREC_LAYER_RECONCILED
360
449
  0
DICTIONARY
  5
44A
330
33
100
AcDbDictionary
280
     1
281
     1
  3
ADSK_XREC_LAYER_RECONCILED
360
44B
  0
DICTIONARY
  5
44C
330
34
100
AcDbDictionary
280
     1
281
     1
  3
ADSK_XREC_LAYER_RECONCILED
360
44D
  0
DICTIONARY
  5
44E
330
35
100
AcDbDictionary
280
     1
281
     1
  3
ADSK_XREC_LAYER_RECONCILED
360
44F
  0
DICTIONARY
  5
450
330
36
100
AcDbDictionary
280
     1
281
     1
  3
ADSK_XREC_LAYER_RECONCILED
360
451
  0
XRECORD
  5
469
102
{ACAD_REACTORS
330
C
102
}
330
C
100
AcDbXrecord
280
     1
300
ACAD_E
300
2012
300
ACAD_E_F_S
  0
DICTIONARY
  5
414
102
{ACAD_REACTORS
330
C
102
}
330
C
100
AcDbDictionary
281
     1
  0
DICTIONARY
  5
D
102
{ACAD_REACTORS
330
C
102
}
330
C
100
AcDbDictionary
281
     1
  0
DICTIONARY
  5
1A
102
{ACAD_REACTORS
330
C
102
}
330
C
100
AcDbDictionary
281
     1
  3
Layout1
350
1E
  3
Layout2
350
26
  3
Model
350
22
  0
DICTIONARY
  5
3EA
102
{ACAD_REACTORS
330
C
102
}
330
C
100
AcDbDictionary
281
     1
  3
ByBlock
350
3F3
  3
ByLayer
350
3EB
  3
Global
350
3FB
  0
DICTIONARY
  5
439
102
{ACAD_REACTORS
330
C
102
}
330
C
100
AcDbDictionary
281
     1
  3
Standard
350
43A
  0
DICTIONARY
  5
17
102
{ACAD_REACTORS
330
C
102
}
330
C
100
AcDbDictionary
281
     1
  3
Standard
350
18
  0
DICTIONARY
  5
19
102
{ACAD_REACTORS
330
C
102
}
330
C
100
AcDbDictionary
281
     1
  0
ACDBDICTIONARYWDFLT
  5
E
102
{ACAD_REACTORS
330
C
102
}
330
C
100
AcDbDictionary
281
     1
  3
Normal
350
F
100
AcDbDictionaryWithDefault
340
F
  0
DICTIONARY
  5
417
102
{ACAD_REACTORS
330
C
102
}
330
C
100
AcDbDictionary
281
     1
  3
A0
350
418
  3
A1
350
419
  3
A2
350
41A
  3
A3
350
41B
  3
A4
350
41C
  3
A5
350
41D
  3
A6
350
41E
  3
A7
350
41F
  3
A8
350
420
  3
A9
350
421
  3
B0
350
422
  3
B1
350
423
  3
B2
350
424
  3
B3
350
425
  3
B4
350
426
  3
B5
350
427
  3
B6
350
428
  3
B7
350
429
  3
B8
350
42A
  3
B9
350
42B
  3
C0
350
42C
  3
C1
350
42D
  3
C2
350
42E
  3
C3
350
42F
  3
C4
350
430
  3
C5
350
431
  3
C6
350
432
  3
C7
350
433
  3
C8
350
434
  3
C9
350
435
  3
D0
350
436
  3
D1
350
437
  3
D2
350
438
  0
DICTIONARY
  5
415
102
{ACAD_REACTORS
330
C
102
}
330
C
100
AcDbDictionary
281
     1
  3
Standard
350
416
  0
DICTIONARY
  5
403
102
{ACAD_REACTORS
330
C
102
}
330
C
100
AcDbDictionary
281
     1
  3
2dWireframe
350
409
  3
3D Hidden
350
40B
  3
3dWireframe
350
40A
  3
Basic
350
408
  3
Brighten
350
40F
  3
ColorChange
350
413
  3
Conceptual
350
40C
  3
Dim
350
40E
  3
EdgeColorOff
350
465
  3
Facepattern
350
412
  3
Flat
350
404
  3
FlatWithEdges
350
405
  3
Gouraud
350
406
  3
GouraudWithEdges
350
407
  3
Hidden
350
45D
  3
JitterOff
350
463
  3
Linepattern
350
411
  3
OverhangOff
350
464
  3
Realistic
350
40D
  3
Shaded
350
462
  3
Shaded with edges
350
461
  3
Shades of Gray
350
45E
  3
Sketchy
350
45F
  3
Thicken
350
410
  3
Wireframe
350
45C
  3
X-Ray
350
460
  0
XRECORD
  5
475
102
{ACAD_REACTORS
330
C
102
}
330
C
100
AcDbXrecord
280
     1
 90
        1
330
416
  0
DICTIONARY
  5
455
102
{ACAD_REACTORS
330
C
102
}
330
C
100
AcDbDictionary
281
     1
  3
CANNOSCALE
350
459
  3
CMLEADERSTYLE
350
457
  3
CTABLESTYLE
350
456
  3
LAYEREVAL
350
472
  3
LAYERNOTIFY
350
473
  3
LIGHTINGUNITS
350
45A
  3
MSLTSCALE
350
458
  0
XRECORD
  5
441
102
{ACAD_REACTORS
330
440
102
}
330
440
100
AcDbXrecord
280
     1
290
     1
  0
XRECORD
  5
443
102
{ACAD_REACTORS
330
442
102
}
330
442
100
AcDbXrecord
280
     1
290
     1
  0
XRECORD
  5
445
102
{ACAD_REACTORS
330
444
102
}
330
444
100
AcDbXrecord
280
     1
290
     1
  0
XRECORD
  5
447
102
{ACAD_REACTORS
330
446
102
}
330
446
100
AcDbXrecord
280
     1
290
     1
  0
XRECORD
  5
449
102
{ACAD_REACTORS
330
448
102
}
330
448
100
AcDbXrecord
280
     1
290
     1
  0
XRECORD
  5
44B
102
{ACAD_REACTORS
330
44A
102
}
330
44A
100
AcDbXrecord
280
     1
290
     1
  0
XRECORD
  5
44D
102
{ACAD_REACTORS
330
44C
102
}
330
44C
100
AcDbXrecord
280
     1
290
     1
  0
XRECORD
  5
44F
102
{ACAD_REACTORS
330
44E
102
}
330
44E
100
AcDbXrecord
280
     1
290
     1
  0
XRECORD
  5
451
102
{ACAD_REACTORS
330
450
102
}
330
450
100
AcDbXrecord
280
     1
290
     1
  0
LAYOUT
  5
1E
102
{ACAD_REACTORS
330
1A
102
}
330
1A
100
AcDbPlotSettings
  1

  2
none_device
  4

  6

 40
0.0
 41
0.0
 42
0.0
 43
0.0
 44
0.0
 45
0.0
 46
0.0
 47
0.0
 48
0.0
 49
0.0
140
0.0
141
0.0
142
1.0
143
1.0
 70
   688
 72
     0
 73
     0
 74
     5
  7

 75
    16
147
1.0
 76
     0
 77
     2
 78
   300
148
0.0
149
0.0
100
AcDbLayout
  1
Layout1
 70
     1
 71
     1
 10
0.0
 20
0.0
 11
12.0
 21
9.0
 12
0.0
 22
0.0
 32
0.0
 14
1.000000000000000E+20
 24
1.000000000000000E+20
 34
1.000000000000000E+20
 15
-1.000000000000000E+20
 25
-1.000000000000000E+20
 35
-1.000000000000000E+20
146
0.0
 13
0.0
 23
0.0
 33
0.0
 16
1.0
 26
0.0
 36
0.0
 17
0.0
 27
1.0
 37
0.0
 76
     0
330
1B
  0
LAYOUT
  5
26
102
{ACAD_REACTORS
330
1A
102
}
330
1A
100
AcDbPlotSettings
  1

  2
none_device
  4

  6

 40
0.0
 41
0.0
 42
0.0
 43
0.0
 44
0.0
 45
0.0
 46
0.0
 47
0.0
 48
0.0
 49
0.0
140
0.0
141
0.0
142
1.0
143
1.0
 70
   688
 72
     0
 73
     0
 74
     5
  7

 75
    16
147
1.0
 76
     0
 77
     2
 78
   300
148
0.0
149
0.0
100
AcDbLayout
  1
Layout2
 70
     1
 71
     2
 10
0.0
 20
0.0
 11
0.0
 21
0.0
 12
0.0
 22
0.0
 32
0.0
 14
0.0
 24
0.0
 34
0.0
 15
0.0
 25
0.0
 35
0.0
146
0.0
 13
0.0
 23
0.0
 33
0.0
 16
1.0
 26
0.0
 36
0.0
 17
0.0
 27
1.0
 37
0.0
 76
     0
330
23
  0
LAYOUT
  5
22
102
{ACAD_REACTORS
330
1A
102
}
330
1A
100
AcDbPlotSettings
  1

  2
none_device
  4

  6

 40
0.0
 41
0.0
 42
0.0
 43
0.0
 44
0.0
 45
0.0
 46
0.0
 47
0.0
 48
0.0
 49
0.0
140
0.0
141
0.0
142
1.0
143
1.0
 70
  1712
 72
     0
 73
     0
 74
     0
  7

 75
     0
147
1.0
 76
     0
 77
     2
 78
   300
148
0.0
149
0.0
100
AcDbLayout
  1
Model
 70
     1
 71
     0
 10
0.0
 20
0.0
 11
0.0
 21
0.0
 12
0.0
 22
0.0
 32
0.0
 14
0.0
 24
0.0
 34
0.0
 15
34.0
 25
22.0
 35
0.0
146
0.0
 13
0.0
 23
0.0
 33
0.0
 16
1.0
 26
0.0
 36
0.0
 17
0.0
 27
1.0
 37
0.0
 76
     0
330
1F
331
29
  0
MATERIAL
  5
3F3
102
{ACAD_XDICTIONARY
360
3F4
102
}
102
{ACAD_REACTORS
330
3EA
102
}
330
3EA
100
AcDbMaterial
  1
ByBlock
 72
     0
 43
0.0208333333333333
 43
0.0
 43
0.0
 43
0.0
 43
0.0
 43
0.0208333333333333
 43
0.0
 43
0.0
 43
0.0
 43
0.0
 43
1.0
 43
0.0
 43
0.0
 43
0.0
 43
0.0
 43
1.0
 77
     0
 47
0.0208333333333333
 47
0.0
 47
0.0
 47
0.0
 47
0.0
 47
0.0208333333333333
 47
0.0
 47
0.0
 47
0.0
 47
0.0
 47
1.0
 47
0.0
 47
0.0
 47
0.0
 47
0.0
 47
1.0
171
     0
 49
0.0208333333333333
 49
0.0
 49
0.0
 49
0.0
 49
0.0
 49
0.0208333333333333
 49
0.0
 49
0.0
 49
0.0
 49
0.0
 49
1.0
 49
0.0
 49
0.0
 49
0.0
 49
0.0
 49
1.0
175
     0
142
0.0208333333333333
142
0.0
142
0.0
142
0.0
142
0.0
142
0.0208333333333333
142
0.0
142
0.0
142
0.0
142
0.0
142
1.0
142
0.0
142
0.0
142
0.0
142
0.0
142
1.0
179
     0
144
0.0208333333333333
144
0.0
144
0.0
144
0.0
144
0.0
144
0.0208333333333333
144
0.0
144
0.0
144
0.0
144
0.0
144
1.0
144
0.0
144
0.0
144
0.0
144
0.0
144
1.0
147
0.0208333333333333
147
0.0
147
0.0
147
0.0
147
0.0
147
0.0208333333333333
147
0.0
147
0.0
147
0.0
147
0.0
147
1.0
147
0.0
147
0.0
147
0.0
147
0.0
147
1.0
  0
MATERIAL
  5
3EB
102
{ACAD_XDICTIONARY
360
3EC
102
}
102
{ACAD_REACTORS
330
3EA
102
}
330
3EA
100
AcDbMaterial
  1
ByLayer
 72
     0
 43
0.0208333333333333
 43
0.0
 43
0.0
 43
0.0
 43
0.0
 43
0.0208333333333333
 43
0.0
 43
0.0
 43
0.0
 43
0.0
 43
1.0
 43
0.0
 43
0.0
 43
0.0
 43
0.0
 43
1.0
 77
     0
 47
0.0208333333333333
 47
0.0
 47
0.0
 47
0.0
 47
0.0
 47
0.0208333333333333
 47
0.0
 47
0.0
 47
0.0
 47
0.0
 47
1.0
 47
0.0
 47
0.0
 47
0.0
 47
0.0
 47
1.0
171
     0
 49
0.0208333333333333
 49
0.0
 49
0.0
 49
0.0
 49
0.0
 49
0.0208333333333333
 49
0.0
 49
0.0
 49
0.0
 49
0.0
 49
1.0
 49
0.0
 49
0.0
 49
0.0
 49
0.0
 49
1.0
175
     0
142
0.0208333333333333
142
0.0
142
0.0
142
0.0
142
0.0
142
0.0208333333333333
142
0.0
142
0.0
142
0.0
142
0.0
142
1.0
142
0.0
142
0.0
142
0.0
142
0.0
142
1.0
179
     0
144
0.0208333333333333
144
0.0
144
0.0
144
0.0
144
0.0
144
0.0208333333333333
144
0.0
144
0.0
144
0.0
144
0.0
144
1.0
144
0.0
144
0.0
144
0.0
144
0.0
144
1.0
147
0.0208333333333333
147
0.0
147
0.0
147
0.0
147
0.0
147
0.0208333333333333
147
0.0
147
0.0
147
0.0
147
0.0
147
1.0
147
0.0
147
0.0
147
0.0
147
0.0
147
1.0
  0
MATERIAL
  5
3FB
102
{ACAD_XDICTIONARY
360
3FC
102
}
102
{ACAD_REACTORS
330
3EA
102
}
330
3EA
100
AcDbMaterial
  1
Global
 72
     0
 43
0.0208333333333333
 43
0.0
 43
0.0
 43
0.0
 43
0.0
 43
0.0208333333333333
 43
0.0
 43
0.0
 43
0.0
 43
0.0
 43
1.0
 43
0.0
 43
0.0
 43
0.0
 43
0.0
 43
1.0
 77
     0
 47
0.0208333333333333
 47
0.0
 47
0.0
 47
0.0
 47
0.0
 47
0.0208333333333333
 47
0.0
 47
0.0
 47
0.0
 47
0.0
 47
1.0
 47
0.0
 47
0.0
 47
0.0
 47
0.0
 47
1.0
171
     0
 49
0.0208333333333333
 49
0.0
 49
0.0
 49
0.0
 49
0.0
 49
0.0208333333333333
 49
0.0
 49
0.0
 49
0.0
 49
0.0
 49
1.0
 49
0.0
 49
0.0
 49
0.0
 49
0.0
 49
1.0
175
     0
142
0.0208333333333333
142
0.0
142
0.0
142
0.0
142
0.0
142
0.0208333333333333
142
0.0
142
0.0
142
0.0
142
0.0
142
1.0
142
0.0
142
0.0
142
0.0
142
0.0
142
1.0
179
     0
144
0.0208333333333333
144
0.0
144
0.0
144
0.0
144
0.0
144
0.0208333333333333
144
0.0
144
0.0
144
0.0
144
0.0
144
1.0
144
0.0
144
0.0
144
0.0
144
0.0
144
1.0
147
0.0208333333333333
147
0.0
147
0.0
147
0.0
147
0.0
147
0.0208333333333333
147
0.0
147
0.0
147
0.0
147
0.0
147
1.0
147
0.0
147
0.0
147
0.0
147
0.0
147
1.0
  0
MLEADERSTYLE
  5
43A
102
{ACAD_REACTORS
330
439
102
}
330
439
100
AcDbMLeaderStyle
179
     2
170
     2
171
     1
172
     0
 90
        2
 40
0.0
 41
0.0
173
     1
 91
-1056964608
340
14
 92
       -2
290
     1
 42
0.09
291
     1
 43
0.36
  3
Standard
 44
0.18
300

342
11
174
     1
178
     6
175
     1
176
     0
 93
-1056964608
 45
0.18
292
     0
297
     0
 46
0.18
 94
-1056964608
 47
1.0
 49
1.0
140
1.0
293
     1
141
0.0
294
     1
177
     0
142
1.0
295
     0
296
     0
143
0.125
271
     0
272
     9
273
     9
  0
MLINESTYLE
  5
18
102
{ACAD_REACTORS
330
17
102
}
330
17
100
AcDbMlineStyle
  2
STANDARD
 70
     0
  3

 62
   256
 51
90.0
 52
90.0
 71
     2
 49
0.5
 62
   256
  6
BYLAYER
 49
-0.5
 62
   256
  6
BYLAYER
  0
ACDBPLACEHOLDER
  5
F
102
{ACAD_REACTORS
330
E
102
}
330
E
  0
SCALE
  5
418
102
{ACAD_REACTORS
330
417
102
}
330
417
100
AcDbScale
 70
     0
300
1:1
140
1.0
141
1.0
290
     1
  0
SCALE
  5
419
102
{ACAD_REACTORS
330
417
102
}
330
417
100
AcDbScale
 70
     0
300
1:2
140
1.0
141
2.0
290
     0
  0
SCALE
  5
41A
102
{ACAD_REACTORS
330
417
102
}
330
417
100
AcDbScale
 70
     0
300
1:4
140
1.0
141
4.0
290
     0
  0
SCALE
  5
41B
102
{ACAD_REACTORS
330
417
102
}
330
417
100
AcDbScale
 70
     0
300
1:5
140
1.0
141
5.0
290
     0
  0
SCALE
  5
41C
102
{ACAD_REACTORS
330
417
102
}
330
417
100
AcDbScale
 70
     0
300
1:8
140
1.0
141
8.0
290
     0
  0
SCALE
  5
41D
102
{ACAD_REACTORS
330
417
102
}
330
417
100
AcDbScale
 70
     0
300
1:10
140
1.0
141
10.0
290
     0
  0
SCALE
  5
41E
102
{ACAD_REACTORS
330
417
102
}
330
417
100
AcDbScale
 70
     0
300
1:16
140
1.0
141
16.0
290
     0
  0
SCALE
  5
41F
102
{ACAD_REACTORS
330
417
102
}
330
417
100
AcDbScale
 70
     0
300
1:20
140
1.0
141
20.0
290
     0
  0
SCALE
  5
420
102
{ACAD_REACTORS
330
417
102
}
330
417
100
AcDbScale
 70
     0
300
1:30
140
1.0
141
30.0
290
     0
  0
SCALE
  5
421
102
{ACAD_REACTORS
330
417
102
}
330
417
100
AcDbScale
 70
     0
300
1:40
140
1.0
141
40.0
290
     0
  0
SCALE
  5
422
102
{ACAD_REACTORS
330
417
102
}
330
417
100
AcDbScale
 70
     0
300
1:50
140
1.0
141
50.0
290
     0
  0
SCALE
  5
423
102
{ACAD_REACTORS
330
417
102
}
330
417
100
AcDbScale
 70
     0
300
1:100
140
1.0
141
100.0
290
     0
  0
SCALE
  5
424
102
{ACAD_REACTORS
330
417
102
}
330
417
100
AcDbScale
 70
     0
300
2:1
140
2.0
141
1.0
290
     0
  0
SCALE
  5
425
102
{ACAD_REACTORS
330
417
102
}
330
417
100
AcDbScale
 70
     0
300
4:1
140
4.0
141
1.0
290
     0
  0
SCALE
  5
426
102
{ACAD_REACTORS
330
417
102
}
330
417
100
AcDbScale
 70
     0
300
8:1
140
8.0
141
1.0
290
     0
  0
SCALE
  5
427
102
{ACAD_REACTORS
330
417
102
}
330
417
100
AcDbScale
 70
     0
300
10:1
140
10.0
141
1.0
290
     0
  0
SCALE
  5
428
102
{ACAD_REACTORS
330
417
102
}
330
417
100
AcDbScale
 70
     0
300
100:1
140
100.0
141
1.0
290
     0
  0
SCALE
  5
429
102
{ACAD_REACTORS
330
417
102
}
330
417
100
AcDbScale
 70
     0
300
1/128" = 1'-0"
140
0.0078125
141
12.0
290
     0
  0
SCALE
  5
42A
102
{ACAD_REACTORS
330
417
102
}
330
417
100
AcDbScale
 70
     0
300
1/64" = 1'-0"
140
0.015625
141
12.0
290
     0
  0
SCALE
  5
42B
102
{ACAD_REACTORS
330
417
102
}
330
417
100
AcDbScale
 70
     0
300
1/32" = 1'-0"
140
0.03125
141
12.0
290
     0
  0
SCALE
  5
42C
102
{ACAD_REACTORS
330
417
102
}
330
417
100
AcDbScale
 70
     0
300
1/16" = 1'-0"
140
0.0625
141
12.0
290
     0
  0
SCALE
  5
42D
102
{ACAD_REACTORS
330
417
102
}
330
417
100
AcDbScale
 70
     0
300
3/32" = 1'-0"
140
0.09375
141
12.0
290
     0
  0
SCALE
  5
42E
102
{ACAD_REACTORS
330
417
102
}
330
417
100
AcDbScale
 70
     0
300
1/8" = 1'-0"
140
0.125
141
12.0
290
     0
  0
SCALE
  5
42F
102
{ACAD_REACTORS
330
417
102
}
330
417
100
AcDbScale
 70
     0
300
3/16" = 1'-0"
140
0.1875
141
12.0
290
     0
  0
SCALE
  5
430
102
{ACAD_REACTORS
330
417
102
}
330
417
100
AcDbScale
 70
     0
300
1/4" = 1'-0"
140
0.25
141
12.0
290
     0
  0
SCALE
  5
431
102
{ACAD_REACTORS
330
417
102
}
330
417
100
AcDbScale
 70
     0
300
3/8" = 1'-0"
140
0.375
141
12.0
290
     0
  0
SCALE
  5
432
102
{ACAD_REACTORS
330
417
102
}
330
417
100
AcDbScale
 70
     0
300
1/2" = 1'-0"
140
0.5
141
12.0
290
     0
  0
SCALE
  5
433
102
{ACAD_REACTORS
330
417
102
}
330
417
100
AcDbScale
 70
     0
300
3/4" = 1'-0"
140
0.75
141
12.0
290
     0
  0
SCALE
  5
434
102
{ACAD_REACTORS
330
417
102
}
330
417
100
AcDbScale
 70
     0
300
1" = 1'-0"
140
1.0
141
12.0
290
     0
  0
SCALE
  5
435
102
{ACAD_REACTORS
330
417
102
}
330
417
100
AcDbScale
 70
     0
300
1-1/2" = 1'-0"
140
1.5
141
12.0
290
     0
  0
SCALE
  5
436
102
{ACAD_REACTORS
330
417
102
}
330
417
100
AcDbScale
 70
     0
300
3" = 1'-0"
140
3.0
141
12.0
290
     0
  0
SCALE
  5
437
102
{ACAD_REACTORS
330
417
102
}
330
417
100
AcDbScale
 70
     0
300
6" = 1'-0"
140
6.0
141
12.0
290
     0
  0
SCALE
  5
438
102
{ACAD_REACTORS
330
417
102
}
330
417
100
AcDbScale
 70
     0
300
1'-0" = 1'-0"
140
12.0
141
12.0
290
     0
  0
TABLESTYLE
  5
416
102
{ACAD_XDICTIONARY
360
452
102
}
102
{ACAD_REACTORS
330
415
102
}
330
415
100
AcDbTableStyle
280
     0
  3
Standard
 70
     0
 71
     0
 40
0.06
 41
0.06
280
     0
281
     0
  7
Standard
140
0.18
170
     2
 62
     0
 63
     7
283
     0
 90
      512
 91
        0
  1

274
    -2
284
     1
 64
     0
275
    -2
285
     1
 65
     0
276
    -2
286
     1
 66
     0
277
    -2
287
     1
 67
     0
278
    -2
288
     1
 68
     0
279
    -2
289
     1
 69
     0
  7
Standard
140
0.25
170
     5
 62
     0
 63
     7
283
     0
 90
      512
 91
        0
  1

274
    -2
284
     1
 64
     0
275
    -2
285
     1
 65
     0
276
    -2
286
     1
 66
     0
277
    -2
287
     1
 67
     0
278
    -2
288
     1
 68
     0
279
    -2
289
     1
 69
     0
  7
Standard
140
0.18
170
     5
 62
     0
 63
     7
283
     0
 90
      512
 91
        0
  1

274
    -2
284
     1
 64
     0
275
    -2
285
     1
 65
     0
276
    -2
286
     1
 66
     0
277
    -2
287
     1
 67
     0
278
    -2
288
     1
 68
     0
279
    -2
289
     1
 69
     0
  0
VISUALSTYLE
  5
409
102
{ACAD_REACTORS
330
403
102
}
330
403
100
AcDbVisualStyle
  2
2dWireframe
 70
     4
177
     2
291
     0
 71
     0
176
     1
 72
     2
176
     1
 73
     0
176
     1
 90
        0
176
     1
 40
0.6
176
     1
 41
30.0
176
     1
 63
     7
421
 16777215
176
     1
 74
     1
176
     1
 91
        4
176
     1
 64
     7
176
     1
 65
   257
176
     1
 75
     1
176
     1
175
     1
176
     1
 42
1.0
176
     1
 92
        0
176
     1
 66
   257
176
     1
 43
1.0
176
     1
 76
     1
176
     1
 77
     6
176
     1
 78
     2
176
     1
 67
     7
176
     1
 79
     5
176
     1
170
     0
176
     1
171
     0
176
     1
290
     0
176
     1
 93
        1
176
     1
 44
0.0
176
     1
173
     0
176
     1
  0
VISUALSTYLE
  5
40B
102
{ACAD_REACTORS
330
403
102
}
330
403
100
AcDbVisualStyle
  2
3D Hidden
 70
     6
177
     2
291
     0
 71
     1
176
     1
 72
     2
176
     1
 73
     2
176
     1
 90
        0
176
     1
 40
0.6
176
     1
 41
30.0
176
     1
 63
     7
421
 16777215
176
     1
 74
     2
176
     1
 91
        2
176
     1
 64
     7
176
     1
 65
   257
176
     1
 75
     2
176
     1
175
     1
176
     1
 42
40.0
176
     1
 92
        0
176
     1
 66
   257
176
     1
 43
1.0
176
     1
 76
     1
176
     1
 77
     6
176
     1
 78
     2
176
     1
 67
     7
176
     1
 79
     3
176
     1
170
     0
176
     1
171
     0
176
     1
290
     0
176
     1
 93
        1
176
     1
 44
0.0
176
     1
173
     0
176
     1
  0
VISUALSTYLE
  5
40A
102
{ACAD_REACTORS
330
403
102
}
330
403
100
AcDbVisualStyle
  2
3dWireframe
 70
     5
177
     2
291
     0
 71
     0
176
     1
 72
     2
176
     1
 73
     0
176
     1
 90
        0
176
     1
 40
0.6
176
     1
 41
30.0
176
     1
 63
     7
421
 16777215
176
     1
 74
     1
176
     1
 91
        4
176
     1
 64
     7
176
     1
 65
   257
176
     1
 75
     1
176
     1
175
     1
176
     1
 42
1.0
176
     1
 92
        0
176
     1
 66
   257
176
     1
 43
1.0
176
     1
 76
     1
176
     1
 77
     6
176
     1
 78
     2
176
     1
 67
     7
176
     1
 79
     5
176
     1
170
     0
176
     1
171
     0
176
     1
290
     0
176
     1
 93
        1
176
     1
 44
0.0
176
     1
173
     0
176
     1
  0
VISUALSTYLE
  5
408
102
{ACAD_REACTORS
330
403
102
}
330
403
100
AcDbVisualStyle
  2
Basic
 70
     7
177
     2
291
     1
 71
     1
176
     1
 72
     0
176
     1
 73
     1
176
     1
 90
        0
176
     1
 40
0.6
176
     1
 41
30.0
176
     1
 63
     7
421
 16777215
176
     1
 74
     0
176
     1
 91
        4
176
     1
 64
     7
176
     1
 65
   257
176
     1
 75
     1
176
     1
175
     1
176
     1
 42
1.0
176
     1
 92
        8
176
     1
 66
     7
176
     1
 43
1.0
176
     1
 76
     1
176
     1
 77
     6
176
     1
 78
     2
176
     1
 67
     7
176
     1
 79
     5
176
     1
170
     0
176
     1
171
     0
176
     1
290
     0
176
     1
 93
        1
176
     1
 44
0.0
176
     1
173
     0
176
     1
  0
VISUALSTYLE
  5
40F
102
{ACAD_REACTORS
330
403
102
}
330
403
100
AcDbVisualStyle
  2
Brighten
 70
    12
177
     2
291
     1
 71
     2
176
     1
 72
     2
176
     1
 73
     0
176
     1
 90
        0
176
     1
 40
0.6
176
     1
 41
30.0
176
     1
 63
     7
421
 16777215
176
     1
 74
     1
176
     1
 91
        4
176
     1
 64
     7
176
     1
 65
   257
176
     1
 75
     1
176
     1
175
     1
176
     1
 42
1.0
176
     1
 92
        8
176
     1
 66
     7
176
     1
 43
1.0
176
     1
 76
     1
176
     1
 77
     6
176
     1
 78
     2
176
     1
 67
     7
176
     1
 79
     5
176
     1
170
     0
176
     1
171
     0
176
     1
290
     0
176
     1
 93
        1
176
     1
 44
50.0
176
     1
173
     0
176
     1
  0
VISUALSTYLE
  5
413
102
{ACAD_REACTORS
330
403
102
}
330
403
100
AcDbVisualStyle
  2
ColorChange
 70
    16
177
     2
291
     1
 71
     2
176
     1
 72
     2
176
     1
 73
     3
176
     1
 90
        0
176
     1
 40
0.6
176
     1
 41
30.0
176
     1
 63
     8
421
  8421504
176
     1
 74
     1
176
     1
 91
        4
176
     1
 64
     7
176
     1
 65
   257
176
     1
 75
     1
176
     1
175
     1
176
     1
 42
1.0
176
     1
 92
        8
176
     1
 66
     8
424
  8421504
176
     1
 43
1.0
176
     1
 76
     1
176
     1
 77
     6
176
     1
 78
     2
176
     1
 67
     7
176
     1
 79
     5
176
     1
170
     0
176
     1
171
     0
176
     1
290
     0
176
     1
 93
        1
176
     1
 44
0.0
176
     1
173
     0
176
     1
  0
VISUALSTYLE
  5
40C
102
{ACAD_REACTORS
330
403
102
}
330
403
100
AcDbVisualStyle
  2
Conceptual
 70
     9
177
     2
291
     0
 71
     3
176
     1
 72
     2
176
     1
 73
     0
176
     1
 90
        0
176
     1
 40
0.6
176
     1
 41
30.0
176
     1
 63
     7
421
 16777215
176
     1
 74
     2
176
     1
 91
        2
176
     1
 64
     7
176
     1
 65
   257
176
     1
 75
     1
176
     1
175
     1
176
     1
 42
40.0
176
     1
 92
        8
176
     1
 66
     7
176
     1
 43
1.0
176
     1
 76
     1
176
     1
 77
     6
176
     1
 78
     2
176
     1
 67
     7
176
     1
 79
     3
176
     1
170
     0
176
     1
171
     0
176
     1
290
     0
176
     1
 93
        1
176
     1
 44
0.0
176
     1
173
     0
176
     1
  0
VISUALSTYLE
  5
40E
102
{ACAD_REACTORS
330
403
102
}
330
403
100
AcDbVisualStyle
  2
Dim
 70
    11
177
     2
291
     1
 71
     2
176
     1
 72
     2
176
     1
 73
     0
176
     1
 90
        0
176
     1
 40
0.6
176
     1
 41
30.0
176
     1
 63
     7
421
 16777215
176
     1
 74
     1
176
     1
 91
        4
176
     1
 64
     7
176
     1
 65
   257
176
     1
 75
     1
176
     1
175
     1
176
     1
 42
1.0
176
     1
 92
        8
176
     1
 66
     7
176
     1
 43
1.0
176
     1
 76
     1
176
     1
 77
     6
176
     1
 78
     2
176
     1
 67
     7
176
     1
 79
     5
176
     1
170
     0
176
     1
171
     0
176
     1
290
     0
176
     1
 93
        1
176
     1
 44
-50.0
176
     1
173
     0
176
     1
  0
VISUALSTYLE
  5
465
102
{ACAD_REACTORS
330
403
102
}
330
403
100
AcDbVisualStyle
  2
EdgeColorOff
 70
    22
177
     2
291
     1
 71
     2
176
     0
 72
     2
176
     0
 73
     0
176
     0
 90
        0
176
     0
 40
0.6
176
     0
 41
30.0
176
     0
 63
     7
421
 16777215
176
     0
 74
     1
176
     0
 91
        4
176
     0
 64
     7
176
     0
 65
   257
176
     0
 75
     1
176
     0
175
     1
176
     0
 42
1.0
176
     0
 92
        8
176
     2
 66
     7
176
     0
 43
1.0
176
     0
 76
     1
176
     0
 77
     6
176
     0
 78
     2
176
     0
 67
     7
176
     0
 79
     5
176
     0
170
     0
176
     0
171
     0
176
     0
290
     0
176
     0
 93
        1
176
     0
 44
0.0
176
     0
173
     0
176
     0
  0
VISUALSTYLE
  5
412
102
{ACAD_REACTORS
330
403
102
}
330
403
100
AcDbVisualStyle
  2
Facepattern
 70
    15
177
     2
291
     1
 71
     2
176
     1
 72
     2
176
     1
 73
     0
176
     1
 90
        0
176
     1
 40
0.6
176
     1
 41
30.0
176
     1
 63
     7
421
 16777215
176
     1
 74
     1
176
     1
 91
        4
176
     1
 64
     7
176
     1
 65
   257
176
     1
 75
     1
176
     1
175
     1
176
     1
 42
1.0
176
     1
 92
        8
176
     1
 66
     7
176
     1
 43
1.0
176
     1
 76
     1
176
     1
 77
     6
176
     1
 78
     2
176
     1
 67
     7
176
     1
 79
     5
176
     1
170
     0
176
     1
171
     0
176
     1
290
     0
176
     1
 93
        1
176
     1
 44
0.0
176
     1
173
     0
176
     1
  0
VISUALSTYLE
  5
404
102
{ACAD_REACTORS
330
403
102
}
330
403
100
AcDbVisualStyle
  2
Flat
 70
     0
177
     2
291
     1
 71
     2
176
     1
 72
     1
176
     1
 73
     1
176
     1
 90
        2
176
     1
 40
0.6
176
     1
 41
30.0
176
     1
 63
     7
421
 16777215
176
     1
 74
     0
176
     1
 91
        4
176
     1
 64
     7
176
     1
 65
   257
176
     1
 75
     1
176
     1
175
     1
176
     1
 42
1.0
176
     1
 92
        8
176
     1
 66
     7
176
     1
 43
1.0
176
     1
 76
     1
176
     1
 77
     6
176
     1
 78
     2
176
     1
 67
     7
176
     1
 79
     5
176
     1
170
     0
176
     1
171
     0
176
     1
290
     0
176
     1
 93
       13
176
     1
 44
0.0
176
     1
173
     0
176
     1
  0
VISUALSTYLE
  5
405
102
{ACAD_REACTORS
330
403
102
}
330
403
100
AcDbVisualStyle
  2
FlatWithEdges
 70
     1
177
     2
291
     1
 71
     2
176
     1
 72
     1
176
     1
 73
     1
176
     1
 90
        2
176
     1
 40
0.6
176
     1
 41
30.0
176
     1
 63
     7
421
 16777215
176
     1
 74
     1
176
     1
 91
        4
176
     1
 64
     7
176
     1
 65
   257
176
     1
 75
     1
176
     1
175
     1
176
     1
 42
1.0
176
     1
 92
        0
176
     1
 66
   257
176
     1
 43
1.0
176
     1
 76
     1
176
     1
 77
     6
176
     1
 78
     2
176
     1
 67
     7
176
     1
 79
     5
176
     1
170
     0
176
     1
171
     0
176
     1
290
     0
176
     1
 93
       13
176
     1
 44
0.0
176
     1
173
     0
176
     1
  0
VISUALSTYLE
  5
406
102
{ACAD_REACTORS
330
403
102
}
330
403
100
AcDbVisualStyle
  2
Gouraud
 70
     2
177
     2
291
     1
 71
     2
176
     1
 72
     2
176
     1
 73
     1
176
     1
 90
        2
176
     1
 40
0.6
176
     1
 41
30.0
176
     1
 63
     7
421
 16777215
176
     1
 74
     0
176
     1
 91
        4
176
     1
 64
     7
176
     1
 65
   257
176
     1
 75
     1
176
     1
175
     1
176
     1
 42
1.0
176
     1
 92
        0
176
     1
 66
     7
176
     1
 43
1.0
176
     1
 76
     1
176
     1
 77
     6
176
     1
 78
     2
176
     1
 67
     7
176
     1
 79
     5
176
     1
170
     0
176
     1
171
     0
176
     1
290
     0
176
     1
 93
       13
176
     1
 44
0.0
176
     1
173
     0
176
     1
  0
VISUALSTYLE
  5
407
102
{ACAD_REACTORS
330
403
102
}
330
403
100
AcDbVisualStyle
  2
GouraudWithEdges
 70
     3
177
     2
291
     1
 71
     2
176
     1
 72
     2
176
     1
 73
     1
176
     1
 90
        2
176
     1
 40
0.6
176
     1
 41
30.0
176
     1
 63
     7
421
 16777215
176
     1
 74
     1
176
     1
 91
        4
176
     1
 64
     7
176
     1
 65
   257
176
     1
 75
     1
176
     1
175
     1
176
     1
 42
1.0
176
     1
 92
        0
176
     1
 66
   257
176
     1
 43
1.0
176
     1
 76
     1
176
     1
 77
     6
176
     1
 78
     2
176
     1
 67
     7
176
     1
 79
     5
176
     1
170
     0
176
     1
171
     0
176
     1
290
     0
176
     1
 93
       13
176
     1
 44
0.0
176
     1
173
     0
176
     1
  0
VISUALSTYLE
  5
45D
102
{ACAD_REACTORS
330
403
102
}
330
403
100
AcDbVisualStyle
  2
Hidden
 70
     6
177
     2
291
     0
 71
     1
176
     1
 72
     2
176
     1
 73
     2
176
     1
 90
        0
176
     1
 40
0.6
176
     1
 41
30.0
176
     1
 63
     7
421
 16777215
176
     1
 74
     2
176
     1
 91
        2
176
     1
 64
     7
176
     1
 65
   257
176
     1
 75
     2
176
     1
175
     1
176
     1
 42
40.0
176
     1
 92
        0
176
     1
 66
   257
176
     1
 43
1.0
176
     1
 76
     1
176
     1
 77
     6
176
     1
 78
     2
176
     1
 67
     7
176
     1
 79
     3
176
     1
170
     0
176
     1
171
     0
176
     1
290
     0
176
     1
 93
        1
176
     1
 44
0.0
176
     1
173
     0
176
     1
  0
VISUALSTYLE
  5
463
102
{ACAD_REACTORS
330
403
102
}
330
403
100
AcDbVisualStyle
  2
JitterOff
 70
    20
177
     2
291
     1
 71
     2
176
     0
 72
     2
176
     0
 73
     0
176
     0
 90
        0
176
     0
 40
0.6
176
     0
 41
30.0
176
     0
 63
     7
421
 16777215
176
     0
 74
     1
176
     0
 91
        4
176
     0
 64
     7
176
     0
 65
   257
176
     0
 75
     1
176
     0
175
     1
176
     0
 42
1.0
176
     0
 92
       10
176
     2
 66
     7
176
     0
 43
1.0
176
     0
 76
     1
176
     0
 77
     6
176
     0
 78
     2
176
     0
 67
     7
176
     0
 79
     5
176
     0
170
     0
176
     0
171
     0
176
     0
290
     0
176
     0
 93
        1
176
     0
 44
0.0
176
     0
173
     0
176
     0
  0
VISUALSTYLE
  5
411
102
{ACAD_REACTORS
330
403
102
}
330
403
100
AcDbVisualStyle
  2
Linepattern
 70
    14
177
     2
291
     1
 71
     2
176
     1
 72
     2
176
     1
 73
     0
176
     1
 90
        0
176
     1
 40
0.6
176
     1
 41
30.0
176
     1
 63
     7
421
 16777215
176
     1
 74
     1
176
     1
 91
        4
176
     1
 64
     7
176
     1
 65
   257
176
     1
 75
     7
176
     1
175
     7
176
     1
 42
1.0
176
     1
 92
        8
176
     1
 66
     7
176
     1
 43
1.0
176
     1
 76
     1
176
     1
 77
     6
176
     1
 78
     2
176
     1
 67
     7
176
     1
 79
     5
176
     1
170
     0
176
     1
171
     0
176
     1
290
     0
176
     1
 93
        1
176
     1
 44
0.0
176
     1
173
     0
176
     1
  0
VISUALSTYLE
  5
464
102
{ACAD_REACTORS
330
403
102
}
330
403
100
AcDbVisualStyle
  2
OverhangOff
 70
    21
177
     2
291
     1
 71
     2
176
     0
 72
     2
176
     0
 73
     0
176
     0
 90
        0
176
     0
 40
0.6
176
     0
 41
30.0
176
     0
 63
     7
421
 16777215
176
     0
 74
     1
176
     0
 91
        4
176
     0
 64
     7
176
     0
 65
   257
176
     0
 75
     1
176
     0
175
     1
176
     0
 42
1.0
176
     0
 92
        9
176
     2
 66
     7
176
     0
 43
1.0
176
     0
 76
     1
176
     0
 77
     6
176
     0
 78
     2
176
     0
 67
     7
176
     0
 79
     5
176
     0
170
     0
176
     0
171
     0
176
     0
290
     0
176
     0
 93
        1
176
     0
 44
0.0
176
     0
173
     0
176
     0
  0
VISUALSTYLE
  5
40D
102
{ACAD_REACTORS
330
403
102
}
330
403
100
AcDbVisualStyle
  2
Realistic
 70
     8
177
     2
291
     0
 71
     2
176
     1
 72
     2
176
     1
 73
     0
176
     1
 90
        0
176
     1
 40
0.6
176
     1
 41
30.0
176
     1
 63
     7
421
 16777215
176
     1
 74
     1
176
     1
 91
        0
176
     1
 64
     7
176
     1
 65
   257
176
     1
 75
     1
176
     1
175
     1
176
     1
 42
1.0
176
     1
 92
        8
176
     1
 66
     8
424
  7895160
176
     1
 43
1.0
176
     1
 76
     1
176
     1
 77
     6
176
     1
 78
     2
176
     1
 67
     7
176
     1
 79
     5
176
     1
170
     0
176
     1
171
     0
176
     1
290
     0
176
     1
 93
       13
176
     1
 44
0.0
176
     1
173
     0
176
     1
  0
VISUALSTYLE
  5
462
102
{ACAD_REACTORS
330
403
102
}
330
403
100
AcDbVisualStyle
  2
Shaded
 70
    27
177
     2
291
     0
 71
     2
176
     1
 72
     2
176
     1
 73
     1
176
     1
 90
        2
176
     1
 40
0.6
176
     1
 41
30.0
176
     1
 63
     7
421
 16777215
176
     1
 74
     0
176
     1
 91
        4
176
     1
 64
     7
176
     1
 65
   257
176
     1
 75
     1
176
     1
175
     1
176
     1
 42
1.0
176
     1
 92
        8
176
     1
 66
   257
176
     1
 43
1.0
176
     1
 76
     1
176
     1
 77
     6
176
     1
 78
     2
176
     1
 67
     8
425
  7895160
176
     1
 79
     3
176
     1
170
     0
176
     1
171
     0
176
     1
290
     0
176
     1
 93
        5
176
     1
 44
0.0
176
     1
173
     0
176
     1
  0
VISUALSTYLE
  5
461
102
{ACAD_REACTORS
330
403
102
}
330
403
100
AcDbVisualStyle
  2
Shaded with edges
 70
    26
177
     2
291
     0
 71
     2
176
     1
 72
     2
176
     1
 73
     1
176
     1
 90
        2
176
     1
 40
0.6
176
     1
 41
30.0
176
     1
 63
     7
421
 16777215
176
     1
 74
     1
176
     1
 91
       10
176
     1
 64
     7
176
     1
 65
   257
176
     1
 75
     2
176
     1
175
     1
176
     1
 42
1.0
176
     1
 92
        8
176
     1
 66
   257
176
     1
 43
1.0
176
     1
 76
     1
176
     1
 77
     6
176
     1
 78
     2
176
     1
 67
     7
176
     1
 79
     3
176
     1
170
     0
176
     1
171
     0
176
     1
290
     0
176
     1
 93
        5
176
     1
 44
0.0
176
     1
173
     0
176
     1
  0
VISUALSTYLE
  5
45E
102
{ACAD_REACTORS
330
403
102
}
330
403
100
AcDbVisualStyle
  2
Shades of Gray
 70
    23
177
     2
291
     0
 71
     2
176
     1
 72
     2
176
     1
 73
     3
176
     1
 90
        0
176
     1
 40
0.6
176
     1
 41
30.0
176
     1
 63
     7
421
 16777215
176
     1
 74
     2
176
     1
 91
        2
176
     1
 64
     7
176
     1
 65
     7
176
     1
 75
     1
176
     1
175
     1
176
     1
 42
40.0
176
     1
 92
        8
176
     1
 66
     7
176
     1
 43
1.0
176
     1
 76
     1
176
     1
 77
     6
176
     1
 78
     2
176
     1
 67
     7
176
     1
 79
     3
176
     1
170
     0
176
     1
171
     0
176
     1
290
     0
176
     1
 93
        1
176
     1
 44
0.0
176
     1
173
     0
176
     1
  0
VISUALSTYLE
  5
45F
102
{ACAD_REACTORS
330
403
102
}
330
403
100
AcDbVisualStyle
  2
Sketchy
 70
    24
177
     2
291
     0
 71
     1
176
     1
 72
     2
176
     1
 73
     2
176
     1
 90
        0
176
     1
 40
0.6
176
     1
 41
30.0
176
     1
 63
     7
421
 16777215
176
     1
 74
     2
176
     1
 91
        2
176
     1
 64
     7
176
     1
 65
     7
176
     1
 75
     1
176
     1
175
     1
176
     1
 42
40.0
176
     1
 92
       11
176
     1
 66
     7
176
     1
 43
1.0
176
     1
 76
     1
176
     1
 77
     6
176
     1
 78
     2
176
     1
 67
     7
176
     1
 79
     6
176
     1
170
     0
176
     1
171
     0
176
     1
290
     0
176
     1
 93
        1
176
     1
 44
0.0
176
     1
173
     0
176
     1
  0
VISUALSTYLE
  5
410
102
{ACAD_REACTORS
330
403
102
}
330
403
100
AcDbVisualStyle
  2
Thicken
 70
    13
177
     2
291
     1
 71
     2
176
     1
 72
     2
176
     1
 73
     0
176
     1
 90
        0
176
     1
 40
0.6
176
     1
 41
30.0
176
     1
 63
     7
421
 16777215
176
     1
 74
     1
176
     1
 91
        4
176
     1
 64
     7
176
     1
 65
   257
176
     1
 75
     1
176
     1
175
     1
176
     1
 42
1.0
176
     1
 92
       12
176
     1
 66
     7
176
     1
 43
1.0
176
     1
 76
     1
176
     1
 77
     6
176
     1
 78
     2
176
     1
 67
     7
176
     1
 79
     5
176
     1
170
     0
176
     1
171
     0
176
     1
290
     0
176
     1
 93
        1
176
     1
 44
0.0
176
     1
173
     0
176
     1
  0
VISUALSTYLE
  5
45C
102
{ACAD_REACTORS
330
403
102
}
330
403
100
AcDbVisualStyle
  2
Wireframe
 70
     5
177
     2
291
     0
 71
     0
176
     1
 72
     2
176
     1
 73
     0
176
     1
 90
        0
176
     1
 40
0.6
176
     1
 41
30.0
176
     1
 63
     7
421
 16777215
176
     1
 74
     1
176
     1
 91
        4
176
     1
 64
     7
176
     1
 65
   257
176
     1
 75
     1
176
     1
175
     1
176
     1
 42
1.0
176
     1
 92
        0
176
     1
 66
   257
176
     1
 43
1.0
176
     1
 76
     1
176
     1
 77
     6
176
     1
 78
     2
176
     1
 67
     7
176
     1
 79
     3
176
     1
170
     0
176
     1
171
     0
176
     1
290
     0
176
     1
 93
        1
176
     1
 44
0.0
176
     1
173
     0
176
     1
  0
VISUALSTYLE
  5
460
102
{ACAD_REACTORS
330
403
102
}
330
403
100
AcDbVisualStyle
  2
X-Ray
 70
    25
177
     2
291
     0
 71
     2
176
     1
 72
     2
176
     1
 73
     1
176
     1
 90
        1
176
     1
 40
0.5
176
     1
 41
30.0
176
     1
 63
     7
421
 16777215
176
     1
 74
     1
176
     1
 91
        0
176
     1
 64
     7
176
     1
 65
   257
176
     1
 75
     1
176
     1
175
     1
176
     1
 42
1.0
176
     1
 92
        8
176
     1
 66
     7
176
     1
 43
1.0
176
     1
 76
     1
176
     1
 77
     6
176
     1
 78
     2
176
     1
 67
     7
176
     1
 79
     3
176
     1
170
     0
176
     1
171
     0
176
     1
290
     0
176
     1
 93
       13
176
     1
 44
0.0
176
     1
173
     0
176
     1
  0
DICTIONARYVAR
  5
459
102
{ACAD_REACTORS
330
455
102
}
330
455
100
DictionaryVariables
280
     0
  1
1:1
  0
DICTIONARYVAR
  5
457
102
{ACAD_REACTORS
330
455
102
}
330
455
100
DictionaryVariables
280
     0
  1
STANDARD
  0
DICTIONARYVAR
  5
456
102
{ACAD_REACTORS
330
455
102
}
330
455
100
DictionaryVariables
280
     0
  1
STANDARD
  0
DICTIONARYVAR
  5
472
102
{ACAD_REACTORS
330
455
102
}
330
455
100
DictionaryVariables
280
     0
  1
1
  0
DICTIONARYVAR
  5
473
102
{ACAD_REACTORS
330
455
102
}
330
455
100
DictionaryVariables
280
     0
  1
15
  0
DICTIONARYVAR
  5
45A
102
{ACAD_REACTORS
330
455
102
}
330
455
100
DictionaryVariables
280
     0
  1
0
  0
DICTIONARYVAR
  5
458
102
{ACAD_REACTORS
330
455
102
}
330
455
100
DictionaryVariables
280
     0
  1
0
  0
DICTIONARY
  5
3F4
330
3F3
100
AcDbDictionary
280
     1
281
     1
  3
BUMPTILE
360
3F6
  3
DIFFUSETILE
360
3F5
  3
OPACITYTILE
360
3F9
  3
REFLECTIONTILE
360
3F8
  3
REFRACTIONTILE
360
3FA
  3
SPECULARTILE
360
3F7
  0
DICTIONARY
  5
3EC
330
3EB
100
AcDbDictionary
280
     1
281
     1
  3
BUMPTILE
360
3EE
  3
DIFFUSETILE
360
3ED
  3
OPACITYTILE
360
3F1
  3
REFLECTIONTILE
360
3F0
  3
REFRACTIONTILE
360
3F2
  3
SPECULARTILE
360
3EF
  0
DICTIONARY
  5
3FC
330
3FB
100
AcDbDictionary
280
     1
281
     1
  3
BUMPTILE
360
3FE
  3
DIFFUSETILE
360
3FD
  3
OPACITYTILE
360
401
  3
REFLECTIONTILE
360
400
  3
REFRACTIONTILE
360
402
  3
SPECULARTILE
360
3FF
  0
DICTIONARY
  5
452
330
416
100
AcDbDictionary
280
     1
281
     1
  3
ACAD_ROUNDTRIP_2008_TABLESTYLE_CELLSTYLEMAP
360
474
  0
XRECORD
  5
3F6
102
{ACAD_REACTORS
330
3F4
102
}
330
3F4
100
AcDbXrecord
280
     1
270
     1
271
     1
  0
XRECORD
  5
3F5
102
{ACAD_REACTORS
330
3F4
102
}
330
3F4
100
AcDbXrecord
280
     1
270
     1
271
     1
  0
XRECORD
  5
3F9
102
{ACAD_REACTORS
330
3F4
102
}
330
3F4
100
AcDbXrecord
280
     1
270
     1
271
     1
  0
XRECORD
  5
3F8
102
{ACAD_REACTORS
330
3F4
102
}
330
3F4
100
AcDbXrecord
280
     1
270
     1
271
     1
  0
XRECORD
  5
3FA
102
{ACAD_REACTORS
330
3F4
102
}
330
3F4
100
AcDbXrecord
280
     1
270
     1
271
     1
  0
XRECORD
  5
3F7
102
{ACAD_REACTORS
330
3F4
102
}
330
3F4
100
AcDbXrecord
280
     1
270
     1
271
     1
  0
XRECORD
  5
3EE
102
{ACAD_REACTORS
330
3EC
102
}
330
3EC
100
AcDbXrecord
280
     1
270
     1
271
     1
  0
XRECORD
  5
3ED
102
{ACAD_REACTORS
330
3EC
102
}
330
3EC
100
AcDbXrecord
280
     1
270
     1
271
     1
  0
XRECORD
  5
3F1
102
{ACAD_REACTORS
330
3EC
102
}
330
3EC
100
AcDbXrecord
280
     1
270
     1
271
     1
  0
XRECORD
  5
3F0
102
{ACAD_REACTORS
330
3EC
102
}
330
3EC
100
AcDbXrecord
280
     1
270
     1
271
     1
  0
XRECORD
  5
3F2
102
{ACAD_REACTORS
330
3EC
102
}
330
3EC
100
AcDbXrecord
280
     1
270
     1
271
     1
  0
XRECORD
  5
3EF
102
{ACAD_REACTORS
330
3EC
102
}
330
3EC
100
AcDbXrecord
280
     1
270
     1
271
     1
  0
XRECORD
  5
3FE
102
{ACAD_REACTORS
330
3FC
102
}
330
3FC
100
AcDbXrecord
280
     1
270
     1
271
     1
  0
XRECORD
  5
3FD
102
{ACAD_REACTORS
330
3FC
102
}
330
3FC
100
AcDbXrecord
280
     1
270
     1
271
     1
  0
XRECORD
  5
401
102
{ACAD_REACTORS
330
3FC
102
}
330
3FC
100
AcDbXrecord
280
     1
270
     1
271
     1
  0
XRECORD
  5
400
102
{ACAD_REACTORS
330
3FC
102
}
330
3FC
100
AcDbXrecord
280
     1
270
     1
271
     1
  0
XRECORD
  5
402
102
{ACAD_REACTORS
330
3FC
102
}
330
3FC
100
AcDbXrecord
280
     1
270
     1
271
     1
  0
XRECORD
  5
3FF
102
{ACAD_REACTORS
330
3FC
102
}
330
3FC
100
AcDbXrecord
280
     1
270
     1
271
     1
  0
CELLSTYLEMAP
  5
474
102
{ACAD_REACTORS
330
452
102
}
330
452
100
AcDbCellStyleMap
 90
        3
300
CELLSTYLE
  1
TABLEFORMAT_BEGIN
 90
        5
170
     1
 91
        0
 92
    32768
 62
   257
 93
        1
300
CONTENTFORMAT
  1
CONTENTFORMAT_BEGIN
 90
        0
 91
        0
 92
      512
 93
        0
300

 40
0.0
140
1.0
 94
        5
 62
     0
340
11
144
0.25
309
CONTENTFORMAT_END
171
     0
 94
        0
309
TABLEFORMAT_END
  1
CELLSTYLE_BEGIN
 90
        1
 91
        1
300
_TITLE
309
CELLSTYLE_END
300
CELLSTYLE
  1
TABLEFORMAT_BEGIN
 90
        5
170
     1
 91
        0
 92
        0
 62
   257
 93
        1
300
CONTENTFORMAT
  1
CONTENTFORMAT_BEGIN
 90
        0
 91
        0
 92
      512
 93
        0
300

 40
0.0
140
1.0
 94
        5
 62
     0
340
11
144
0.18
309
CONTENTFORMAT_END
171
     0
 94
        0
309
TABLEFORMAT_END
  1
CELLSTYLE_BEGIN
 90
        2
 91
        1
300
_HEADER
309
CELLSTYLE_END
300
CELLSTYLE
  1
TABLEFORMAT_BEGIN
 90
        5
170
     1
 91
        0
 92
        0
 62
   257
 93
        1
300
CONTENTFORMAT
  1
CONTENTFORMAT_BEGIN
 90
        0
 91
        0
 92
      512
 93
        0
300

 40
0.0
140
1.0
 94
        2
 62
     0
340
11
144
0.18
309
CONTENTFORMAT_END
171
     0
 94
        0
309
TABLEFORMAT_END
  1
CELLSTYLE_BEGIN
 90
        3
 91
        2
300
_DATA
309
CELLSTYLE_END
  0
ENDSEC
  0
EOF
