  0
SECTION
  2
HEADER
  9
$ACADVER
  1
AC1018
  9
$ACADMAINTVER
 70
   104
  9
$DWGCODEPAGE
  3
ANSI_1252
  9
$LASTSAVEDBY
  1
cgardiner
  9
$INSBASE
 10
0.0
 20
0.0
 30
0.0
  9
$EXTMIN
 10
13.22259525817655
 20
9.360076936148196
 30
-0.0015258207003583
  9
$EXTMAX
 10
17.1007690768465
 20
15.11210635131237
 30
0.0000000349246037
  9
$LIMMIN
 10
0.0
 20
0.0
  9
$LIMMAX
 10
12.0
 20
9.0
  9
$ORTHOMODE
 70
     0
  9
$REGENMODE
 70
     1
  9
$FILLMODE
 70
     1
  9
$QTEXTMODE
 70
     0
  9
$MIRRTEXT
 70
     0
  9
$LTSCALE
 40
1.0
  9
$ATTMODE
 70
     1
  9
$TEXTSIZE
 40
0.2
  9
$TRACEWID
 40
0.05
  9
$TEXTSTYLE
  7
Standard
  9
$CLAYER
  8
0
  9
$CELTYPE
  6
ByLayer
  9
$CECOLOR
 62
   256
  9
$CELTSCALE
 40
1.0
  9
$DISPSILH
 70
     0
  9
$DIMSCALE
 40
1.0
  9
$DIMASZ
 40
0.18
  9
$DIMEXO
 40
0.0625
  9
$DIMDLI
 40
0.38
  9
$DIMRND
 40
0.0
  9
$DIMDLE
 40
0.0
  9
$DIMEXE
 40
0.18
  9
$DIMTP
 40
0.0
  9
$DIMTM
 40
0.0
  9
$DIMTXT
 40
0.18
  9
$DIMCEN
 40
0.09
  9
$DIMTSZ
 40
0.0
  9
$DIMTOL
 70
     0
  9
$DIMLIM
 70
     0
  9
$DIMTIH
 70
     1
  9
$DIMTOH
 70
     1
  9
$DIMSE1
 70
     0
  9
$DIMSE2
 70
     0
  9
$DIMTAD
 70
     0
  9
$DIMZIN
 70
     0
  9
$DIMBLK
  1

  9
$DIMASO
 70
     1
  9
$DIMSHO
 70
     1
  9
$DIMPOST
  1

  9
$DIMAPOST
  1

  9
$DIMALT
 70
     0
  9
$DIMALTD
 70
     2
  9
$DIMALTF
 40
25.4
  9
$DIMLFAC
 40
1.0
  9
$DIMTOFL
 70
     0
  9
$DIMTVP
 40
0.0
  9
$DIMTIX
 70
     0
  9
$DIMSOXD
 70
     0
  9
$DIMSAH
 70
     0
  9
$DIMBLK1
  1

  9
$DIMBLK2
  1

  9
$DIMSTYLE
  2
Standard
  9
$DIMCLRD
 70
     0
  9
$DIMCLRE
 70
     0
  9
$DIMCLRT
 70
     0
  9
$DIMTFAC
 40
1.0
  9
$DIMGAP
 40
0.09
  9
$DIMJUST
 70
     0
  9
$DIMSD1
 70
     0
  9
$DIMSD2
 70
     0
  9
$DIMTOLJ
 70
     1
  9
$DIMTZIN
 70
     0
  9
$DIMALTZ
 70
     0
  9
$DIMALTTZ
 70
     0
  9
$DIMUPT
 70
     0
  9
$DIMDEC
 70
     4
  9
$DIMTDEC
 70
     4
  9
$DIMALTU
 70
     2
  9
$DIMALTTD
 70
     2
  9
$DIMTXSTY
  7
Standard
  9
$DIMAUNIT
 70
     0
  9
$DIMADEC
 70
     0
  9
$DIMALTRND
 40
0.0
  9
$DIMAZIN
 70
     0
  9
$DIMDSEP
 70
    46
  9
$DIMATFIT
 70
     3
  9
$DIMFRAC
 70
     0
  9
$DIMLDRBLK
  1

  9
$DIMLUNIT
 70
     2
  9
$DIMLWD
 70
    -2
  9
$DIMLWE
 70
    -2
  9
$DIMTMOVE
 70
     0
  9
$LUNITS
 70
     2
  9
$LUPREC
 70
     4
  9
$SKETCHINC
 40
0.1
  9
$FILLETRAD
 40
0.0
  9
$AUNITS
 70
     0
  9
$AUPREC
 70
     0
  9
$MENU
  1
.
  9
$ELEVATION
 40
0.0
  9
$PELEVATION
 40
0.0
  9
$THICKNESS
 40
0.0
  9
$LIMCHECK
 70
     0
  9
$CHAMFERA
 40
0.0
  9
$CHAMFERB
 40
0.0
  9
$CHAMFERC
 40
0.0
  9
$CHAMFERD
 40
0.0
  9
$SKPOLY
 70
     0
  9
$TDCREATE
 40
2457002.615194236
  9
$TDUCREATE
 40
2457002.865194236
  9
$TDUPDATE
 40
2457002.616076273
  9
$TDUUPDATE
 40
2457002.866076273
  9
$TDINDWG
 40
0.0008836690
  9
$TDUSRTIMER
 40
0.0008836690
  9
$USRTIMER
 70
     1
  9
$ANGBASE
 50
0.0
  9
$ANGDIR
 70
     0
  9
$PDMODE
 70
     0
  9
$PDSIZE
 40
0.0
  9
$PLINEWID
 40
0.0
  9
$SPLFRAME
 70
     0
  9
$SPLINETYPE
 70
     6
  9
$SPLINESEGS
 70
     8
  9
$HANDSEED
  5
4B4
  9
$SURFTAB1
 70
     6
  9
$SURFTAB2
 70
     6
  9
$SURFTYPE
 70
     6
  9
$SURFU
 70
     6
  9
$SURFV
 70
     6
  9
$UCSBASE
  2

  9
$UCSNAME
  2

  9
$UCSORG
 10
0.0
 20
0.0
 30
0.0
  9
$UCSXDIR
 10
1.0
 20
0.0
 30
0.0
  9
$UCSYDIR
 10
0.0
 20
1.0
 30
0.0
  9
$UCSORTHOREF
  2

  9
$UCSORTHOVIEW
 70
     0
  9
$UCSORGTOP
 10
0.0
 20
0.0
 30
0.0
  9
$UCSORGBOTTOM
 10
0.0
 20
0.0
 30
0.0
  9
$UCSORGLEFT
 10
0.0
 20
0.0
 30
0.0
  9
$UCSORGRIGHT
 10
0.0
 20
0.0
 30
0.0
  9
$UCSORGFRONT
 10
0.0
 20
0.0
 30
0.0
  9
$UCSORGBACK
 10
0.0
 20
0.0
 30
0.0
  9
$PUCSBASE
  2

  9
$PUCSNAME
  2

  9
$PUCSORG
 10
0.0
 20
0.0
 30
0.0
  9
$PUCSXDIR
 10
1.0
 20
0.0
 30
0.0
  9
$PUCSYDIR
 10
0.0
 20
1.0
 30
0.0
  9
$PUCSORTHOREF
  2

  9
$PUCSORTHOVIEW
 70
     0
  9
$PUCSORGTOP
 10
0.0
 20
0.0
 30
0.0
  9
$PUCSORGBOTTOM
 10
0.0
 20
0.0
 30
0.0
  9
$PUCSORGLEFT
 10
0.0
 20
0.0
 30
0.0
  9
$PUCSORGRIGHT
 10
0.0
 20
0.0
 30
0.0
  9
$PUCSORGFRONT
 10
0.0
 20
0.0
 30
0.0
  9
$PUCSORGBACK
 10
0.0
 20
0.0
 30
0.0
  9
$USERI1
 70
     0
  9
$USERI2
 70
     0
  9
$USERI3
 70
     0
  9
$USERI4
 70
     0
  9
$USERI5
 70
     0
  9
$USERR1
 40
0.0
  9
$USERR2
 40
0.0
  9
$USERR3
 40
0.0
  9
$USERR4
 40
0.0
  9
$USERR5
 40
0.0
  9
$WORLDVIEW
 70
     1
  9
$SHADEDGE
 70
     3
  9
$SHADEDIF
 70
    70
  9
$TILEMODE
 70
     1
  9
$MAXACTVP
 70
    64
  9
$PINSBASE
 10
0.0
 20
0.0
 30
0.0
  9
$PLIMCHECK
 70
     0
  9
$PEXTMIN
 10
0.0
 20
0.0
 30
0.0
  9
$PEXTMAX
 10
0.0
 20
0.0
 30
0.0
  9
$PLIMMIN
 10
0.0
 20
0.0
  9
$PLIMMAX
 10
12.0
 20
9.0
  9
$UNITMODE
 70
     0
  9
$VISRETAIN
 70
     1
  9
$PLINEGEN
 70
     0
  9
$PSLTSCALE
 70
     1
  9
$TREEDEPTH
 70
  3020
  9
$CMLSTYLE
  2
Standard
  9
$CMLJUST
 70
     0
  9
$CMLSCALE
 40
1.0
  9
$PROXYGRAPHICS
 70
     1
  9
$MEASUREMENT
 70
     0
  9
$CELWEIGHT
370
    -1
  9
$ENDCAPS
280
     0
  9
$JOINSTYLE
280
     0
  9
$LWDISPLAY
290
     0
  9
$INSUNITS
 70
     1
  9
$HYPERLINKBASE
  1

  9
$STYLESHEET
  1

  9
$XEDIT
290
     1
  9
$CEPSNTYPE
380
     0
  9
$PSTYLEMODE
290
     1
  9
$FINGERPRINTGUID
  2
{C54E225A-3592-4664-9AA6-538E8A0E765C}
  9
$VERSIONGUID
  2
{115AC0C0-443A-4968-B019-1CD814111BAF}
  9
$EXTNAMES
290
     1
  9
$PSVPSCALE
 40
0.0
  9
$OLESTARTUP
290
     0
  9
$SORTENTS
280
   127
  9
$INDEXCTL
280
     0
  9
$HIDETEXT
280
     1
  9
$XCLIPFRAME
290
     0
  9
$HALOGAP
280
     0
  9
$OBSCOLOR
 70
   257
  9
$OBSLTYPE
280
     0
  9
$INTERSECTIONDISPLAY
280
     0
  9
$INTERSECTIONCOLOR
 70
   257
  9
$DIMASSOC
280
     2
  9
$PROJECTNAME
  1

  0
ENDSEC
  0
SECTION
  2
CLASSES
  0
CLASS
  1
ACDBDICTIONARYWDFLT
  2
AcDbDictionaryWithDefault
  3
ObjectDBX Classes
 90
        0
 91
        1
280
     0
281
     0
  0
CLASS
  1
DICTIONARYVAR
  2
AcDbDictionaryVar
  3
ObjectDBX Classes
 90
        0
 91
       18
280
     0
281
     0
  0
CLASS
  1
TABLESTYLE
  2
AcDbTableStyle
  3
ObjectDBX Classes
 90
     4095
 91
        1
280
     0
281
     0
  0
CLASS
  1
MATERIAL
  2
AcDbMaterial
  3
ObjectDBX Classes
 90
     1153
 91
        3
280
     0
281
     0
  0
CLASS
  1
VISUALSTYLE
  2
AcDbVisualStyle
  3
ObjectDBX Classes
 90
     4095
 91
       24
280
     0
281
     0
  0
CLASS
  1
SCALE
  2
AcDbScale
  3
ObjectDBX Classes
 90
     1153
 91
       33
280
     0
281
     0
  0
CLASS
  1
MLEADERSTYLE
  2
AcDbMLeaderStyle
  3
ACDB_MLEADERSTYLE_CLASS
 90
     4095
 91
        2
280
     0
281
     0
  0
CLASS
  1
CELLSTYLEMAP
  2
AcDbCellStyleMap
  3
ObjectDBX Classes
 90
     1152
 91
        3
280
     0
281
     0
  0
CLASS
  1
EXACXREFPANELOBJECT
  2
ExAcXREFPanelObject
  3
EXAC_ESW
 90
     1025
 91
        1
280
     0
281
     0
  0
CLASS
  1
NPOCOLLECTION
  2
AcDbImpNonPersistentObjectsCollection
  3
ObjectDBX Classes
 90
     1153
 91
        1
280
     0
281
     0
  0
CLASS
  1
LAYER_INDEX
  2
AcDbLayerIndex
  3
ObjectDBX Classes
 90
        0
 91
        0
280
     0
281
     0
  0
CLASS
  1
SPATIAL_INDEX
  2
AcDbSpatialIndex
  3
ObjectDBX Classes
 90
        0
 91
        0
280
     0
281
     0
  0
CLASS
  1
IDBUFFER
  2
AcDbIdBuffer
  3
ObjectDBX Classes
 90
        0
 91
        0
280
     0
281
     0
  0
CLASS
  1
ACDBSECTIONVIEWSTYLE
  2
AcDbSectionViewStyle
  3
ObjectDBX Classes
 90
     1025
 91
        1
280
     0
281
     0
  0
CLASS
  1
ACDBDETAILVIEWSTYLE
  2
AcDbDetailViewStyle
  3
ObjectDBX Classes
 90
     1025
 91
        1
280
     0
281
     0
  0
CLASS
  1
ACAD_EVALUATION_GRAPH
  2
AcDbEvalGraph
  3
ObjectDBX Classes
 90
     1153
 91
        3
280
     0
281
     0
  0
CLASS
  1
BLOCKVISIBILITYPARAMETER
  2
AcDbBlockVisibilityParameter
  3
ObjectDBX Classes
 90
     1153
 91
        3
280
     0
281
     0
  0
CLASS
  1
BLOCKVISIBILITYGRIP
  2
AcDbBlockVisibilityGrip
  3
ObjectDBX Classes
 90
     1153
 91
        3
280
     0
281
     0
  0
CLASS
  1
BLOCKGRIPLOCATIONCOMPONENT
  2
AcDbBlockGripExpr
  3
ObjectDBX Classes
 90
     1153
 91
        6
280
     0
281
     0
  0
CLASS
  1
SORTENTSTABLE
  2
AcDbSortentsTable
  3
ObjectDBX Classes
 90
        0
 91
        7
280
     0
281
     0
  0
CLASS
  1
ACDB_DYNAMICBLOCKPURGEPREVENTER_VERSION
  2
AcDbDynamicBlockPurgePreventer
  3
ObjectDBX Classes
 90
     1153
 91
        3
280
     0
281
     0
  0
CLASS
  1
ACDB_BLOCKREPRESENTATION_DATA
  2
AcDbBlockRepresentationData
  3
ObjectDBX Classes
 90
     1153
 91
        4
280
     0
281
     0
  0
ENDSEC
  0
SECTION
  2
TABLES
  0
TABLE
  2
VPORT
  5
8
330
0
100
AcDbSymbolTable
 70
     1
  0
VPORT
  5
94
330
8
100
AcDbSymbolTableRecord
100
AcDbViewportTableRecord
  2
*Active
 70
     0
 10
0.0
 20
0.0
 11
1.0
 21
1.0
 12
15.16168216751153
 22
12.23609164373028
 13
0.0
 23
0.0
 14
0.5
 24
0.5
 15
0.5
 25
0.5
 16
0.0
 26
0.0
 36
1.0
 17
0.0
 27
0.0
 37
0.0
 40
5.799764099107452
 41
1.765927977839335
 42
50.0
 43
0.0
 44
0.0
 50
0.0
 51
0.0
 71
     0
 72
  1000
 73
     1
 74
     3
 75
     0
 76
     1
 77
     0
 78
     0
281
     0
 65
     1
110
0.0
120
0.0
130
0.0
111
1.0
121
0.0
131
0.0
112
0.0
122
1.0
132
0.0
 79
     0
146
0.0
1001
ACAD_NAV_VCDISPLAY
1070
     3
  0
ENDTAB
  0
TABLE
  2
LTYPE
  5
5
330
0
100
AcDbSymbolTable
 70
     2
  0
LTYPE
  5
14
330
5
100
AcDbSymbolTableRecord
100
AcDbLinetypeTableRecord
  2
ByBlock
 70
     0
  3

 72
    65
 73
     0
 40
0.0
  0
LTYPE
  5
15
330
5
100
AcDbSymbolTableRecord
100
AcDbLinetypeTableRecord
  2
ByLayer
 70
     0
  3

 72
    65
 73
     0
 40
0.0
  0
LTYPE
  5
16
330
5
100
AcDbSymbolTableRecord
100
AcDbLinetypeTableRecord
  2
Continuous
 70
     0
  3
Solid line
 72
    65
 73
     0
 40
0.0
  0
LTYPE
  5
3BE
330
5
100
AcDbSymbolTableRecord
100
AcDbLinetypeTableRecord
  2
HIDDEN2
 70
     0
  3
Hidden (.5x) _ _ _ _ _ _ _ _ _ _ _ _ _ _ _ _ _
 72
    65
 73
     2
 40
0.1875
 49
0.125
 74
     0
 49
-0.0625
 74
     0
  0
ENDTAB
  0
TABLE
  2
LAYER
  5
2
102
{ACAD_XDICTIONARY
360
18E
102
}
330
0
100
AcDbSymbolTable
 70
     4
  0
LAYER
  5
10
102
{ACAD_XDICTIONARY
360
E6
102
}
330
2
100
AcDbSymbolTableRecord
100
AcDbLayerTableRecord
  2
0
 70
     0
 62
     7
  6
Continuous
370
    -3
390
F
  0
LAYER
  5
3BF
102
{ACAD_XDICTIONARY
360
3C0
102
}
330
2
100
AcDbSymbolTableRecord
100
AcDbLayerTableRecord
  2
TEXT
 70
     0
 62
     2
  6
Continuous
370
    -3
390
F
  0
LAYER
  5
3C1
102
{ACAD_XDICTIONARY
360
3C2
102
}
330
2
100
AcDbSymbolTableRecord
100
AcDbLayerTableRecord
  2
DOOR
 70
     0
 62
     1
  6
Continuous
370
    -3
390
F
  0
LAYER
  5
3C3
102
{ACAD_XDICTIONARY
360
3C4
102
}
330
2
100
AcDbSymbolTableRecord
100
AcDbLayerTableRecord
  2
SS-A
 70
     0
 62
     9
  6
Continuous
370
    -3
390
F
  0
ENDTAB
  0
TABLE
  2
STYLE
  5
3
330
0
100
AcDbSymbolTable
 70
     3
  0
STYLE
  5
11
330
3
100
AcDbSymbolTableRecord
100
AcDbTextStyleTableRecord
  2
Standard
 70
     0
 40
0.0
 41
1.0
 50
0.0
 71
     0
 42
0.2
  3
ARIAL.TTF
  4

1001
ACAD
1000
Arial
1071
       34
  0
STYLE
  5
DC
330
3
100
AcDbSymbolTableRecord
100
AcDbTextStyleTableRecord
  2
Annotative
 70
     0
 40
0.0
 41
1.0
 50
0.0
 71
     0
 42
0.2
  3
ARIAL.TTF
  4

1001
AcadAnnotative
1000
AnnotativeData
1002
{
1070
     1
1070
     1
1002
}
1001
ACAD
1000
Arial
1071
       34
  0
STYLE
  5
3C5
330
3
100
AcDbSymbolTableRecord
100
AcDbTextStyleTableRecord
  2
SIMPLEX
 70
     0
 40
0.35
 41
0.75
 50
0.0
 71
     0
 42
0.35
  3
simplex.shx
  4

  0
ENDTAB
  0
TABLE
  2
VIEW
  5
6
330
0
100
AcDbSymbolTable
 70
     0
  0
ENDTAB
  0
TABLE
  2
UCS
  5
7
330
0
100
AcDbSymbolTable
 70
     0
  0
ENDTAB
  0
TABLE
  2
APPID
  5
9
330
0
100
AcDbSymbolTable
 70
    12
  0
APPID
  5
12
330
9
100
AcDbSymbolTableRecord
100
AcDbRegAppTableRecord
  2
ACAD
 70
     0
  0
APPID
  5
DD
330
9
100
AcDbSymbolTableRecord
100
AcDbRegAppTableRecord
  2
AcadAnnoPO
 70
     0
  0
APPID
  5
DE
330
9
100
AcDbSymbolTableRecord
100
AcDbRegAppTableRecord
  2
AcadAnnotative
 70
     0
  0
APPID
  5
DF
330
9
100
AcDbSymbolTableRecord
100
AcDbRegAppTableRecord
  2
ACAD_DSTYLE_DIMJAG
 70
     0
  0
APPID
  5
E0
330
9
100
AcDbSymbolTableRecord
100
AcDbRegAppTableRecord
  2
ACAD_DSTYLE_DIMTALN
 70
     0
  0
APPID
  5
107
330
9
100
AcDbSymbolTableRecord
100
AcDbRegAppTableRecord
  2
ACAD_MLEADERVER
 70
     0
  0
APPID
  5
1A6
330
9
100
AcDbSymbolTableRecord
100
AcDbRegAppTableRecord
  2
ACAD_NAV_VCDISPLAY
 70
     0
  0
APPID
  5
3C6
330
9
100
AcDbSymbolTableRecord
100
AcDbRegAppTableRecord
  2
AcDbBlockRepETag
 70
     0
  0
APPID
  5
3C7
330
9
100
AcDbSymbolTableRecord
100
AcDbRegAppTableRecord
  2
AcDbDynamicBlockTrueName
 70
     0
  0
APPID
  5
3C8
330
9
100
AcDbSymbolTableRecord
100
AcDbRegAppTableRecord
  2
AcDbDynamicBlockGUID
 70
     0
  0
APPID
  5
3C9
330
9
100
AcDbSymbolTableRecord
100
AcDbRegAppTableRecord
  2
ACAD_PSEXT
 70
     0
  0
APPID
  5
3CA
330
9
100
AcDbSymbolTableRecord
100
AcDbRegAppTableRecord
  2
AcDbBlockRepBTag
 70
     0
  0
ENDTAB
  0
TABLE
  2
DIMSTYLE
  5
A
330
0
100
AcDbSymbolTable
 70
     2
100
AcDbDimStyleTable
 71
     2
340
27
340
E1
  0
DIMSTYLE
105
27
330
A
100
AcDbSymbolTableRecord
100
AcDbDimStyleTableRecord
  2
Standard
 70
     0
340
11
  0
DIMSTYLE
105
E1
330
A
100
AcDbSymbolTableRecord
100
AcDbDimStyleTableRecord
  2
Annotative
 70
     0
 40
0.0
340
11
1001
AcadAnnotative
1000
AnnotativeData
1002
{
1070
     1
1070
     1
1002
}
1001
ACAD_DSTYLE_DIMJAG
1070
   388
1040
1.5
1001
ACAD_DSTYLE_DIMTALN
1070
   392
1070
     0
  0
ENDTAB
  0
TABLE
  2
BLOCK_RECORD
  5
1
330
0
100
AcDbSymbolTable
 70
     8
  0
BLOCK_RECORD
  5
1F
102
{ACAD_XDICTIONARY
360
15D
102
}
330
1
100
AcDbSymbolTableRecord
100
AcDbBlockTableRecord
  2
*Model_Space
340
22
  0
BLOCK_RECORD
  5
58
330
1
100
AcDbSymbolTableRecord
100
AcDbBlockTableRecord
  2
*Paper_Space
340
59
  0
BLOCK_RECORD
  5
5D
330
1
100
AcDbSymbolTableRecord
100
AcDbBlockTableRecord
  2
*Paper_Space0
340
5E
  0
BLOCK_RECORD
  5
1CF
102
{ACAD_XDICTIONARY
360
1D0
102
}
330
1
100
AcDbSymbolTableRecord
100
AcDbBlockTableRecord
  2
*U1
340
0
1001
AcDbBlockRepETag
1070
     1
1071
      110
1001
AcDbDynamicBlockTrueName
1000
CA7-23 - Plan
1001
AcDbDynamicBlockGUID
1000
{CBA03B8F-2225-4665-8375-F64056805DD7}
1001
ACAD
1000
DesignCenter Data
1002
{
1070
     1
1070
     1
1002
}
  0
BLOCK_RECORD
  5
248
102
{ACAD_XDICTIONARY
360
249
102
}
330
1
100
AcDbSymbolTableRecord
100
AcDbBlockTableRecord
  2
*U2
340
0
102
{BLKREFS
331
3E2
102
}
1001
AcDbDynamicBlockTrueName
1000
CM7-02 - Plan
1001
AcDbDynamicBlockGUID
1000
{FED6C89C-0A84-4670-89F9-3CEC7DE8CE0B}
1001
ACAD
1000
DesignCenter Data
1002
{
1070
     1
1070
     1
1002
}
  0
BLOCK_RECORD
  5
26E
102
{ACAD_XDICTIONARY
360
26F
102
}
330
1
100
AcDbSymbolTableRecord
100
AcDbBlockTableRecord
  2
*U3
340
0
1001
AcDbBlockRepETag
1070
     1
1071
       93
1001
AcDbDynamicBlockTrueName
1000
CEP7-E__B - Plan
1001
AcDbDynamicBlockGUID
1000
{8CD99982-533E-4BB2-A85C-C7FE5A35591B}
1001
ACAD
1000
DesignCenter Data
1002
{
1070
     1
1070
     1
1002
}
  0
BLOCK_RECORD
  5
2D6
102
{ACAD_XDICTIONARY
360
2D7
102
}
330
1
100
AcDbSymbolTableRecord
100
AcDbBlockTableRecord
  2
*U4
340
0
102
{BLKREFS
331
343
102
}
1001
AcDbBlockRepBTag
1070
     1
1005
26E
  0
BLOCK_RECORD
  5
338
102
{ACAD_XDICTIONARY
360
339
102
}
330
1
100
AcDbSymbolTableRecord
100
AcDbBlockTableRecord
  2
CAT7-23-E_B - Plan
340
0
102
{BLKREFS
331
3E3
102
}
1001
AcDbDynamicBlockGUID
1000
{0DAAB2C4-7A80-457C-860B-01F06316E3FC}
1001
ACAD
1000
DesignCenter Data
1002
{
1070
     1
1070
     1
1002
}
  0
BLOCK_RECORD
  5
34B
102
{ACAD_XDICTIONARY
360
34C
102
}
330
1
100
AcDbSymbolTableRecord
100
AcDbBlockTableRecord
  2
*U6
340
0
102
{BLKREFS
331
3DB
331
33C
102
}
1001
AcDbBlockRepBTag
1070
     1
1005
1CF
  0
ENDTAB
  0
ENDSEC
  0
SECTION
  2
BLOCKS
  0
BLOCK
  5
20
330
1F
100
AcDbEntity
  8
0
100
AcDbBlockBegin
  2
*Model_Space
 70
     0
 10
0.0
 20
0.0
 30
0.0
  3
*Model_Space
  1

  0
ENDBLK
  5
21
330
1F
100
AcDbEntity
  8
0
100
AcDbBlockEnd
  0
BLOCK
  5
5A
330
58
100
AcDbEntity
 67
     1
  8
0
100
AcDbBlockBegin
  2
*Paper_Space
 70
     0
 10
0.0
 20
0.0
 30
0.0
  3
*Paper_Space
  1

  0
ENDBLK
  5
5B
330
58
100
AcDbEntity
 67
     1
  8
0
100
AcDbBlockEnd
  0
BLOCK
  5
5F
330
5D
100
AcDbEntity
 67
     1
  8
0
100
AcDbBlockBegin
  2
*Paper_Space0
 70
     0
 10
0.0
 20
0.0
 30
0.0
  3
*Paper_Space0
  1

  0
ENDBLK
  5
60
330
5D
100
AcDbEntity
 67
     1
  8
0
100
AcDbBlockEnd
  0
BLOCK
  5
1D8
330
1CF
100
AcDbEntity
  8
0
 62
     1
100
AcDbBlockBegin
  2
*U1
 70
     1
 10
0.0
 20
0.0
 30
0.0
  3
*U1
  1

  0
LWPOLYLINE
  5
1D9
330
1CF
100
AcDbEntity
  8
0
100
AcDbPolyline
 90
        2
 70
   128
 43
0.0
 10
0.8870231193762965
 20
-0.3390355380760681
 10
0.4879768806237
 20
-0.3390355380760681
1001
AcDbBlockRepETag
1070
     1
1071
        0
1005
1D9
  0
LWPOLYLINE
  5
1DA
330
1CF
100
AcDbEntity
  8
0
100
AcDbPolyline
 90
        2
 70
   129
 43
0.0
 10
0.4879768806237
 20
-0.3390355380760681
 10
0.4879768806237
 20
-0.1794170425750288
1001
AcDbBlockRepETag
1070
     1
1071
        1
1005
1DA
  0
LWPOLYLINE
  5
1DB
330
1CF
100
AcDbEntity
  8
0
100
AcDbPolyline
 90
        2
 70
   129
 43
0.0
 10
0.8870231193762965
 20
-0.1794170425750288
 10
0.8870231193762965
 20
-0.3390355380760681
1001
AcDbBlockRepETag
1070
     1
1071
        2
1005
1DB
  0
LWPOLYLINE
  5
1DC
330
1CF
100
AcDbEntity
  8
0
100
AcDbPolyline
 90
        2
 70
   128
 43
0.0
 10
0.4879768806237
 20
-0.3390355380760681
 10
0.8870231193762965
 20
-0.3390355380760681
1001
AcDbBlockRepETag
1070
     1
1071
        3
1005
1DC
  0
LWPOLYLINE
  5
1DD
330
1CF
100
AcDbEntity
  8
0
100
AcDbPolyline
 90
        4
 70
   128
 43
0.0
 10
0.5677861283742214
 20
-0.1794170425750288
 10
0.5677861283742214
 20
-0.2592262903255467
 10
0.8072138716257786
 20
-0.2592262903255467
 10
0.8072138716257786
 20
-0.1794170425750288
1001
AcDbBlockRepETag
1070
     1
1071
        4
1005
1DD
  0
LINE
  5
1DE
330
1CF
100
AcDbEntity
  8
0
100
AcDbLine
 10
1.24733839966173
 20
2.497713753291659
 30
0.0
 11
1.24733839966173
 21
2.856855368168996
 31
0.0
1001
AcDbBlockRepETag
1070
     1
1071
        5
1005
1DE
  0
LINE
  5
1DF
330
1CF
100
AcDbEntity
  8
0
100
AcDbLine
 10
0.1288352657463623
 20
2.856855368168996
 30
0.0
 11
0.1288352657463623
 21
2.497713753291659
 31
0.0
1001
AcDbBlockRepETag
1070
     1
1071
        6
1005
1DF
  0
LINE
  5
1E0
330
1CF
100
AcDbEntity
  8
0
100
AcDbLine
 10
1.24733839966173
 20
2.856855368168996
 30
0.0
 11
0.1288352657463623
 21
2.856855368168996
 31
0.0
1001
AcDbBlockRepETag
1070
     1
1071
        7
1005
1E0
  0
LINE
  5
1E1
330
1CF
100
AcDbEntity
  8
0
100
AcDbLine
 10
0.5484206491406365
 20
2.497713753291655
 30
0.0
 11
0.5484206491406365
 21
2.657332248792695
 31
0.0
1001
AcDbBlockRepETag
1070
     1
1071
        8
1005
1E1
  0
LINE
  5
1E2
330
1CF
100
AcDbEntity
  8
0
100
AcDbLine
 10
0.5484206491406365
 20
2.657332248792695
 30
0.0
 11
0.8277530162674562
 21
2.657332248792695
 31
0.0
1001
AcDbBlockRepETag
1070
     1
1071
        9
1005
1E2
  0
LINE
  5
1E3
330
1CF
100
AcDbEntity
  8
0
100
AcDbLine
 10
0.8277530162674562
 20
2.657332248792695
 30
0.0
 11
0.8277530162674562
 21
2.497713753291655
 31
0.0
1001
AcDbBlockRepETag
1070
     1
1071
       10
1005
1E3
  0
LINE
  5
1E4
330
1CF
100
AcDbEntity
  8
0
100
AcDbLine
 10
0.8870231193762965
 20
-0.2592262903255467
 30
0.0
 11
1.566575390663809
 21
-0.2592262903255467
 31
0.0
1001
AcDbBlockRepETag
1070
     1
1071
       11
1005
1E4
  0
LINE
  5
1E5
330
1CF
100
AcDbEntity
  8
0
100
AcDbLine
 10
1.566575390663809
 20
0.0611843660846248
 30
0.0
 11
1.566575390663809
 21
-0.2592262903255467
 31
0.0
1001
AcDbBlockRepETag
1070
     1
1071
       12
1005
1E5
  0
LINE
  5
1E6
330
1CF
100
AcDbEntity
  8
0
100
AcDbLine
 10
-0.1915753906638091
 20
2.617427624917436
 30
0.0
 11
-0.1915753906638091
 21
2.298190633915361
 31
0.0
1001
AcDbBlockRepETag
1070
     1
1071
       13
1005
1E6
  0
LWPOLYLINE
  5
1E7
330
1CF
100
AcDbEntity
  8
0
100
AcDbPolyline
 90
        4
 70
   128
 43
0.0
 10
1.486766142913287
 20
-0.1794170425750288
 10
1.486766142913287
 20
-0.2193216664502877
 10
1.287243023536989
 20
-0.2193216664502877
 10
1.287243023536989
 20
-0.1794170425750288
1001
AcDbBlockRepETag
1070
     1
1071
       14
1005
1E7
  0
LWPOLYLINE
  5
1E8
330
1CF
100
AcDbEntity
  8
0
100
AcDbPolyline
 90
        4
 70
   128
 43
0.0
 10
1.24733839966173
 20
-0.1794170425750288
 10
1.24733839966173
 20
-0.2193216664502877
 10
1.006736991002076
 20
-0.2193216664502877
 10
1.006736991002076
 20
-0.1794170425750288
1001
AcDbBlockRepETag
1070
     1
1071
       15
1005
1E8
  0
LWPOLYLINE
  5
1E9
330
1CF
100
AcDbEntity
  8
0
100
AcDbPolyline
 90
        3
 70
   128
 43
0.0
 10
0.9668323671268179
 20
-0.1794170425750288
 10
0.9668323671268179
 20
-0.2193216664502877
 10
0.8870231193762965
 20
-0.2193216664502877
1001
AcDbBlockRepETag
1070
     1
1071
       16
1005
1E9
  0
LWPOLYLINE
  5
1EA
330
1CF
100
AcDbEntity
  8
0
100
AcDbPolyline
 90
        2
 70
   129
 43
0.0
 10
0.6475953761247393
 20
-0.0996077948245109
 10
0.6475953761247393
 20
0.0611843660846248
1001
AcDbBlockRepETag
1070
     1
1071
       17
1005
1EA
  0
LWPOLYLINE
  5
1EB
330
1CF
100
AcDbEntity
  8
0
100
AcDbPolyline
 90
        3
 70
   128
 43
0.0
 10
0.6874999999999983
 20
0.0611843660846248
 10
0.6874999999999983
 20
-0.0996077948245109
 10
0.6475953761247393
 20
-0.0996077948245109
1001
AcDbBlockRepETag
1070
     1
1071
       18
1005
1EB
  0
LWPOLYLINE
  5
1EC
330
1CF
100
AcDbEntity
  8
0
100
AcDbPolyline
 90
        2
 70
   129
 43
0.0
 10
1.126450862627857
 20
0.0611843660846248
 10
1.126450862627857
 20
-0.0996077948245109
1001
AcDbBlockRepETag
1070
     1
1071
       19
1005
1EC
  0
LWPOLYLINE
  5
1ED
330
1CF
100
AcDbEntity
  8
0
100
AcDbPolyline
 90
        4
 70
   129
 43
0.0
 10
1.086546238752594
 20
-0.0996077948245109
 10
1.086546238752594
 20
0.0611843660846248
 10
1.086546238752594
 20
-0.0996077948245109
 10
1.126450862627857
 20
-0.0996077948245109
1001
AcDbBlockRepETag
1070
     1
1071
       20
1005
1ED
  0
LINE
  5
1EE
330
1CF
100
AcDbEntity
  8
0
100
AcDbLine
 10
-0.1516707667885502
 20
0.0611843660846248
 30
0.0
 11
-0.1516707667885502
 21
-0.1794170425750288
 31
0.0
1001
AcDbBlockRepETag
1070
     1
1071
       21
1005
1EE
  0
LINE
  5
1EF
330
1CF
100
AcDbEntity
  8
0
100
AcDbLine
 10
1.52667076678855
 20
0.0611843660846248
 30
0.0
 11
1.52667076678855
 21
-0.1794170425750288
 31
0.0
1001
AcDbBlockRepETag
1070
     1
1071
       22
1005
1EF
  0
LWPOLYLINE
  5
1F0
330
1CF
100
AcDbEntity
  8
0
100
AcDbPolyline
 90
        2
 70
   129
 43
0.0
 10
0.2884537612474016
 20
0.0611843660846248
 10
0.2884537612474016
 20
-0.0996077948245109
1001
AcDbBlockRepETag
1070
     1
1071
       23
1005
1F0
  0
LWPOLYLINE
  5
1F1
330
1CF
100
AcDbEntity
  8
0
100
AcDbPolyline
 90
        3
 70
   128
 43
0.0
 10
0.2485491373721427
 20
0.0611843660846248
 10
0.2485491373721427
 20
-0.0996077948245109
 10
0.2884537612474016
 20
-0.0996077948245109
1001
AcDbBlockRepETag
1070
     1
1071
       24
1005
1F1
  0
LINE
  5
1F2
330
1CF
100
AcDbEntity
  8
0
100
AcDbLine
 10
1.566575390663809
 20
2.298190633915361
 30
0.0
 11
1.566575390663809
 21
2.4578091294164
 31
0.0
1001
AcDbBlockRepETag
1070
     1
1071
       25
1005
1F2
  0
LINE
  5
1F3
330
1CF
100
AcDbEntity
  8
0
100
AcDbLine
 10
1.52667076678855
 20
2.497713753291655
 30
0.0
 11
1.52667076678855
 21
2.298190633915361
 31
0.0
1001
AcDbBlockRepETag
1070
     1
1071
       26
1005
1F3
  0
LWPOLYLINE
  5
1F4
330
1CF
100
AcDbEntity
  8
0
100
AcDbPolyline
 90
        2
 70
   129
 43
0.0
 10
1.126450862627857
 20
2.4578091294164
 10
1.126450862627857
 20
2.298190633915361
1001
AcDbBlockRepETag
1070
     1
1071
       27
1005
1F4
  0
LWPOLYLINE
  5
1F5
330
1CF
100
AcDbEntity
  8
0
100
AcDbPolyline
 90
        4
 70
   129
 43
0.0
 10
1.086546238752594
 20
2.4578091294164
 10
1.126450862627857
 20
2.4578091294164
 10
1.086546238752594
 20
2.4578091294164
 10
1.086546238752594
 20
2.298190633915361
1001
AcDbBlockRepETag
1070
     1
1071
       28
1005
1F5
  0
LWPOLYLINE
  5
1F6
330
1CF
100
AcDbEntity
  8
0
100
AcDbPolyline
 90
        6
 70
   129
 43
0.0
 10
0.6475953761247393
 20
2.4578091294164
 10
0.6874999999999983
 20
2.4578091294164
 10
0.6874999999999983
 20
2.298190633915361
 10
0.6874999999999983
 20
2.4578091294164
 10
0.6475953761247393
 20
2.4578091294164
 10
0.6475953761247393
 20
2.298190633915361
1001
AcDbBlockRepETag
1070
     1
1071
       29
1005
1F6
  0
LWPOLYLINE
  5
1F7
330
1CF
100
AcDbEntity
  8
0
100
AcDbPolyline
 90
        2
 70
   129
 43
0.0
 10
0.2884537612474016
 20
2.4578091294164
 10
0.2884537612474016
 20
2.298190633915361
1001
AcDbBlockRepETag
1070
     1
1071
       30
1005
1F7
  0
LWPOLYLINE
  5
1F8
330
1CF
100
AcDbEntity
  8
0
100
AcDbPolyline
 90
        4
 70
   129
 43
0.0
 10
0.2884537612474016
 20
2.4578091294164
 10
0.2485491373721427
 20
2.4578091294164
 10
0.2485491373721427
 20
2.298190633915361
 10
0.2485491373721427
 20
2.4578091294164
1001
AcDbBlockRepETag
1070
     1
1071
       31
1005
1F8
  0
LINE
  5
1F9
330
1CF
100
AcDbEntity
  8
0
100
AcDbLine
 10
-0.1516707667885502
 20
2.298190633915361
 30
0.0
 11
-0.1516707667885502
 21
2.537618377166918
 31
0.0
1001
AcDbBlockRepETag
1070
     1
1071
       32
1005
1F9
  0
LINE
  5
1FA
330
1CF
100
AcDbEntity
  8
0
100
AcDbLine
 10
-0.1516707667885502
 20
2.537618377166918
 30
0.0
 11
0.0889306418711034
 21
2.537618377166918
 31
0.0
1001
AcDbBlockRepETag
1070
     1
1071
       33
1005
1FA
  0
LINE
  5
1FB
330
1CF
100
AcDbEntity
  8
0
100
AcDbLine
 10
0.0889306418711034
 20
2.537618377166918
 30
0.0
 11
0.0889306418711034
 21
2.497713753291659
 31
0.0
1001
AcDbBlockRepETag
1070
     1
1071
       34
1005
1FB
  0
LINE
  5
1FC
330
1CF
100
AcDbEntity
  8
0
100
AcDbLine
 10
1.52667076678855
 20
2.497713753291659
 30
0.0
 11
-0.1516707667885502
 21
2.497713753291659
 31
0.0
1001
AcDbBlockRepETag
1070
     1
1071
       35
1005
1FC
  0
LWPOLYLINE
  5
1FD
330
1CF
100
AcDbEntity
  8
0
100
AcDbPolyline
 90
        2
 70
   129
 43
0.0
 10
0.4879768806237
 20
-0.2592262903255467
 10
0.0490260179958444
 20
-0.2592262903255467
1001
AcDbBlockRepETag
1070
     1
1071
       36
1005
1FD
  0
LWPOLYLINE
  5
1FE
330
1CF
100
AcDbEntity
  8
0
100
AcDbPolyline
 90
        5
 70
   128
 43
0.0
 10
0.0490260179958444
 20
-0.2592262903255467
 10
0.0490260179958444
 20
-0.2193216664502877
 10
0.4879768806237
 20
-0.2193216664502877
 10
0.3682630089979231
 20
-0.2193216664502877
 10
0.3682630089979231
 20
-0.1794170425750288
1001
AcDbBlockRepETag
1070
     1
1071
       37
1005
1FE
  0
LWPOLYLINE
  5
1FF
330
1CF
100
AcDbEntity
  8
0
100
AcDbPolyline
 90
        4
 70
   128
 43
0.0
 10
0.0490260179958444
 20
-0.2592262903255467
 10
0.0490260179958444
 20
-0.2193216664502877
 10
0.4879768806237
 20
-0.2193216664502877
 10
0.0490260179958444
 20
-0.2193216664502877
1001
AcDbBlockRepETag
1070
     1
1071
       38
1005
1FF
  0
LWPOLYLINE
  5
200
330
1CF
100
AcDbEntity
  8
0
100
AcDbPolyline
 90
        2
 70
   129
 43
0.0
 10
0.4879768806237
 20
-0.2193216664502877
 10
0.3283583851226606
 20
-0.2193216664502877
1001
AcDbBlockRepETag
1070
     1
1071
       39
1005
200
  0
LWPOLYLINE
  5
201
330
1CF
100
AcDbEntity
  8
0
100
AcDbPolyline
 90
        2
 70
   129
 43
0.0
 10
0.3283583851226606
 20
-0.2193216664502877
 10
0.3283583851226606
 20
-0.1794170425750288
1001
AcDbBlockRepETag
1070
     1
1071
       40
1005
201
  0
LINE
  5
202
330
1CF
100
AcDbEntity
  8
0
100
AcDbLine
 10
-0.1915753906638091
 20
-0.1794170425750288
 30
0.0
 11
1.566575390663809
 21
-0.1794170425750252
 31
0.0
1001
AcDbBlockRepETag
1070
     1
1071
       41
1005
202
  0
LINE
  5
203
330
1CF
100
AcDbEntity
  8
0
100
AcDbLine
 10
-0.1915753906638091
 20
0.0611843660846248
 30
0.0
 11
-0.1915753906638091
 21
-0.1794170425750288
 31
0.0
1001
AcDbBlockRepETag
1070
     1
1071
       42
1005
203
  0
LINE
  5
204
330
1CF
100
AcDbEntity
  8
0
100
AcDbLine
 10
1.046641614877334
 20
1.459019867126805
 30
0.0
 11
1.046641614877335
 21
1.818161482004146
 31
0.0
1001
AcDbBlockRepETag
1070
     1
1071
       43
1005
204
  0
LINE
  5
205
330
1CF
100
AcDbEntity
  8
0
100
AcDbLine
 10
0.8870231193762965
 20
1.818161482004146
 30
0.0
 11
0.8870231193762965
 21
1.459019867126809
 31
0.0
1001
AcDbBlockRepETag
1070
     1
1071
       44
1005
205
  0
LINE
  5
206
330
1CF
100
AcDbEntity
  8
0
100
AcDbLine
 10
0.926927743251559
 20
1.020069004498953
 30
0.0
 11
0.926927743251559
 21
1.339305995501035
 31
0.0
1001
AcDbBlockRepETag
1070
     1
1071
       45
1005
206
  0
LINE
  5
207
330
1CF
100
AcDbEntity
  8
0
100
AcDbLine
 10
0.926927743251559
 20
1.339305995501035
 30
0.0
 11
0.448072256748441
 21
1.339305995501018
 31
0.0
1001
AcDbBlockRepETag
1070
     1
1071
       46
1005
207
  0
LINE
  5
208
330
1CF
100
AcDbEntity
  8
0
100
AcDbLine
 10
0.8072138716257786
 20
1.339305995501032
 30
0.0
 11
0.8072138716257786
 21
1.020069004498953
 31
0.0
1001
AcDbBlockRepETag
1070
     1
1071
       47
1005
208
  0
LWPOLYLINE
  5
209
330
1CF
100
AcDbEntity
  8
0
100
AcDbPolyline
 90
        4
 70
   129
 43
0.0
 10
-0.1915753906638091
 20
2.298190633915361
 10
-0.1915753906638091
 20
0.0611843660846248
 10
1.566575390663809
 20
0.0611843660846248
 10
1.566575390663809
 20
2.298190633915361
1001
AcDbBlockRepETag
1070
     1
1071
       48
1005
209
  0
LINE
  5
20A
330
1CF
100
AcDbEntity
  8
0
100
AcDbLine
 10
0.2884537612474016
 20
0.8193722197145625
 30
0.0
 11
0.2884537612474016
 21
0.5400398525877428
 31
0.0
1001
AcDbBlockRepETag
1070
     1
1071
       49
1005
20A
  0
LINE
  5
20B
330
1CF
100
AcDbEntity
  8
0
100
AcDbLine
 10
0.2884537612474016
 20
0.5400398525877428
 30
0.0
 11
1.086546238752594
 21
0.5400398525877428
 31
0.0
1001
AcDbBlockRepETag
1070
     1
1071
       50
1005
20B
  0
LINE
  5
20C
330
1CF
100
AcDbEntity
  8
0
100
AcDbLine
 10
1.086546238752594
 20
0.5400398525877428
 30
0.0
 11
1.086546238752594
 21
0.8193722197145625
 31
0.0
1001
AcDbBlockRepETag
1070
     1
1071
       51
1005
20C
  0
LINE
  5
20D
330
1CF
100
AcDbEntity
  8
0
100
AcDbLine
 10
1.086546238752594
 20
0.8193722197145625
 30
0.0
 11
0.2884537612474016
 21
0.8193722197145625
 31
0.0
1001
AcDbBlockRepETag
1070
     1
1071
       52
1005
20D
  0
LINE
  5
20E
330
1CF
100
AcDbEntity
  8
0
100
AcDbLine
 10
0.3283583851226606
 20
1.459019867126809
 30
0.0
 11
1.046641614877334
 21
1.459019867126805
 31
0.0
1001
AcDbBlockRepETag
1070
     1
1071
       53
1005
20E
  0
LINE
  5
20F
330
1CF
100
AcDbEntity
  8
0
100
AcDbLine
 10
1.046641614877335
 20
1.818161482004146
 30
0.0
 11
0.3283583851226606
 21
1.818161482004146
 31
0.0
1001
AcDbBlockRepETag
1070
     1
1071
       54
1005
20F
  0
LINE
  5
210
330
1CF
100
AcDbEntity
  8
0
100
AcDbLine
 10
0.3283583851226606
 20
1.818161482004146
 30
0.0
 11
0.3283583851226606
 21
1.459019867126809
 31
0.0
1001
AcDbBlockRepETag
1070
     1
1071
       55
1005
210
  0
LINE
  5
211
330
1CF
100
AcDbEntity
  8
0
100
AcDbLine
 10
0.4879768806237
 20
1.459019867126809
 30
0.0
 11
0.4879768806237
 21
1.818161482004146
 31
0.0
1001
AcDbBlockRepETag
1070
     1
1071
       56
1005
211
  0
LINE
  5
212
330
1CF
100
AcDbEntity
  8
0
100
AcDbLine
 10
0.5677861283742214
 20
1.020069004498953
 30
0.0
 11
0.5677861283742214
 21
1.339305995501032
 31
0.0
1001
AcDbBlockRepETag
1070
     1
1071
       57
1005
212
  0
LINE
  5
213
330
1CF
100
AcDbEntity
  8
0
100
AcDbLine
 10
0.448072256748441
 20
1.339305995501018
 30
0.0
 11
0.448072256748441
 21
1.020069004498949
 31
0.0
1001
AcDbBlockRepETag
1070
     1
1071
       58
1005
213
  0
LINE
  5
214
330
1CF
100
AcDbEntity
  8
0
100
AcDbLine
 10
0.448072256748441
 20
1.020069004498949
 30
0.0
 11
0.926927743251559
 21
1.020069004498953
 31
0.0
1001
AcDbBlockRepETag
1070
     1
1071
       59
1005
214
  0
CIRCLE
  5
215
330
1CF
100
AcDbEntity
  8
0
100
AcDbCircle
 10
0.0484391852917963
 20
0.3165843054954465
 30
0.0
 40
0.147934929770927
1001
AcDbBlockRepETag
1070
     1
1071
       60
1005
215
  0
LWPOLYLINE
  5
216
330
1CF
100
AcDbEntity
  8
0
100
AcDbPolyline
 90
       13
 70
     1
 43
0.0
 10
-0.0437356555654756
 20
0.288931853238271
 10
-0.0437356555654756
 20
0.3442367577526149
 10
0.0300042171203447
 20
0.3442367577526149
 10
0.0300042171203447
 20
0.4548465667813453
 10
0.0668741534632549
 20
0.4548465667813453
 10
0.0668741534632549
 20
0.3442367577526149
 10
0.1406140261490609
 20
0.3442367577526149
 10
0.1406140261490609
 20
0.288931853238271
 10
0.0668741534632549
 20
0.288931853238271
 10
0.0668741534632549
 20
0.1783220442095406
 10
0.0300042171203447
 20
0.1783220442095406
 10
0.0300042171203447
 20
0.288931853238271
 10
-0.0437356555654756
 20
0.288931853238271
1001
AcDbBlockRepETag
1070
     1
1071
       61
1005
216
  0
CIRCLE
  5
217
330
1CF
100
AcDbEntity
  8
0
100
AcDbCircle
 10
0.4680245686860705
 20
0.3165843054954465
 30
0.0
 40
0.147934929770927
1001
AcDbBlockRepETag
1070
     1
1071
       62
1005
217
  0
LWPOLYLINE
  5
218
330
1CF
100
AcDbEntity
  8
0
100
AcDbPolyline
 90
       13
 70
     1
 43
0.0
 10
0.3758497278287987
 20
0.288931853238271
 10
0.3758497278287987
 20
0.3442367577526149
 10
0.449589600514619
 20
0.3442367577526149
 10
0.449589600514619
 20
0.4548465667813453
 10
0.4864595368575291
 20
0.4548465667813453
 10
0.4864595368575291
 20
0.3442367577526149
 10
0.5601994095433352
 20
0.3442367577526149
 10
0.5601994095433352
 20
0.288931853238271
 10
0.4864595368575291
 20
0.288931853238271
 10
0.4864595368575291
 20
0.1783220442095406
 10
0.449589600514619
 20
0.1783220442095406
 10
0.449589600514619
 20
0.288931853238271
 10
0.3758497278287987
 20
0.288931853238271
1001
AcDbBlockRepETag
1070
     1
1071
       63
1005
218
  0
CIRCLE
  5
219
330
1CF
100
AcDbEntity
  8
0
100
AcDbCircle
 10
1.326560814708201
 20
0.3165843054954465
 30
0.0
 40
0.147934929770927
1001
AcDbBlockRepETag
1070
     1
1071
       64
1005
219
  0
LWPOLYLINE
  5
21A
330
1CF
100
AcDbEntity
  8
0
100
AcDbPolyline
 90
       13
 70
     1
 43
0.0
 10
1.418735655565473
 20
0.288931853238271
 10
1.418735655565473
 20
0.3442367577526149
 10
1.344995782879653
 20
0.3442367577526149
 10
1.344995782879653
 20
0.4548465667813453
 10
1.308125846536743
 20
0.4548465667813453
 10
1.308125846536743
 20
0.3442367577526149
 10
1.234385973850937
 20
0.3442367577526149
 10
1.234385973850937
 20
0.288931853238271
 10
1.308125846536743
 20
0.288931853238271
 10
1.308125846536743
 20
0.1783220442095406
 10
1.344995782879653
 20
0.1783220442095406
 10
1.344995782879653
 20
0.288931853238271
 10
1.418735655565473
 20
0.288931853238271
1001
AcDbBlockRepETag
1070
     1
1071
       65
1005
21A
  0
CIRCLE
  5
21B
330
1CF
100
AcDbEntity
  8
0
100
AcDbCircle
 10
0.9069754313139277
 20
0.3165843054954465
 30
0.0
 40
0.147934929770927
1001
AcDbBlockRepETag
1070
     1
1071
       66
1005
21B
  0
LWPOLYLINE
  5
21C
330
1CF
100
AcDbEntity
  8
0
100
AcDbPolyline
 90
       13
 70
     1
 43
0.0
 10
0.9991502721711995
 20
0.288931853238271
 10
0.9991502721711995
 20
0.3442367577526149
 10
0.9254103994853792
 20
0.3442367577526149
 10
0.9254103994853792
 20
0.4548465667813453
 10
0.8885404631424691
 20
0.4548465667813453
 10
0.8885404631424691
 20
0.3442367577526149
 10
0.814800590456663
 20
0.3442367577526149
 10
0.814800590456663
 20
0.288931853238271
 10
0.8885404631424691
 20
0.288931853238271
 10
0.8885404631424691
 20
0.1783220442095406
 10
0.9254103994853792
 20
0.1783220442095406
 10
0.9254103994853792
 20
0.288931853238271
 10
0.9991502721711995
 20
0.288931853238271
1001
AcDbBlockRepETag
1070
     1
1071
       67
1005
21C
  0
TEXT
  5
21D
330
1CF
100
AcDbEntity
  8
0
100
AcDbText
 10
-0.0762796377160218
 20
0.0797617358231655
 30
0.0
 40
0.0737407974
  1
2
100
AcDbText
1001
AcDbBlockRepETag
1070
     1
1071
       68
1005
21D
  0
TEXT
  5
21E
330
1CF
100
AcDbEntity
  8
0
100
AcDbText
 10
0.0961726638004645
 20
0.0797617358231655
 30
0.0
 40
0.0737407974
  1
T1
100
AcDbText
1001
AcDbBlockRepETag
1070
     1
1071
       69
1005
21E
  0
TEXT
  5
21F
330
1CF
100
AcDbEntity
  8
0
100
AcDbText
 10
0.3433057456782524
 20
0.0797617358231655
 30
0.0
 40
0.0737407974
  1
4
100
AcDbText
1001
AcDbBlockRepETag
1070
     1
1071
       70
1005
21F
  0
TEXT
  5
220
330
1CF
100
AcDbEntity
  8
0
100
AcDbText
 10
0.5157580471947388
 20
0.0797617358231655
 30
0.0
 40
0.0737407974
  1
T2
100
AcDbText
1001
AcDbBlockRepETag
1070
     1
1071
       71
1005
220
  0
TEXT
  5
221
330
1CF
100
AcDbEntity
  8
0
100
AcDbText
 10
0.7822566083061098
 20
0.0797617358231655
 30
0.0
 40
0.0737407974
  1
6
100
AcDbText
1001
AcDbBlockRepETag
1070
     1
1071
       72
1005
221
  0
TEXT
  5
222
330
1CF
100
AcDbEntity
  8
0
100
AcDbText
 10
0.954708909822596
 20
0.0797617358231655
 30
0.0
 40
0.0737407974
  1
T3
100
AcDbText
1001
AcDbBlockRepETag
1070
     1
1071
       73
1005
222
  0
TEXT
  5
223
330
1CF
100
AcDbEntity
  8
0
100
AcDbText
 10
1.201841991700383
 20
0.0797617358231655
 30
0.0
 40
0.0737407974
  1
14
100
AcDbText
1001
AcDbBlockRepETag
1070
     1
1071
       74
1005
223
  0
TEXT
  5
224
330
1CF
100
AcDbEntity
  8
0
100
AcDbText
 10
1.37429429321687
 20
0.0797617358231655
 30
0.0
 40
0.0737407974
  1
NO
100
AcDbText
1001
AcDbBlockRepETag
1070
     1
1071
       75
1005
224
  0
CIRCLE
  5
225
330
1CF
100
AcDbEntity
  8
0
100
AcDbCircle
 10
0.0484391852917963
 20
2.042790694504539
 30
0.0
 40
0.147934929770927
1001
AcDbBlockRepETag
1070
     1
1071
       76
1005
225
  0
LWPOLYLINE
  5
226
330
1CF
100
AcDbEntity
  8
0
100
AcDbPolyline
 90
       13
 70
     1
 43
0.0
 10
-0.0437356555654756
 20
2.070443146761714
 10
-0.0437356555654756
 20
2.01513824224737
 10
0.0300042171203447
 20
2.01513824224737
 10
0.0300042171203447
 20
1.90452843321864
 10
0.0668741534632549
 20
1.90452843321864
 10
0.0668741534632549
 20
2.01513824224737
 10
0.1406140261490609
 20
2.01513824224737
 10
0.1406140261490609
 20
2.070443146761714
 10
0.0668741534632549
 20
2.070443146761714
 10
0.0668741534632549
 20
2.181052955790445
 10
0.0300042171203447
 20
2.181052955790445
 10
0.0300042171203447
 20
2.070443146761714
 10
-0.0437356555654756
 20
2.070443146761714
1001
AcDbBlockRepETag
1070
     1
1071
       77
1005
226
  0
CIRCLE
  5
227
330
1CF
100
AcDbEntity
  8
0
100
AcDbCircle
 10
0.4680245686860705
 20
2.042790694504539
 30
0.0
 40
0.147934929770927
1001
AcDbBlockRepETag
1070
     1
1071
       78
1005
227
  0
LWPOLYLINE
  5
228
330
1CF
100
AcDbEntity
  8
0
100
AcDbPolyline
 90
       13
 70
     1
 43
0.0
 10
0.3758497278287987
 20
2.070443146761714
 10
0.3758497278287987
 20
2.01513824224737
 10
0.449589600514619
 20
2.01513824224737
 10
0.449589600514619
 20
1.90452843321864
 10
0.4864595368575291
 20
1.90452843321864
 10
0.4864595368575291
 20
2.01513824224737
 10
0.5601994095433352
 20
2.01513824224737
 10
0.5601994095433352
 20
2.070443146761714
 10
0.4864595368575291
 20
2.070443146761714
 10
0.4864595368575291
 20
2.181052955790445
 10
0.449589600514619
 20
2.181052955790445
 10
0.449589600514619
 20
2.070443146761714
 10
0.3758497278287987
 20
2.070443146761714
1001
AcDbBlockRepETag
1070
     1
1071
       79
1005
228
  0
CIRCLE
  5
229
330
1CF
100
AcDbEntity
  8
0
100
AcDbCircle
 10
1.326560814708201
 20
2.042790694504539
 30
0.0
 40
0.147934929770927
1001
AcDbBlockRepETag
1070
     1
1071
       80
1005
229
  0
LWPOLYLINE
  5
22A
330
1CF
100
AcDbEntity
  8
0
100
AcDbPolyline
 90
       13
 70
     1
 43
0.0
 10
1.418735655565473
 20
2.070443146761714
 10
1.418735655565473
 20
2.01513824224737
 10
1.344995782879653
 20
2.01513824224737
 10
1.344995782879653
 20
1.90452843321864
 10
1.308125846536743
 20
1.90452843321864
 10
1.308125846536743
 20
2.01513824224737
 10
1.234385973850937
 20
2.01513824224737
 10
1.234385973850937
 20
2.070443146761714
 10
1.308125846536743
 20
2.070443146761714
 10
1.308125846536743
 20
2.181052955790445
 10
1.344995782879653
 20
2.181052955790445
 10
1.344995782879653
 20
2.070443146761714
 10
1.418735655565473
 20
2.070443146761714
1001
AcDbBlockRepETag
1070
     1
1071
       81
1005
22A
  0
CIRCLE
  5
22B
330
1CF
100
AcDbEntity
  8
0
100
AcDbCircle
 10
0.9069754313139277
 20
2.042790694504539
 30
0.0
 40
0.147934929770927
1001
AcDbBlockRepETag
1070
     1
1071
       82
1005
22B
  0
LWPOLYLINE
  5
22C
330
1CF
100
AcDbEntity
  8
0
100
AcDbPolyline
 90
       13
 70
     1
 43
0.0
 10
0.9991502721711995
 20
2.070443146761714
 10
0.9991502721711995
 20
2.01513824224737
 10
0.9254103994853792
 20
2.01513824224737
 10
0.9254103994853792
 20
1.90452843321864
 10
0.8885404631424691
 20
1.90452843321864
 10
0.8885404631424691
 20
2.01513824224737
 10
0.814800590456663
 20
2.01513824224737
 10
0.814800590456663
 20
2.070443146761714
 10
0.8885404631424691
 20
2.070443146761714
 10
0.8885404631424691
 20
2.181052955790445
 10
0.9254103994853792
 20
2.181052955790445
 10
0.9254103994853792
 20
2.070443146761714
 10
0.9991502721711995
 20
2.070443146761714
1001
AcDbBlockRepETag
1070
     1
1071
       83
1005
22C
  0
TEXT
  5
22D
330
1CF
100
AcDbEntity
  8
0
100
AcDbText
 10
-0.0762796377160218
 20
2.205872466776821
 30
0.0
 40
0.0737407974
  1
1
100
AcDbText
1001
AcDbBlockRepETag
1070
     1
1071
       84
1005
22D
  0
TEXT
  5
22E
330
1CF
100
AcDbEntity
  8
0
100
AcDbText
 10
0.0961726638004645
 20
2.205872466776821
 30
0.0
 40
0.0737407974
  1
L1
100
AcDbText
1001
AcDbBlockRepETag
1070
     1
1071
       85
1005
22E
  0
TEXT
  5
22F
330
1CF
100
AcDbEntity
  8
0
100
AcDbText
 10
0.3433057456782524
 20
2.205872466776821
 30
0.0
 40
0.0737407974
  1
3
100
AcDbText
1001
AcDbBlockRepETag
1070
     1
1071
       86
1005
22F
  0
TEXT
  5
230
330
1CF
100
AcDbEntity
  8
0
100
AcDbText
 10
0.5157580471947388
 20
2.205872466776821
 30
0.0
 40
0.0737407974
  1
L2
100
AcDbText
1001
AcDbBlockRepETag
1070
     1
1071
       87
1005
230
  0
TEXT
  5
231
330
1CF
100
AcDbEntity
  8
0
100
AcDbText
 10
0.7822566083061098
 20
2.205872466776821
 30
0.0
 40
0.0737407974
  1
5
100
AcDbText
1001
AcDbBlockRepETag
1070
     1
1071
       88
1005
231
  0
TEXT
  5
232
330
1CF
100
AcDbEntity
  8
0
100
AcDbText
 10
0.954708909822596
 20
2.205872466776821
 30
0.0
 40
0.0737407974
  1
L3
100
AcDbText
1001
AcDbBlockRepETag
1070
     1
1071
       89
1005
232
  0
TEXT
  5
233
330
1CF
100
AcDbEntity
  8
0
100
AcDbText
 10
1.201841991700383
 20
2.205872466776821
 30
0.0
 40
0.0737407974
  1
13
100
AcDbText
1001
AcDbBlockRepETag
1070
     1
1071
       90
1005
233
  0
TEXT
  5
234
330
1CF
100
AcDbEntity
  8
0
100
AcDbText
 10
1.37429429321687
 20
2.205872466776821
 30
0.0
 40
0.0737407974
  1
NO
100
AcDbText
1001
AcDbBlockRepETag
1070
     1
1071
       91
1005
234
  0
LINE
  5
235
330
1CF
100
AcDbEntity
  8
0
100
AcDbLine
 10
-0.1915753906638091
 20
2.617427624917436
 30
0.0
 11
0.1288352657463623
 21
2.617427624917436
 31
0.0
1001
AcDbBlockRepETag
1070
     1
1071
       92
1005
235
  0
LINE
  5
236
330
1CF
100
AcDbEntity
  8
0
100
AcDbLine
 10
1.566575390663809
 20
2.4578091294164
 30
0.0
 11
1.52667076678855
 21
2.4578091294164
 31
0.0
1001
AcDbBlockRepETag
1070
     1
1071
       93
1005
236
  0
CIRCLE
  5
237
330
1CF
100
AcDbEntity
  8
0
100
AcDbCircle
 10
0.3386279574434994
 20
2.648476212138447
 30
0.0
 40
0.1172099828185033
1001
AcDbBlockRepETag
1070
     1
1071
       94
1005
237
  0
LWPOLYLINE
  5
238
330
1CF
100
AcDbEntity
  8
0
100
AcDbPolyline
 90
       13
 70
     1
 43
0.0
 10
0.2771780635386527
 20
2.666911180309895
 10
0.2771780635386527
 20
2.630041243966999
 10
0.3263379786625293
 20
2.630041243966999
 10
0.3263379786625293
 20
2.556301371281179
 10
0.3509179362244694
 20
2.556301371281179
 10
0.3509179362244694
 20
2.630041243966999
 10
0.4000778513483461
 20
2.630041243966999
 10
0.4000778513483461
 20
2.666911180309895
 10
0.3509179362244694
 20
2.666911180309895
 10
0.3509179362244694
 20
2.740651052995715
 10
0.3263379786625293
 20
2.740651052995715
 10
0.3263379786625293
 20
2.666911180309895
 10
0.2771780635386527
 20
2.666911180309895
1001
AcDbBlockRepETag
1070
     1
1071
       95
1005
238
  0
CIRCLE
  5
239
330
1CF
100
AcDbEntity
  8
0
100
AcDbCircle
 10
1.037545707964593
 20
2.648476212138447
 30
0.0
 40
0.1172099828185034
1001
AcDbBlockRepETag
1070
     1
1071
       96
1005
239
  0
LWPOLYLINE
  5
23A
330
1CF
100
AcDbEntity
  8
0
100
AcDbPolyline
 90
       13
 70
     1
 43
0.0
 10
1.09899560186944
 20
2.666911180309895
 10
1.09899560186944
 20
2.630041243966999
 10
1.049835686745563
 20
2.630041243966999
 10
1.049835686745563
 20
2.556301371281179
 10
1.025255729183623
 20
2.556301371281179
 10
1.025255729183623
 20
2.630041243966999
 10
0.9760958140597466
 20
2.630041243966999
 10
0.9760958140597466
 20
2.666911180309895
 10
1.025255729183623
 20
2.666911180309895
 10
1.025255729183623
 20
2.740651052995715
 10
1.049835686745563
 20
2.740651052995715
 10
1.049835686745563
 20
2.666911180309895
 10
1.09899560186944
 20
2.666911180309895
1001
AcDbBlockRepETag
1070
     1
1071
       97
1005
23A
  0
TEXT
  5
23B
330
1CF
100
AcDbEntity
  8
0
100
AcDbText
 10
1.110275725668635
 20
2.76384911236887
 30
0.0
 40
0.0737407974
  1
A2
100
AcDbText
1001
AcDbBlockRepETag
1070
     1
1071
       98
1005
23B
  0
TEXT
  5
23C
330
1CF
100
AcDbEntity
  8
0
100
AcDbText
 10
0.1429966107394573
 20
2.76384911236887
 30
0.0
 40
0.0737407974
  1
A1
100
AcDbText
1001
AcDbBlockRepETag
1070
     1
1071
       99
1005
23C
  0
CIRCLE
  5
23D
330
1CF
100
AcDbEntity
  8
0
  6
HIDDEN2
100
AcDbCircle
 10
1.374999999999996
 20
2.359374999999985
 30
0.0
 40
0.09375
1001
AcDbBlockRepETag
1070
     1
1071
      100
1005
23D
  0
CIRCLE
  5
23E
330
1CF
100
AcDbEntity
  8
0
  6
HIDDEN2
100
AcDbCircle
 10
0.0
 20
0.0
 30
0.0
 40
0.09375
1001
AcDbBlockRepETag
1070
     1
1071
      101
1005
23E
  0
POINT
  5
23F
330
1CF
100
AcDbEntity
  8
0
 62
     1
100
AcDbPoint
 10
1.374999999999996
 20
2.359374999999985
 30
0.0
1001
AcDbBlockRepETag
1070
     1
1071
      102
1005
23F
  0
POINT
  5
240
330
1CF
100
AcDbEntity
  8
0
 62
     1
100
AcDbPoint
 10
0.0
 20
0.0
 30
0.0
1001
AcDbBlockRepETag
1070
     1
1071
      103
1005
240
  0
TEXT
  5
241
330
1CF
100
AcDbEntity
  8
SS-A
 62
     4
100
AcDbText
 10
-0.0916821879566415
 20
0.8394595394734725
 30
0.0
 40
0.1422194935674756
  1
CA7
 41
0.75
  7
SIMPLEX
 72
     4
 11
0.053076939424539
 21
0.9105692862572103
 31
0.0
100
AcDbText
1001
AcDbBlockRepETag
1070
     1
1071
      104
1005
241
  0
TEXT
  5
242
330
1CF
100
AcDbEntity
  8
SS-A
 62
     4
 60
     1
100
AcDbText
 10
-0.0993010893977563
 20
0.6635931879648062
 30
0.0
 40
0.1422194935674756
  1
-23
 41
0.75
  7
SIMPLEX
 72
     4
 11
0.053076939424539
 21
0.7347029347485439
 31
0.0
100
AcDbText
1001
AcDbBlockRepETag
1070
     1
1071
      105
1005
242
  0
TEXT
  5
243
330
1CF
100
AcDbEntity
  8
SS-A
 62
     4
 60
     1
100
AcDbText
 10
-0.0866029203292317
 20
0.6635931879648061
 30
0.0
 40
0.1422194935674756
  1
-16
 41
0.75
  7
SIMPLEX
 72
     4
 11
0.053076939424539
 21
0.7347029347485439
 31
0.0
100
AcDbText
1001
AcDbBlockRepETag
1070
     1
1071
      106
1005
243
  0
TEXT
  5
244
330
1CF
100
AcDbEntity
  8
SS-A
 62
     4
 60
     1
100
AcDbText
 10
-0.0891425541429367
 20
0.6635931879648061
 30
0.0
 40
0.1422194935674756
  1
-12
 41
0.75
  7
SIMPLEX
 72
     4
 11
0.053076939424539
 21
0.7347029347485439
 31
0.0
100
AcDbText
1001
AcDbBlockRepETag
1070
     1
1071
      107
1005
244
  0
TEXT
  5
245
330
1CF
100
AcDbEntity
  8
SS-A
 62
     4
100
AcDbText
 10
-0.0967614555840514
 20
0.6635931879648061
 30
0.0
 40
0.1422194935674756
  1
-09
 41
0.75
  7
SIMPLEX
 72
     4
 11
0.053076939424539
 21
0.7347029347485439
 31
0.0
100
AcDbText
1001
AcDbBlockRepETag
1070
     1
1071
      108
1005
245
  0
TEXT
  5
246
330
1CF
100
AcDbEntity
  8
SS-A
 62
     4
 60
     1
100
AcDbText
 10
-0.0866029203292317
 20
0.8394595394734725
 30
0.0
 40
0.1422194935674756
  1
CS7
 41
0.75
  7
SIMPLEX
 72
     4
 11
0.053076939424539
 21
0.9105692862572103
 31
0.0
100
AcDbText
1001
AcDbBlockRepETag
1070
     1
1071
      109
1005
246
  0
ENDBLK
  5
247
330
1CF
100
AcDbEntity
  8
0
 62
     1
100
AcDbBlockEnd
  0
BLOCK
  5
251
330
248
100
AcDbEntity
  8
0
 62
     1
100
AcDbBlockBegin
  2
*U2
 70
     1
 10
0.0
 20
0.0
 30
0.0
  3
*U2
  1

  0
LINE
  5
252
330
248
100
AcDbEntity
  8
0
100
AcDbLine
 10
0.3610923790222742
 20
0.8848194471309707
 30
0.0
 11
0.0
 21
0.8848194471309707
 31
0.0
1001
AcDbBlockRepETag
1070
     1
1071
        0
1005
252
  0
LINE
  5
253
330
248
100
AcDbEntity
  8
0
100
AcDbLine
 10
0.0
 20
-0.8870746481529661
 30
0.0
 11
0.3610923790222742
 21
-0.8870746481529661
 31
0.0
1001
AcDbBlockRepETag
1070
     1
1071
        1
1005
253
  0
LWPOLYLINE
  5
254
330
248
100
AcDbEntity
  8
0
100
AcDbPolyline
 90
        4
 70
     0
 43
0.0
 10
0.0
 20
0.0503950689915787
 10
-0.1500576064637364
 20
0.0503950689915787
 10
-0.1500576064637364
 20
-0.0503950689915787
 10
0.0
 20
-0.0503950689915787
1001
AcDbBlockRepETag
1070
     1
1071
        2
1005
254
  0
LWPOLYLINE
  5
255
330
248
100
AcDbEntity
  8
0
100
AcDbPolyline
 90
        4
 70
     0
 43
0.0
 10
0.3610923790222742
 20
0.0503950689915787
 10
0.5111499854860107
 20
0.0503950689915787
 10
0.5111499854860107
 20
-0.0503950689915787
 10
0.3610923790222742
 20
-0.0503950689915787
1001
AcDbBlockRepETag
1070
     1
1071
        3
1005
255
  0
LWPOLYLINE
  5
256
330
248
100
AcDbEntity
  8
0
100
AcDbPolyline
 90
        4
 70
     1
 43
0.0
 10
0.3610923790222742
 20
-1.409847592752354
 10
0.3610923790222742
 20
1.409847592752354
 10
0.0
 20
1.409847592752354
 10
0.0
 20
-1.409847592752354
1001
AcDbBlockRepETag
1070
     1
1071
        4
1005
256
  0
CIRCLE
  5
257
330
248
100
AcDbEntity
  8
0
100
AcDbCircle
 10
0.184999999999999
 20
0.4800000000000022
 30
-0.0000000000000002
 40
0.125
1001
AcDbBlockRepETag
1070
     1
1071
        5
1005
257
  0
CIRCLE
  5
258
330
248
100
AcDbEntity
  8
0
100
AcDbCircle
 10
0.1849999999999989
 20
-0.4800000000000022
 30
-0.0000000000000002
 40
0.125
1001
AcDbBlockRepETag
1070
     1
1071
        6
1005
258
  0
LWPOLYLINE
  5
259
330
248
100
AcDbEntity
  8
0
100
AcDbPolyline
 90
        6
 70
     0
 43
0.0
 10
0.0609032635400911
 20
0.4950000000000046
 10
0.1699999999999984
 20
0.4950000000000046
 10
0.1699999999999984
 20
0.5400000000000027
 10
0.1999999999999996
 20
0.5400000000000027
 10
0.1999999999999996
 20
0.4950000000000046
 10
0.3090967364599069
 20
0.4950000000000045
1001
AcDbBlockRepETag
1070
     1
1071
        7
1005
259
  0
LWPOLYLINE
  5
25A
330
248
100
AcDbEntity
  8
0
100
AcDbPolyline
 90
        6
 70
     0
 43
0.0
 10
0.0609032635400911
 20
0.4650000000000034
 10
0.1699999999999984
 20
0.4650000000000034
 10
0.1699999999999984
 20
0.4200000000000053
 10
0.1999999999999996
 20
0.4200000000000053
 10
0.1999999999999996
 20
0.4650000000000034
 10
0.3090967364599069
 20
0.4650000000000034
1001
AcDbBlockRepETag
1070
     1
1071
        8
1005
25A
  0
LWPOLYLINE
  5
25B
330
248
100
AcDbEntity
  8
0
100
AcDbPolyline
 90
        6
 70
     0
 43
0.0
 10
0.3090967364599104
 20
-0.4650000000000017
 10
0.1999999999999995
 20
-0.4650000000000017
 10
0.1999999999999995
 20
-0.4200000000000035
 10
0.1699999999999983
 20
-0.4200000000000035
 10
0.1699999999999983
 20
-0.4650000000000017
 10
0.0609032635400945
 20
-0.4650000000000017
1001
AcDbBlockRepETag
1070
     1
1071
        9
1005
25B
  0
LWPOLYLINE
  5
25C
330
248
100
AcDbEntity
  8
0
100
AcDbPolyline
 90
        6
 70
     0
 43
0.0
 10
0.3090967364599104
 20
-0.4950000000000028
 10
0.1999999999999995
 20
-0.4950000000000028
 10
0.1999999999999994
 20
-0.540000000000001
 10
0.1699999999999983
 20
-0.540000000000001
 10
0.1699999999999983
 20
-0.4950000000000028
 10
0.0609032635400945
 20
-0.4950000000000028
1001
AcDbBlockRepETag
1070
     1
1071
       10
1005
25C
  0
TEXT
  5
25D
330
248
100
AcDbEntity
  8
0
100
AcDbText
 10
0.0048413391426194
 20
-0.7212405737522092
 30
-0.0000000000000002
 40
0.07979481234017
  1
NC
 72
     1
 11
0.085343745316638
 21
-0.6813431675821242
 31
-0.0000000000000002
100
AcDbText
 73
     2
1001
AcDbBlockRepETag
1070
     1
1071
       11
1005
25D
  0
TEXT
  5
25E
330
248
100
AcDbEntity
  8
0
100
AcDbText
 10
0.0233476394125087
 20
-0.8429494572375588
 30
-0.0000000000000002
 40
0.07979481234017
  1
21
 72
     1
 11
0.085343745316638
 21
-0.8030520510674739
 31
-0.0000000000000002
100
AcDbText
 73
     2
1001
AcDbBlockRepETag
1070
     1
1071
       12
1005
25E
  0
TEXT
  5
25F
330
248
100
AcDbEntity
  8
0
100
AcDbText
 10
0.2137525278015067
 20
0.7635157506354471
 30
-0.0000000000000002
 40
0.07979481234017
  1
21
 72
     1
 11
0.275748633705636
 21
0.803413156805532
 31
-0.0000000000000002
100
AcDbText
 73
     2
1001
AcDbBlockRepETag
1070
     1
1071
       13
1005
25F
  0
TEXT
  5
260
330
248
100
AcDbEntity
  8
0
100
AcDbText
 10
0.1952462275316173
 20
0.641806867150101
 30
-0.0000000000000002
 40
0.07979481234017
  1
NC
 72
     1
 11
0.275748633705636
 21
0.6817042733201859
 31
-0.0000000000000002
100
AcDbText
 73
     2
1001
AcDbBlockRepETag
1070
     1
1071
       14
1005
260
  0
SOLID
  5
261
330
248
100
AcDbEntity
  8
0
100
AcDbTrace
 10
0.3404943773252999
 20
-0.7810064158212926
 30
-0.0000000000000002
 11
0.1784943773253008
 21
-0.7540064158212925
 31
-0.0000000000000002
 12
0.3404943773252999
 22
-0.7270064158212924
 32
-0.0000000000000002
 13
0.3404943773252999
 23
-0.7270064158212924
 33
-0.0000000000000002
1001
ACAD
1000
DSTYLE
1002
{
1070
   147
1040
0.09
1070
    77
1070
     0
1070
   178
1070
     4
1002
}
1001
AcDbBlockRepETag
1070
     1
1071
       15
1005
261
  0
SOLID
  5
262
330
248
100
AcDbEntity
  8
0
100
AcDbTrace
 10
0.0205980016969741
 20
0.7813675215593517
 30
-0.0000000000000002
 11
0.182598001696974
 21
0.7543675215593515
 31
-0.0000000000000002
 12
0.0205980016969741
 22
0.7273675215593514
 32
-0.0000000000000002
 13
0.0205980016969741
 23
0.7273675215593514
 33
-0.0000000000000002
1001
ACAD
1000
DSTYLE
1002
{
1070
   147
1040
0.09
1070
    77
1070
     0
1070
   178
1070
     4
1002
}
1001
AcDbBlockRepETag
1070
     1
1071
       16
1005
262
  0
CIRCLE
  5
263
330
248
100
AcDbEntity
  8
0
100
AcDbCircle
 10
0.1784994241785824
 20
-1.115572641469684
 30
-0.0000000000000004
 40
0.125
1001
AcDbBlockRepETag
1070
     1
1071
       17
1005
263
  0
LWPOLYLINE
  5
264
330
248
100
AcDbEntity
  8
0
100
AcDbPolyline
 90
        6
 70
     0
 43
0.0
 10
0.3025961606384939
 20
-1.100572641469684
 10
0.193499424178583
 20
-1.100572641469684
 10
0.193499424178583
 20
-1.055572641469685
 10
0.1634994241785819
 20
-1.055572641469685
 10
0.1634994241785819
 20
-1.100572641469684
 10
0.0544026877186781
 20
-1.100572641469684
1001
AcDbBlockRepETag
1070
     1
1071
       18
1005
264
  0
LWPOLYLINE
  5
265
330
248
100
AcDbEntity
  8
0
100
AcDbPolyline
 90
        6
 70
     0
 43
0.0
 10
0.3025961606384939
 20
-1.130572641469685
 10
0.193499424178583
 20
-1.130572641469685
 10
0.193499424178583
 20
-1.175572641469683
 10
0.1634994241785818
 20
-1.175572641469683
 10
0.1634994241785819
 20
-1.130572641469685
 10
0.0544026877186781
 20
-1.130572641469685
1001
AcDbBlockRepETag
1070
     1
1071
       19
1005
265
  0
CIRCLE
  5
266
330
248
100
AcDbEntity
  8
0
100
AcDbCircle
 10
0.1915005758214152
 20
1.115211535731626
 30
-0.0000000000000004
 40
0.125
1001
AcDbBlockRepETag
1070
     1
1071
       20
1005
266
  0
LWPOLYLINE
  5
267
330
248
100
AcDbEntity
  8
0
100
AcDbPolyline
 90
        6
 70
     0
 43
0.0
 10
0.0674038393615073
 20
1.130211535731628
 10
0.1765005758214146
 20
1.130211535731628
 10
0.1765005758214146
 20
1.175211535731627
 10
0.2065005758214158
 20
1.175211535731627
 10
0.2065005758214158
 20
1.130211535731628
 10
0.3155973122813231
 20
1.130211535731628
1001
AcDbBlockRepETag
1070
     1
1071
       21
1005
267
  0
LWPOLYLINE
  5
268
330
248
100
AcDbEntity
  8
0
100
AcDbPolyline
 90
        6
 70
     0
 43
0.0
 10
0.0674038393615073
 20
1.100211535731627
 10
0.1765005758214146
 20
1.100211535731627
 10
0.1765005758214146
 20
1.055211535731629
 10
0.2065005758214158
 20
1.055211535731629
 10
0.2065005758214158
 20
1.100211535731627
 10
0.3155973122813231
 20
1.100211535731627
1001
AcDbBlockRepETag
1070
     1
1071
       22
1005
268
  0
TEXT
  5
269
330
248
100
AcDbEntity
  8
0
100
AcDbText
 10
0.0233476394125095
 20
-1.377866844508631
 30
0.0
 40
0.07979481234017
  1
22
 72
     1
 11
0.0853437453166388
 21
-1.337969438338546
 31
0.0
100
AcDbText
 73
     2
1001
AcDbBlockRepETag
1070
     1
1071
       23
1005
269
  0
TEXT
  5
26A
330
248
100
AcDbEntity
  8
0
100
AcDbText
 10
0.2137525278015056
 20
1.294169511366238
 30
0.0
 40
0.07979481234017
  1
22
 72
     1
 11
0.275748633705635
 21
1.334066917536323
 31
0.0
100
AcDbText
 73
     2
1001
AcDbBlockRepETag
1070
     1
1071
       24
1005
26A
  0
POINT
  5
26B
330
248
100
AcDbEntity
  8
0
 62
     1
100
AcDbPoint
 10
0.0
 20
0.0
 30
0.0
1001
AcDbBlockRepETag
1070
     1
1071
       25
1005
26B
  0
TEXT
  5
26C
330
248
100
AcDbEntity
  8
SS-A
 62
     4
100
AcDbText
 10
0.2249897812509695
 20
-0.1719543728029373
 30
0.0
 40
0.0888871834796722
  1
CM7-02
 50
90.0
 41
0.65
  7
SIMPLEX
 72
     4
 11
0.1805461895111334
 21
0.0
 31
0.0
100
AcDbText
1001
AcDbBlockRepETag
1070
     1
1071
       26
1005
26C
  0
ENDBLK
  5
26D
330
248
100
AcDbEntity
  8
0
 62
     1
100
AcDbBlockEnd
  0
BLOCK
  5
277
330
26E
100
AcDbEntity
  8
0
 62
     1
100
AcDbBlockBegin
  2
*U3
 70
     1
 10
0.0
 20
0.0
 30
0.0
  3
*U3
  1

  0
LINE
  5
278
330
26E
100
AcDbEntity
  8
0
100
AcDbLine
 10
1.000617572721301
 20
0.0410110755649837
 30
0.0
 11
1.000617572721301
 21
0.4745505749301407
 31
0.0
1001
AcDbBlockRepETag
1070
     1
1071
        0
1005
278
  0
LINE
  5
279
330
26E
100
AcDbEntity
  8
0
100
AcDbLine
 10
1.000617572721301
 20
0.4745505749301407
 30
0.0
 11
0.9339945536098195
 21
0.4745505749301407
 31
0.0
1001
AcDbBlockRepETag
1070
     1
1071
        1
1005
279
  0
LINE
  5
27A
330
26E
100
AcDbEntity
  8
0
100
AcDbLine
 10
0.5675679484966701
 20
0.4745505749301407
 30
0.0
 11
0.5004550542446627
 21
0.4745505749301407
 31
0.0
1001
AcDbBlockRepETag
1070
     1
1071
        2
1005
27A
  0
LINE
  5
27B
330
26E
100
AcDbEntity
  8
0
100
AcDbLine
 10
1.517435845975809
 20
-0.3087597747702953
 30
0.0
 11
1.517435845975809
 21
-0.0755792078801116
 31
0.0
1001
AcDbBlockRepETag
1070
     1
1071
        3
1005
27B
  0
LINE
  5
27C
330
26E
100
AcDbEntity
  8
0
100
AcDbLine
 10
0.3005859969102183
 20
-0.0755792078801116
 30
0.0
 11
0.2506187325766085
 21
-0.0755792078801116
 31
0.0
1001
AcDbBlockRepETag
1070
     1
1071
        4
1005
27C
  0
LINE
  5
27D
330
26E
100
AcDbEntity
  8
0
100
AcDbLine
 10
1.300911033863494
 20
-0.2921040199924265
 30
0.0
 11
1.417501317308586
 21
-0.2921040199924265
 31
0.0
1001
AcDbBlockRepETag
1070
     1
1071
        5
1005
27D
  0
LINE
  5
27E
330
26E
100
AcDbEntity
  8
0
100
AcDbLine
 10
1.417501317308586
 20
-0.2921040199924265
 30
0.0
 11
1.417501317308586
 21
-0.1422022269915937
 31
0.0
1001
AcDbBlockRepETag
1070
     1
1071
        6
1005
27E
  0
LINE
  5
27F
330
26E
100
AcDbEntity
  8
0
100
AcDbLine
 10
1.417501317308586
 20
-0.1422022269915937
 30
0.0
 11
1.300911033863494
 21
-0.1422022269915937
 31
0.0
1001
AcDbBlockRepETag
1070
     1
1071
        7
1005
27F
  0
LINE
  5
280
330
26E
100
AcDbEntity
  8
0
100
AcDbLine
 10
1.300911033863494
 20
-0.3592169142444321
 30
0.0
 11
1.300911033863494
 21
-0.0755792078801081
 31
0.0
1001
AcDbBlockRepETag
1070
     1
1071
        8
1005
280
  0
LINE
  5
281
330
26E
100
AcDbEntity
  8
0
100
AcDbLine
 10
0.2506187325766067
 20
-0.3087597747702953
 30
0.0
 11
0.2506187325766085
 21
-0.0755792078801116
 31
0.0
1001
AcDbBlockRepETag
1070
     1
1071
        9
1005
281
  0
LINE
  5
282
330
26E
100
AcDbEntity
  8
0
100
AcDbLine
 10
0.3005859969102183
 20
-0.2088252461030757
 30
0.0
 11
0.3005859969102183
 21
-0.0755792078801116
 31
0.0
1001
AcDbBlockRepETag
1070
     1
1071
       10
1005
282
  0
LINE
  5
283
330
26E
100
AcDbEntity
  8
0
100
AcDbLine
 10
0.4504877899110511
 20
-0.2088252461030757
 30
0.0
 11
0.3005859969102183
 21
-0.2088252461030757
 31
0.0
1001
AcDbBlockRepETag
1070
     1
1071
       11
1005
283
  0
LINE
  5
284
330
26E
100
AcDbEntity
  8
0
100
AcDbLine
 10
1.517435845975809
 20
-0.0755792078801116
 30
0.0
 11
1.034418957417567
 21
-0.0755792078801116
 31
0.0
1001
AcDbBlockRepETag
1070
     1
1071
       12
1005
284
  0
LINE
  5
285
330
26E
100
AcDbEntity
  8
0
100
AcDbLine
 10
0.3005859969102183
 20
-0.3087597747702953
 30
0.0
 11
0.3005859969102183
 21
-0.2587925104366855
 31
0.0
1001
AcDbBlockRepETag
1070
     1
1071
       13
1005
285
  0
LINE
  5
286
330
26E
100
AcDbEntity
  8
0
100
AcDbLine
 10
0.3005859969102183
 20
-0.2587925104366855
 30
0.0
 11
0.4504877899110511
 21
-0.2587925104366819
 31
0.0
1001
AcDbBlockRepETag
1070
     1
1071
       14
1005
286
  0
LINE
  5
287
330
26E
100
AcDbEntity
  8
0
100
AcDbLine
 10
0.4504877899110511
 20
-0.3087597747702953
 30
0.0
 11
0.4504877899110529
 21
0.0410110755649837
 31
0.0
1001
AcDbBlockRepETag
1070
     1
1071
       15
1005
287
  0
LINE
  5
288
330
26E
100
AcDbEntity
  8
0
100
AcDbLine
 10
0.6008794580524111
 20
0.0410110755649837
 30
0.0
 11
0.4504877899110529
 21
0.0410110755649837
 31
0.0
1001
AcDbBlockRepETag
1070
     1
1071
       16
1005
288
  0
LINE
  5
289
330
26E
100
AcDbEntity
  8
0
100
AcDbLine
 10
0.6175352128302816
 20
-0.3087597747702953
 30
0.0
 11
0.6175352128302816
 21
-0.0922349626579768
 31
0.0
1001
AcDbBlockRepETag
1070
     1
1071
       17
1005
289
  0
LINE
  5
28A
330
26E
100
AcDbEntity
  8
0
100
AcDbLine
 10
0.6008794580524129
 20
-0.0922349626579768
 30
0.0
 11
0.6175352128302816
 21
-0.0922349626579768
 31
0.0
1001
AcDbBlockRepETag
1070
     1
1071
       18
1005
28A
  0
LINE
  5
28B
330
26E
100
AcDbEntity
  8
0
100
AcDbLine
 10
0.6008794580524111
 20
0.0410110755649837
 30
0.0
 11
0.6008794580524129
 21
-0.0922349626579768
 31
0.0
1001
AcDbBlockRepETag
1070
     1
1071
       19
1005
28B
  0
LINE
  5
28C
330
26E
100
AcDbEntity
  8
0
100
AcDbLine
 10
0.8840272892762079
 20
-0.2088252461030757
 30
0.0
 11
0.6175352128302816
 21
-0.2088252461030722
 31
0.0
1001
AcDbBlockRepETag
1070
     1
1071
       20
1005
28C
  0
LINE
  5
28D
330
26E
100
AcDbEntity
  8
0
100
AcDbLine
 10
0.6175352128302816
 20
-0.258792510436689
 30
0.0
 11
0.8840272892762079
 21
-0.2587925104366784
 31
0.0
1001
AcDbBlockRepETag
1070
     1
1071
       21
1005
28D
  0
LINE
  5
28E
330
26E
100
AcDbEntity
  8
0
100
AcDbLine
 10
0.8840272892762079
 20
-0.3592169142444321
 30
0.0
 11
0.8840272892762079
 21
0.0410110755649802
 31
0.0
1001
AcDbBlockRepETag
1070
     1
1071
       22
1005
28E
  0
LINE
  5
28F
330
26E
100
AcDbEntity
  8
0
100
AcDbLine
 10
1.051074712195438
 20
-0.3592169142444321
 30
0.0
 11
1.051074712195442
 21
-0.0922349626579839
 31
0.0
1001
AcDbBlockRepETag
1070
     1
1071
       23
1005
28F
  0
LINE
  5
290
330
26E
100
AcDbEntity
  8
0
100
AcDbLine
 10
1.034418957417567
 20
-0.0922349626579839
 30
0.0
 11
1.051074712195442
 21
-0.0922349626579839
 31
0.0
1001
AcDbBlockRepETag
1070
     1
1071
       24
1005
290
  0
LINE
  5
291
330
26E
100
AcDbEntity
  8
0
100
AcDbLine
 10
1.034418957417567
 20
-0.0922349626579839
 30
0.0
 11
1.034418957417567
 21
0.0410110755649873
 31
0.0
1001
AcDbBlockRepETag
1070
     1
1071
       25
1005
291
  0
LINE
  5
292
330
26E
100
AcDbEntity
  8
0
100
AcDbLine
 10
1.034418957417567
 20
0.0410110755649873
 30
0.0
 11
0.8840272892762079
 21
0.0410110755649802
 31
0.0
1001
AcDbBlockRepETag
1070
     1
1071
       26
1005
292
  0
LINE
  5
293
330
26E
100
AcDbEntity
  8
0
100
AcDbLine
 10
1.450812826864327
 20
-0.3592169142444321
 30
0.0
 11
1.450812826864327
 21
-0.3087597747702953
 31
0.0
1001
AcDbBlockRepETag
1070
     1
1071
       27
1005
293
  0
LINE
  5
294
330
26E
100
AcDbEntity
  8
0
100
AcDbLine
 10
1.450812826864327
 20
-0.3087597747702953
 30
0.0
 11
1.567892985449947
 21
-0.3087597747702953
 31
0.0
1001
AcDbBlockRepETag
1070
     1
1071
       28
1005
294
  0
LINE
  5
295
330
26E
100
AcDbEntity
  8
0
100
AcDbLine
 10
1.567892985449947
 20
-0.3087597747702953
 30
0.0
 11
1.567892985449912
 21
-2.793406487516141
 31
0.0
1001
AcDbBlockRepETag
1070
     1
1071
       29
1005
295
  0
LWPOLYLINE
  5
296
330
26E
100
AcDbEntity
  8
0
100
AcDbPolyline
 90
        8
 70
     1
 43
0.0
 10
0.7674370058311144
 20
-0.6590205002461014
 10
1.450812826864327
 20
-0.6590205002461014
 10
1.450812826864327
 20
-0.3592169142444321
 10
0.7674370058311144
 20
-0.3592169142444321
 10
0.7674370058311144
 20
-0.4258399333559142
 10
0.7174697414975047
 20
-0.4258399333559142
 10
0.7174697414975047
 20
-0.6090532359124881
 10
0.7674370058311144
 20
-0.6090532359124881
1001
AcDbBlockRepETag
1070
     1
1071
       30
1005
296
  0
LINE
  5
297
330
26E
100
AcDbEntity
  8
0
100
AcDbLine
 10
0.7674370058311144
 20
-0.3592169142444321
 30
0.0
 11
0.7674370058311127
 21
-0.3087597747702953
 31
0.0
1001
AcDbBlockRepETag
1070
     1
1071
       31
1005
297
  0
LINE
  5
298
330
26E
100
AcDbEntity
  8
0
100
AcDbLine
 10
-0.1829207667885502
 20
-0.3087597747702953
 30
0.0
 11
0.7674370058311127
 21
-0.3087597747702953
 31
0.0
1001
AcDbBlockRepETag
1070
     1
1071
       32
1005
298
  0
LINE
  5
299
330
26E
100
AcDbEntity
  8
0
100
AcDbLine
 10
0.5675679484966701
 20
0.4745505749301407
 30
0.0
 11
0.5675679484966736
 21
0.0410110755649837
 31
0.0
1001
AcDbBlockRepETag
1070
     1
1071
       33
1005
299
  0
LINE
  5
29A
330
26E
100
AcDbEntity
  8
0
100
AcDbLine
 10
0.5004550542446627
 20
0.4745505749301407
 30
0.0
 11
0.5004550542446627
 21
0.0410110755649837
 31
0.0
1001
AcDbBlockRepETag
1070
     1
1071
       34
1005
29A
  0
LINE
  5
29B
330
26E
100
AcDbEntity
  8
0
100
AcDbLine
 10
0.9339945536098195
 20
0.4745505749301407
 30
0.0
 11
0.9339945536098195
 21
0.0410110755649802
 31
0.0
1001
AcDbBlockRepETag
1070
     1
1071
       35
1005
29B
  0
LINE
  5
29C
330
26E
100
AcDbEntity
  8
0
100
AcDbLine
 10
-0.0017689737877156
 20
-0.3087597747702953
 30
0.0
 11
-0.0017689737877156
 21
0.0410110755649837
 31
0.0
1001
AcDbBlockRepETag
1070
     1
1071
       36
1005
29C
  0
LINE
  5
29D
330
26E
100
AcDbEntity
  8
0
100
AcDbLine
 10
-0.0017689737877156
 20
0.0410110755649837
 30
0.0
 11
-0.1516707667885502
 21
0.0410110755649837
 31
0.0
1001
AcDbBlockRepETag
1070
     1
1071
       37
1005
29D
  0
LINE
  5
29E
330
26E
100
AcDbEntity
  8
0
100
AcDbLine
 10
-0.1829207667885519
 20
-2.793406487516143
 30
0.0
 11
-0.1829207667885504
 21
-0.3087597747702953
 31
0.0
1001
AcDbBlockRepETag
1070
     1
1071
       38
1005
29E
  0
LINE
  5
29F
330
26E
100
AcDbEntity
  8
0
100
AcDbLine
 10
-0.1183592572328092
 20
0.4745505749301407
 30
0.0
 11
-0.0350804833434566
 21
0.4745505749301407
 31
0.0
1001
AcDbBlockRepETag
1070
     1
1071
       39
1005
29F
  0
LINE
  5
2A0
330
26E
100
AcDbEntity
  8
0
100
AcDbLine
 10
-0.0350804833434566
 20
0.4745505749301407
 30
0.0
 11
-0.0350804833434548
 21
0.0410110755649837
 31
0.0
1001
AcDbBlockRepETag
1070
     1
1071
       40
1005
2A0
  0
LINE
  5
2A1
330
26E
100
AcDbEntity
  8
0
100
AcDbLine
 10
-0.1183592572328092
 20
0.4745505749301407
 30
0.0
 11
-0.1183592572328092
 21
0.0410110755649837
 31
0.0
1001
AcDbBlockRepETag
1070
     1
1071
       41
1005
2A1
  0
LINE
  5
2A2
330
26E
100
AcDbEntity
  8
0
100
AcDbLine
 10
-0.1829207667885502
 20
-2.710127713626786
 30
0.0
 11
1.567892985449946
 21
-2.710127713626786
 31
0.0
1001
AcDbBlockRepETag
1070
     1
1071
       42
1005
2A2
  0
LINE
  5
2A3
330
26E
100
AcDbEntity
  8
0
100
AcDbLine
 10
1.567892985449946
 20
-2.793406487516141
 30
0.0
 11
-0.1829207667885502
 21
-2.793406487516141
 31
0.0
1001
AcDbBlockRepETag
1070
     1
1071
       43
1005
2A3
  0
LWPOLYLINE
  5
2A4
330
26E
100
AcDbEntity
  8
0
100
AcDbPolyline
 90
        4
 70
     1
 43
0.0
 10
0.4005205255774414
 20
-2.793406487516141
 10
0.4338320351331806
 20
-2.793406487516141
 10
0.4338320351331806
 20
-2.893830891323887
 10
0.4005205255774414
 20
-2.893830891323887
1001
AcDbBlockRepETag
1070
     1
1071
       44
1005
2A4
  0
LWPOLYLINE
  5
2A5
330
26E
100
AcDbEntity
  8
0
100
AcDbPolyline
 90
        4
 70
     1
 43
0.0
 10
0.95065030838769
 20
-2.793406487516141
 10
0.9839618179434292
 20
-2.793406487516141
 10
0.9839618179434292
 20
-2.893830891323887
 10
0.95065030838769
 20
-2.893830891323887
1001
AcDbBlockRepETag
1070
     1
1071
       45
1005
2A5
  0
CIRCLE
  5
2A6
330
26E
100
AcDbEntity
  8
0
100
AcDbCircle
 10
0.5450063639590717
 20
-0.9676418387772303
 30
0.0
 40
0.1356449509899573
1001
AcDbBlockRepETag
1070
     1
1071
       46
1005
2A6
  0
CIRCLE
  5
2A7
330
26E
100
AcDbEntity
  8
0
100
AcDbCircle
 10
0.5450063639590717
 20
-0.9676418387772303
 30
0.0
 40
0.1966396604955086
1001
AcDbBlockRepETag
1070
     1
1071
       47
1005
2A7
  0
LWPOLYLINE
  5
2A8
330
26E
100
AcDbEntity
  8
0
100
AcDbPolyline
 90
        4
 70
     1
 43
0.0
 10
0.0037921131971252
 20
-1.164281499272751
 10
0.1881417949116653
 20
-1.164281499272751
 10
0.1881417949116653
 20
-0.8442868665682583
 10
0.0037921131971252
 20
-0.8442868665682583
1001
AcDbBlockRepETag
1070
     1
1071
       48
1005
2A8
  0
LWPOLYLINE
  5
2A9
330
26E
100
AcDbEntity
  8
0
100
AcDbPolyline
 90
        4
 70
     1
 43
0.0
 10
0.0160820919780953
 20
-1.151991520491766
 10
0.1758518161306952
 20
-1.151991520491766
 10
0.1758518161306952
 20
-0.8565768453492141
 10
0.0160820919780953
 20
-0.8565768453492141
1001
AcDbBlockRepETag
1070
     1
1071
       49
1005
2A9
  0
CIRCLE
  5
2AA
330
26E
100
AcDbEntity
  8
0
100
AcDbCircle
 10
1.221410381311674
 20
-1.250311350739527
 30
0.0
 40
0.1720597029335703
1001
AcDbBlockRepETag
1070
     1
1071
       50
1005
2AA
  0
CIRCLE
  5
2AB
330
26E
100
AcDbEntity
  8
0
100
AcDbCircle
 10
1.221410381311674
 20
-1.250311350739527
 30
0.0
 40
0.1597697241526006
1001
AcDbBlockRepETag
1070
     1
1071
       51
1005
2AB
  0
LWPOLYLINE
  5
2AC
330
26E
100
AcDbEntity
  8
0
100
AcDbPolyline
 90
       16
 70
     1
 43
0.0
 10
1.09851059350198
 20
-1.225731393177587
 10
1.09851059350198
 20
-1.274891308301467
 10
1.196830423749734
 20
-1.274891308301467
 10
1.196830423749734
 20
-1.324506407824647
 10
1.245990338873614
 20
-1.324506407824647
 10
1.245990338873614
 20
-1.274891308301467
 10
1.307440232778457
 20
-1.274891308301467
 10
1.307440232778457
 20
-1.312216429043663
 10
1.381180105464277
 20
-1.262601329520511
 10
1.381180105464277
 20
-1.238021371958571
 10
1.307440232778457
 20
-1.188406272435391
 10
1.307440232778457
 20
-1.225731393177587
 10
1.245990338873614
 20
-1.225731393177587
 10
1.245990338873614
 20
-1.176571478053706
 10
1.196830423749734
 20
-1.176571478053706
 10
1.196830423749734
 20
-1.225731393177587
1001
AcDbBlockRepETag
1070
     1
1071
       52
1005
2AC
  0
LINE
  5
2AD
330
26E
100
AcDbEntity
  8
0
100
AcDbLine
 10
-0.1829207667885519
 20
-1.521146068320139
 30
0.0
 11
1.567892985449931
 21
-1.521146068320136
 31
0.0
1001
AcDbBlockRepETag
1070
     1
1071
       53
1005
2AD
  0
LINE
  5
2AE
330
26E
100
AcDbEntity
  8
0
100
AcDbLine
 10
1.56789298544993
 20
-1.533436047101123
 30
0.0
 11
-0.1829207667885502
 21
-1.533436047101123
 31
0.0
1001
AcDbBlockRepETag
1070
     1
1071
       54
1005
2AE
  0
LINE
  5
2AF
330
26E
100
AcDbEntity
  8
0
100
AcDbLine
 10
1.393470084245247
 20
-1.533436047101123
 30
0.0
 11
1.393470084245247
 21
-1.594885941005959
 31
0.0
1001
AcDbBlockRepETag
1070
     1
1071
       55
1005
2AF
  0
LINE
  5
2B0
330
26E
100
AcDbEntity
  8
0
100
AcDbLine
 10
1.393470084245247
 20
-1.594885941005959
 30
0.0
 11
1.492245098892293
 21
-1.594885941005959
 31
0.0
1001
AcDbBlockRepETag
1070
     1
1071
       56
1005
2B0
  0
LINE
  5
2B1
330
26E
100
AcDbEntity
  8
0
100
AcDbLine
 10
1.492245098892293
 20
-1.594885941005959
 30
0.0
 11
1.492245098892293
 21
-1.533436047101123
 31
0.0
1001
AcDbBlockRepETag
1070
     1
1071
       57
1005
2B1
  0
LINE
  5
2B2
330
26E
100
AcDbEntity
  8
0
100
AcDbLine
 10
-0.0084978655838448
 20
-1.533436047101123
 30
0.0
 11
-0.0084978655838448
 21
-1.594885941005959
 31
0.0
1001
AcDbBlockRepETag
1070
     1
1071
       58
1005
2B2
  0
LINE
  5
2B3
330
26E
100
AcDbEntity
  8
0
100
AcDbLine
 10
-0.0084978655838448
 20
-1.594885941005959
 30
0.0
 11
-0.1072728802308944
 21
-1.594885941005959
 31
0.0
1001
AcDbBlockRepETag
1070
     1
1071
       59
1005
2B3
  0
LINE
  5
2B4
330
26E
100
AcDbEntity
  8
0
100
AcDbLine
 10
-0.1072728802308944
 20
-1.594885941005959
 30
0.0
 11
-0.1072728802308944
 21
-1.533436047101123
 31
0.0
1001
AcDbBlockRepETag
1070
     1
1071
       60
1005
2B4
  0
LWPOLYLINE
  5
2B5
330
26E
100
AcDbEntity
  8
0
100
AcDbPolyline
 90
        4
 70
     1
 43
0.0
 10
-0.082237738269658
 20
-2.111975418605273
 10
0.1266919010068186
 20
-2.111975418605273
 10
0.1266919010068186
 20
-2.013200403958212
 10
-0.082237738269658
 20
-2.013200403958212
1001
AcDbBlockRepETag
1070
     1
1071
       61
1005
2B5
  0
LWPOLYLINE
  5
2B6
330
26E
100
AcDbEntity
  8
0
100
AcDbPolyline
 90
        4
 70
     1
 43
0.0
 10
1.467209956931061
 20
-2.111975418605273
 10
1.258280317654584
 20
-2.111975418605273
 10
1.258280317654584
 20
-2.013200403958212
 10
1.467209956931061
 20
-2.013200403958212
1001
AcDbBlockRepETag
1070
     1
1071
       62
1005
2B6
  0
CIRCLE
  5
2B7
330
26E
100
AcDbEntity
  8
0
100
AcDbCircle
 10
0.1266919010068186
 20
-1.810415754072228
 30
0.0
 40
0.1172099828185033
1001
AcDbBlockRepETag
1070
     1
1071
       63
1005
2B7
  0
CIRCLE
  5
2B8
330
26E
100
AcDbEntity
  8
0
100
AcDbCircle
 10
0.5019914382256765
 20
-1.810415754072228
 30
0.0
 40
0.1172099828185033
1001
AcDbBlockRepETag
1070
     1
1071
       64
1005
2B8
  0
CIRCLE
  5
2B9
330
26E
100
AcDbEntity
  8
0
100
AcDbCircle
 10
0.8768357910452415
 20
-1.810415754072228
 30
0.0
 40
0.1172099828185033
1001
AcDbBlockRepETag
1070
     1
1071
       65
1005
2B9
  0
CIRCLE
  5
2BA
330
26E
100
AcDbEntity
  8
0
100
AcDbCircle
 10
1.252135328264099
 20
-1.810415754072228
 30
0.0
 40
0.1172099828185033
1001
AcDbBlockRepETag
1070
     1
1071
       66
1005
2BA
  0
LWPOLYLINE
  5
2BB
330
26E
100
AcDbEntity
  8
0
100
AcDbPolyline
 90
       13
 70
     1
 43
0.0
 10
0.0652420071019719
 20
-1.79198078590078
 10
0.0652420071019719
 20
-1.828850722243676
 10
0.1144019222258485
 20
-1.828850722243676
 10
0.1144019222258485
 20
-1.902590594929496
 10
0.1389818797877886
 20
-1.902590594929496
 10
0.1389818797877886
 20
-1.828850722243676
 10
0.1881417949116653
 20
-1.828850722243676
 10
0.1881417949116653
 20
-1.79198078590078
 10
0.1389818797877886
 20
-1.79198078590078
 10
0.1389818797877886
 20
-1.71824091321496
 10
0.1144019222258485
 20
-1.71824091321496
 10
0.1144019222258485
 20
-1.79198078590078
 10
0.0652420071019719
 20
-1.79198078590078
1001
AcDbBlockRepETag
1070
     1
1071
       67
1005
2BB
  0
LWPOLYLINE
  5
2BC
330
26E
100
AcDbEntity
  8
0
100
AcDbPolyline
 90
       13
 70
     1
 43
0.0
 10
0.4405415443208299
 20
-1.79198078590078
 10
0.4405415443208299
 20
-1.828850722243676
 10
0.4897014594447065
 20
-1.828850722243676
 10
0.4897014594447065
 20
-1.902590594929496
 10
0.5142814170066466
 20
-1.902590594929496
 10
0.5142814170066466
 20
-1.828850722243676
 10
0.5634413321305232
 20
-1.828850722243676
 10
0.5634413321305232
 20
-1.79198078590078
 10
0.5142814170066466
 20
-1.79198078590078
 10
0.5142814170066466
 20
-1.71824091321496
 10
0.4897014594447065
 20
-1.71824091321496
 10
0.4897014594447065
 20
-1.79198078590078
 10
0.4405415443208299
 20
-1.79198078590078
1001
AcDbBlockRepETag
1070
     1
1071
       68
1005
2BC
  0
LWPOLYLINE
  5
2BD
330
26E
100
AcDbEntity
  8
0
100
AcDbPolyline
 90
       13
 70
     1
 43
0.0
 10
0.8153858971403913
 20
-1.79198078590078
 10
0.8153858971403913
 20
-1.828850722243676
 10
0.8645458122642715
 20
-1.828850722243676
 10
0.8645458122642715
 20
-1.902590594929496
 10
0.8891257698262116
 20
-1.902590594929496
 10
0.8891257698262116
 20
-1.828850722243676
 10
0.9382856849500846
 20
-1.828850722243676
 10
0.9382856849500846
 20
-1.79198078590078
 10
0.8891257698262116
 20
-1.79198078590078
 10
0.8891257698262116
 20
-1.71824091321496
 10
0.8645458122642715
 20
-1.71824091321496
 10
0.8645458122642715
 20
-1.79198078590078
 10
0.8153858971403913
 20
-1.79198078590078
1001
AcDbBlockRepETag
1070
     1
1071
       69
1005
2BD
  0
LWPOLYLINE
  5
2BE
330
26E
100
AcDbEntity
  8
0
100
AcDbPolyline
 90
       13
 70
     1
 43
0.0
 10
1.190685434359249
 20
-1.79198078590078
 10
1.190685434359249
 20
-1.828850722243676
 10
1.239845349483129
 20
-1.828850722243676
 10
1.239845349483129
 20
-1.902590594929496
 10
1.264425307045069
 20
-1.902590594929496
 10
1.264425307045069
 20
-1.828850722243676
 10
1.313585222168942
 20
-1.828850722243676
 10
1.313585222168942
 20
-1.79198078590078
 10
1.264425307045069
 20
-1.79198078590078
 10
1.264425307045069
 20
-1.71824091321496
 10
1.239845349483129
 20
-1.71824091321496
 10
1.239845349483129
 20
-1.79198078590078
 10
1.190685434359249
 20
-1.79198078590078
1001
AcDbBlockRepETag
1070
     1
1071
       70
1005
2BE
  0
LWPOLYLINE
  5
2BF
330
26E
100
AcDbEntity
  8
0
100
AcDbPolyline
 90
        4
 70
     1
 43
0.0
 10
0.3729466610254981
 20
-1.410536259291423
 10
0.5327163851781016
 20
-1.410536259291423
 10
0.5327163851781016
 20
-1.250311350739527
 10
0.3729466610254981
 20
-1.250311350739527
1001
AcDbBlockRepETag
1070
     1
1071
       71
1005
2BF
  0
CIRCLE
  5
2C0
330
26E
100
AcDbEntity
  8
0
100
AcDbCircle
 10
0.1144019222258485
 20
-1.274891308301467
 30
0.0
 40
0.073739872685816
1001
AcDbBlockRepETag
1070
     1
1071
       72
1005
2C0
  0
CIRCLE
  5
2C1
330
26E
100
AcDbEntity
  8
0
100
AcDbCircle
 10
0.1144019222258485
 20
-1.274891308301467
 30
0.0
 40
0.061449893904846
1001
AcDbBlockRepETag
1070
     1
1071
       73
1005
2C1
  0
LWPOLYLINE
  5
2C2
330
26E
100
AcDbEntity
  8
0
100
AcDbPolyline
 90
       13
 70
     1
 43
0.0
 10
0.073459756120922
 20
-1.262608658470004
 10
0.073459756120922
 20
-1.287173958132957
 10
0.1062134890048618
 20
-1.287173958132957
 10
0.1062134890048618
 20
-1.336304557458864
 10
0.1225903554468353
 20
-1.336304557458864
 10
0.1225903554468353
 20
-1.287173958132957
 10
0.1553440883307751
 20
-1.287173958132957
 10
0.1553440883307751
 20
-1.262608658470004
 10
0.1225903554468353
 20
-1.262608658470004
 10
0.1225903554468353
 20
-1.21347805914407
 10
0.1062134890048618
 20
-1.21347805914407
 10
0.1062134890048618
 20
-1.262608658470004
 10
0.073459756120922
 20
-1.262608658470004
1001
AcDbBlockRepETag
1070
     1
1071
       74
1005
2C2
  0
LINE
  5
2C3
330
26E
100
AcDbEntity
  8
0
100
AcDbLine
 10
1.221410381311674
 20
-0.9676418387772303
 30
0.0
 11
1.221410381311674
 21
-0.7336770575395138
 31
0.0
1001
AcDbBlockRepETag
1070
     1
1071
       75
1005
2C3
  0
LWPOLYLINE
  5
2C4
330
26E
100
AcDbEntity
  8
0
100
AcDbPolyline
 90
        4
 70
     1
 43
0.0
 10
1.184540444968764
 20
-0.9676418387772303
 10
1.258280317654584
 20
-0.9676418387772303
 10
1.258280317654584
 20
-0.7336770575395138
 10
1.184540444968764
 20
-0.7336770575395138
1001
AcDbBlockRepETag
1070
     1
1071
       76
1005
2C4
  0
LINE
  5
2C5
330
26E
100
AcDbEntity
  8
0
100
AcDbLine
 10
1.567892985449921
 20
-2.148845354948165
 30
0.0
 11
-0.1829207667885519
 21
-2.148845354948165
 31
0.0
1001
AcDbBlockRepETag
1070
     1
1071
       77
1005
2C5
  0
TEXT
  5
2C6
330
26E
100
AcDbEntity
  8
0
100
AcDbText
 10
-0.0076360963147817
 20
-2.692064345101838
 30
0.0
 40
0.0983210632
  1
2
100
AcDbText
1001
AcDbBlockRepETag
1070
     1
1071
       78
1005
2C6
  0
TEXT
  5
2C7
330
26E
100
AcDbEntity
  8
0
100
AcDbText
 10
0.1821788322663416
 20
-2.692064345101838
 30
0.0
 40
0.0983210632
  1
T1
100
AcDbText
1001
AcDbBlockRepETag
1070
     1
1071
       79
1005
2C7
  0
TEXT
  5
2C8
330
26E
100
AcDbEntity
  8
0
100
AcDbText
 10
0.5424936864954671
 20
-2.692064345101838
 30
0.0
 40
0.0983210632
  1
4
100
AcDbText
1001
AcDbBlockRepETag
1070
     1
1071
       80
1005
2C8
  0
TEXT
  5
2C9
330
26E
100
AcDbEntity
  8
0
100
AcDbText
 10
0.7323086150765903
 20
-2.692064345101838
 30
0.0
 40
0.0983210632
  1
T2
100
AcDbText
1001
AcDbBlockRepETag
1070
     1
1071
       81
1005
2C9
  0
TEXT
  5
2CA
330
26E
100
AcDbEntity
  8
0
100
AcDbText
 10
1.092623469305715
 20
-2.692064345101838
 30
0.0
 40
0.0983210632
  1
6
100
AcDbText
1001
AcDbBlockRepETag
1070
     1
1071
       82
1005
2CA
  0
TEXT
  5
2CB
330
26E
100
AcDbEntity
  8
0
100
AcDbText
 10
1.282438397886838
 20
-2.692064345101838
 30
0.0
 40
0.0983210632
  1
T3
100
AcDbText
1001
AcDbBlockRepETag
1070
     1
1071
       83
1005
2CB
  0
CIRCLE
  5
2CC
330
26E
100
AcDbEntity
  8
0
100
AcDbCircle
 10
0.692486109330698
 20
-2.39366837284725
 30
0.0
 40
0.147934929770927
1001
AcDbBlockRepETag
1070
     1
1071
       84
1005
2CC
  0
LWPOLYLINE
  5
2CD
330
26E
100
AcDbEntity
  8
0
100
AcDbPolyline
 90
       13
 70
     1
 43
0.0
 10
0.6740511411592483
 20
-2.4551182667521
 10
0.7109210775021442
 20
-2.4551182667521
 10
0.7109210775021442
 20
-2.40595835162822
 10
0.7846609501879645
 20
-2.40595835162822
 10
0.7846609501879645
 20
-2.38137839406628
 10
0.7109210775021442
 20
-2.38137839406628
 10
0.7109210775021442
 20
-2.332218478942407
 10
0.6740511411592483
 20
-2.332218478942407
 10
0.6740511411592483
 20
-2.38137839406628
 10
0.600311268473428
 20
-2.38137839406628
 10
0.600311268473428
 20
-2.40595835162822
 10
0.6740511411592483
 20
-2.40595835162822
 10
0.6740511411592483
 20
-2.4551182667521
1001
AcDbBlockRepETag
1070
     1
1071
       85
1005
2CD
  0
CIRCLE
  5
2CE
330
26E
100
AcDbEntity
  8
0
100
AcDbCircle
 10
1.242615892140948
 20
-2.39366837284725
 30
0.0
 40
0.147934929770927
1001
AcDbBlockRepETag
1070
     1
1071
       86
1005
2CE
  0
LWPOLYLINE
  5
2CF
330
26E
100
AcDbEntity
  8
0
100
AcDbPolyline
 90
       13
 70
     1
 43
0.0
 10
1.224180923969498
 20
-2.4551182667521
 10
1.261050860312394
 20
-2.4551182667521
 10
1.261050860312394
 20
-2.40595835162822
 10
1.334790732998214
 20
-2.40595835162822
 10
1.334790732998214
 20
-2.38137839406628
 10
1.261050860312394
 20
-2.38137839406628
 10
1.261050860312394
 20
-2.332218478942407
 10
1.224180923969498
 20
-2.332218478942407
 10
1.224180923969498
 20
-2.38137839406628
 10
1.150441051283678
 20
-2.38137839406628
 10
1.150441051283678
 20
-2.40595835162822
 10
1.224180923969498
 20
-2.40595835162822
 10
1.224180923969498
 20
-2.4551182667521
1001
AcDbBlockRepETag
1070
     1
1071
       87
1005
2CF
  0
CIRCLE
  5
2D0
330
26E
100
AcDbEntity
  8
0
100
AcDbCircle
 10
0.1423563265204475
 20
-2.39366837284725
 30
0.0
 40
0.147934929770927
1001
AcDbBlockRepETag
1070
     1
1071
       88
1005
2D0
  0
LWPOLYLINE
  5
2D1
330
26E
100
AcDbEntity
  8
0
100
AcDbPolyline
 90
       13
 70
     1
 43
0.0
 10
0.1607912946918972
 20
-2.4551182667521
 10
0.1239213583490013
 20
-2.4551182667521
 10
0.1239213583490013
 20
-2.40595835162822
 10
0.050181485663181
 20
-2.40595835162822
 10
0.050181485663181
 20
-2.38137839406628
 10
0.1239213583490013
 20
-2.38137839406628
 10
0.1239213583490013
 20
-2.332218478942407
 10
0.1607912946918972
 20
-2.332218478942407
 10
0.1607912946918972
 20
-2.38137839406628
 10
0.2345311673777175
 20
-2.38137839406628
 10
0.2345311673777175
 20
-2.40595835162822
 10
0.1607912946918972
 20
-2.40595835162822
 10
0.1607912946918972
 20
-2.4551182667521
1001
AcDbBlockRepETag
1070
     1
1071
       89
1005
2D1
  0
TEXT
  5
2D2
330
26E
100
AcDbEntity
  8
SS-A
 62
     4
100
AcDbText
 10
-0.147593784038827
 20
-0.5531148782019115
 30
0.0
 40
0.1422194935674756
  1
CEP7-E__B
 41
0.65
  7
SIMPLEX
 72
     4
 11
0.2661972186741615
 21
-0.48877748825472
 31
0.0
100
AcDbText
1001
AcDbBlockRepETag
1070
     1
1071
       90
1005
2D2
  0
POINT
  5
2D3
330
26E
100
AcDbEntity
  8
0
 62
     1
100
AcDbPoint
 10
0.0
 20
0.0
 30
0.0
1001
AcDbBlockRepETag
1070
     1
1071
       91
1005
2D3
  0
LINE
  5
2D4
330
26E
100
AcDbEntity
  8
0
100
AcDbLine
 10
-0.1516707667885504
 20
-0.3087597747702953
 30
0.0
 11
-0.1516707667885502
 21
0.0410110755649837
 31
0.0
1001
AcDbBlockRepETag
1070
     1
1071
       92
1005
2D4
  0
ENDBLK
  5
2D5
330
26E
100
AcDbEntity
  8
0
 62
     1
100
AcDbBlockEnd
  0
BLOCK
  5
2D9
330
2D6
100
AcDbEntity
  8
0
100
AcDbBlockBegin
  2
*U4
 70
     1
 10
0.0
 20
0.0
 30
0.0
  3
*U4
  1

  0
LINE
  5
2DA
330
2D6
100
AcDbEntity
  8
0
 60
     1
100
AcDbLine
 10
1.000617572721301
 20
0.0410110755649837
 30
0.0
 11
1.000617572721301
 21
0.4745505749301407
 31
0.0
1001
AcDbBlockRepETag
1070
     1
1071
        0
1005
2DA
  0
LINE
  5
2DB
330
2D6
100
AcDbEntity
  8
0
 60
     1
100
AcDbLine
 10
1.000617572721301
 20
0.4745505749301407
 30
0.0
 11
0.9339945536098195
 21
0.4745505749301407
 31
0.0
1001
AcDbBlockRepETag
1070
     1
1071
        1
1005
2DB
  0
LINE
  5
2DC
330
2D6
100
AcDbEntity
  8
0
 60
     1
100
AcDbLine
 10
0.5675679484966701
 20
0.4745505749301407
 30
0.0
 11
0.5004550542446627
 21
0.4745505749301407
 31
0.0
1001
AcDbBlockRepETag
1070
     1
1071
        2
1005
2DC
  0
LINE
  5
2DD
330
2D6
100
AcDbEntity
  8
0
100
AcDbLine
 10
1.517435845975809
 20
-0.3087597747702953
 30
0.0
 11
1.517435845975809
 21
-0.0755792078801116
 31
0.0
1001
AcDbBlockRepETag
1070
     1
1071
        3
1005
2DD
  0
LINE
  5
2DE
330
2D6
100
AcDbEntity
  8
0
100
AcDbLine
 10
0.3005859969102183
 20
-0.0755792078801116
 30
0.0
 11
0.2506187325766085
 21
-0.0755792078801116
 31
0.0
1001
AcDbBlockRepETag
1070
     1
1071
        4
1005
2DE
  0
LINE
  5
2DF
330
2D6
100
AcDbEntity
  8
0
100
AcDbLine
 10
1.300911033863494
 20
-0.2921040199924265
 30
0.0
 11
1.417501317308586
 21
-0.2921040199924265
 31
0.0
1001
AcDbBlockRepETag
1070
     1
1071
        5
1005
2DF
  0
LINE
  5
2E0
330
2D6
100
AcDbEntity
  8
0
100
AcDbLine
 10
1.417501317308586
 20
-0.2921040199924265
 30
0.0
 11
1.417501317308586
 21
-0.1422022269915937
 31
0.0
1001
AcDbBlockRepETag
1070
     1
1071
        6
1005
2E0
  0
LINE
  5
2E1
330
2D6
100
AcDbEntity
  8
0
100
AcDbLine
 10
1.417501317308586
 20
-0.1422022269915937
 30
0.0
 11
1.300911033863494
 21
-0.1422022269915937
 31
0.0
1001
AcDbBlockRepETag
1070
     1
1071
        7
1005
2E1
  0
LINE
  5
2E2
330
2D6
100
AcDbEntity
  8
0
100
AcDbLine
 10
1.300911033863494
 20
-0.3592169142444321
 30
0.0
 11
1.300911033863494
 21
-0.0755792078801081
 31
0.0
1001
AcDbBlockRepETag
1070
     1
1071
        8
1005
2E2
  0
LINE
  5
2E3
330
2D6
100
AcDbEntity
  8
0
100
AcDbLine
 10
0.2506187325766067
 20
-0.3087597747702953
 30
0.0
 11
0.2506187325766085
 21
-0.0755792078801116
 31
0.0
1001
AcDbBlockRepETag
1070
     1
1071
        9
1005
2E3
  0
LINE
  5
2E4
330
2D6
100
AcDbEntity
  8
0
100
AcDbLine
 10
0.3005859969102183
 20
-0.2088252461030757
 30
0.0
 11
0.3005859969102183
 21
-0.0755792078801116
 31
0.0
1001
AcDbBlockRepETag
1070
     1
1071
       10
1005
2E4
  0
LINE
  5
2E5
330
2D6
100
AcDbEntity
  8
0
100
AcDbLine
 10
0.4504877899110511
 20
-0.2088252461030757
 30
0.0
 11
0.3005859969102183
 21
-0.2088252461030757
 31
0.0
1001
AcDbBlockRepETag
1070
     1
1071
       11
1005
2E5
  0
LINE
  5
2E6
330
2D6
100
AcDbEntity
  8
0
100
AcDbLine
 10
1.517435845975809
 20
-0.0755792078801116
 30
0.0
 11
1.034418957417567
 21
-0.0755792078801116
 31
0.0
1001
AcDbBlockRepETag
1070
     1
1071
       12
1005
2E6
  0
LINE
  5
2E7
330
2D6
100
AcDbEntity
  8
0
100
AcDbLine
 10
0.3005859969102183
 20
-0.3087597747702953
 30
0.0
 11
0.3005859969102183
 21
-0.2587925104366855
 31
0.0
1001
AcDbBlockRepETag
1070
     1
1071
       13
1005
2E7
  0
LINE
  5
2E8
330
2D6
100
AcDbEntity
  8
0
100
AcDbLine
 10
0.3005859969102183
 20
-0.2587925104366855
 30
0.0
 11
0.4504877899110511
 21
-0.2587925104366819
 31
0.0
1001
AcDbBlockRepETag
1070
     1
1071
       14
1005
2E8
  0
LINE
  5
2E9
330
2D6
100
AcDbEntity
  8
0
100
AcDbLine
 10
0.4504877899110511
 20
-0.3087597747702953
 30
0.0
 11
0.4504877899110529
 21
0.0410110755649837
 31
0.0
1001
AcDbBlockRepETag
1070
     1
1071
       15
1005
2E9
  0
LINE
  5
2EA
330
2D6
100
AcDbEntity
  8
0
100
AcDbLine
 10
0.6008794580524111
 20
0.0410110755649837
 30
0.0
 11
0.4504877899110529
 21
0.0410110755649837
 31
0.0
1001
AcDbBlockRepETag
1070
     1
1071
       16
1005
2EA
  0
LINE
  5
2EB
330
2D6
100
AcDbEntity
  8
0
100
AcDbLine
 10
0.6175352128302816
 20
-0.3087597747702953
 30
0.0
 11
0.6175352128302816
 21
-0.0922349626579768
 31
0.0
1001
AcDbBlockRepETag
1070
     1
1071
       17
1005
2EB
  0
LINE
  5
2EC
330
2D6
100
AcDbEntity
  8
0
100
AcDbLine
 10
0.6008794580524129
 20
-0.0922349626579768
 30
0.0
 11
0.6175352128302816
 21
-0.0922349626579768
 31
0.0
1001
AcDbBlockRepETag
1070
     1
1071
       18
1005
2EC
  0
LINE
  5
2ED
330
2D6
100
AcDbEntity
  8
0
100
AcDbLine
 10
0.6008794580524111
 20
0.0410110755649837
 30
0.0
 11
0.6008794580524129
 21
-0.0922349626579768
 31
0.0
1001
AcDbBlockRepETag
1070
     1
1071
       19
1005
2ED
  0
LINE
  5
2EE
330
2D6
100
AcDbEntity
  8
0
100
AcDbLine
 10
0.8840272892762079
 20
-0.2088252461030757
 30
0.0
 11
0.6175352128302816
 21
-0.2088252461030722
 31
0.0
1001
AcDbBlockRepETag
1070
     1
1071
       20
1005
2EE
  0
LINE
  5
2EF
330
2D6
100
AcDbEntity
  8
0
100
AcDbLine
 10
0.6175352128302816
 20
-0.258792510436689
 30
0.0
 11
0.8840272892762079
 21
-0.2587925104366784
 31
0.0
1001
AcDbBlockRepETag
1070
     1
1071
       21
1005
2EF
  0
LINE
  5
2F0
330
2D6
100
AcDbEntity
  8
0
100
AcDbLine
 10
0.8840272892762079
 20
-0.3592169142444321
 30
0.0
 11
0.8840272892762079
 21
0.0410110755649802
 31
0.0
1001
AcDbBlockRepETag
1070
     1
1071
       22
1005
2F0
  0
LINE
  5
2F1
330
2D6
100
AcDbEntity
  8
0
100
AcDbLine
 10
1.051074712195438
 20
-0.3592169142444321
 30
0.0
 11
1.051074712195442
 21
-0.0922349626579839
 31
0.0
1001
AcDbBlockRepETag
1070
     1
1071
       23
1005
2F1
  0
LINE
  5
2F2
330
2D6
100
AcDbEntity
  8
0
100
AcDbLine
 10
1.034418957417567
 20
-0.0922349626579839
 30
0.0
 11
1.051074712195442
 21
-0.0922349626579839
 31
0.0
1001
AcDbBlockRepETag
1070
     1
1071
       24
1005
2F2
  0
LINE
  5
2F3
330
2D6
100
AcDbEntity
  8
0
100
AcDbLine
 10
1.034418957417567
 20
-0.0922349626579839
 30
0.0
 11
1.034418957417567
 21
0.0410110755649873
 31
0.0
1001
AcDbBlockRepETag
1070
     1
1071
       25
1005
2F3
  0
LINE
  5
2F4
330
2D6
100
AcDbEntity
  8
0
100
AcDbLine
 10
1.034418957417567
 20
0.0410110755649873
 30
0.0
 11
0.8840272892762079
 21
0.0410110755649802
 31
0.0
1001
AcDbBlockRepETag
1070
     1
1071
       26
1005
2F4
  0
LINE
  5
2F5
330
2D6
100
AcDbEntity
  8
0
100
AcDbLine
 10
1.450812826864327
 20
-0.3592169142444321
 30
0.0
 11
1.450812826864327
 21
-0.3087597747702953
 31
0.0
1001
AcDbBlockRepETag
1070
     1
1071
       27
1005
2F5
  0
LINE
  5
2F6
330
2D6
100
AcDbEntity
  8
0
100
AcDbLine
 10
1.450812826864327
 20
-0.3087597747702953
 30
0.0
 11
1.567892985449947
 21
-0.3087597747702953
 31
0.0
1001
AcDbBlockRepETag
1070
     1
1071
       28
1005
2F6
  0
LINE
  5
2F7
330
2D6
100
AcDbEntity
  8
0
100
AcDbLine
 10
1.567892985449947
 20
-0.3087597747702953
 30
0.0
 11
1.567892985449912
 21
-2.793406487516141
 31
0.0
1001
AcDbBlockRepETag
1070
     1
1071
       29
1005
2F7
  0
LWPOLYLINE
  5
2F8
330
2D6
100
AcDbEntity
  8
0
100
AcDbPolyline
 90
        8
 70
     1
 43
0.0
 10
0.7674370058311144
 20
-0.6590205002461014
 10
1.450812826864327
 20
-0.6590205002461014
 10
1.450812826864327
 20
-0.3592169142444321
 10
0.7674370058311144
 20
-0.3592169142444321
 10
0.7674370058311144
 20
-0.4258399333559142
 10
0.7174697414975047
 20
-0.4258399333559142
 10
0.7174697414975047
 20
-0.6090532359124881
 10
0.7674370058311144
 20
-0.6090532359124881
1001
AcDbBlockRepETag
1070
     1
1071
       30
1005
2F8
  0
LINE
  5
2F9
330
2D6
100
AcDbEntity
  8
0
100
AcDbLine
 10
0.7674370058311144
 20
-0.3592169142444321
 30
0.0
 11
0.7674370058311127
 21
-0.3087597747702953
 31
0.0
1001
AcDbBlockRepETag
1070
     1
1071
       31
1005
2F9
  0
LINE
  5
2FA
330
2D6
100
AcDbEntity
  8
0
100
AcDbLine
 10
-0.1829207667885502
 20
-0.3087597747702953
 30
0.0
 11
0.7674370058311127
 21
-0.3087597747702953
 31
0.0
1001
AcDbBlockRepETag
1070
     1
1071
       32
1005
2FA
  0
LINE
  5
2FB
330
2D6
100
AcDbEntity
  8
0
 60
     1
100
AcDbLine
 10
0.5675679484966701
 20
0.4745505749301407
 30
0.0
 11
0.5675679484966736
 21
0.0410110755649837
 31
0.0
1001
AcDbBlockRepETag
1070
     1
1071
       33
1005
2FB
  0
LINE
  5
2FC
330
2D6
100
AcDbEntity
  8
0
 60
     1
100
AcDbLine
 10
0.5004550542446627
 20
0.4745505749301407
 30
0.0
 11
0.5004550542446627
 21
0.0410110755649837
 31
0.0
1001
AcDbBlockRepETag
1070
     1
1071
       34
1005
2FC
  0
LINE
  5
2FD
330
2D6
100
AcDbEntity
  8
0
 60
     1
100
AcDbLine
 10
0.9339945536098195
 20
0.4745505749301407
 30
0.0
 11
0.9339945536098195
 21
0.0410110755649802
 31
0.0
1001
AcDbBlockRepETag
1070
     1
1071
       35
1005
2FD
  0
LINE
  5
2FE
330
2D6
100
AcDbEntity
  8
0
100
AcDbLine
 10
-0.0017689737877156
 20
-0.3087597747702953
 30
0.0
 11
-0.0017689737877156
 21
0.0410110755649837
 31
0.0
1001
AcDbBlockRepETag
1070
     1
1071
       36
1005
2FE
  0
LINE
  5
2FF
330
2D6
100
AcDbEntity
  8
0
100
AcDbLine
 10
-0.0017689737877156
 20
0.0410110755649837
 30
0.0
 11
-0.1516707667885502
 21
0.0410110755649837
 31
0.0
1001
AcDbBlockRepETag
1070
     1
1071
       37
1005
2FF
  0
LINE
  5
300
330
2D6
100
AcDbEntity
  8
0
100
AcDbLine
 10
-0.1829207667885519
 20
-2.793406487516143
 30
0.0
 11
-0.1829207667885504
 21
-0.3087597747702953
 31
0.0
1001
AcDbBlockRepETag
1070
     1
1071
       38
1005
300
  0
LINE
  5
301
330
2D6
100
AcDbEntity
  8
0
 60
     1
100
AcDbLine
 10
-0.1183592572328092
 20
0.4745505749301407
 30
0.0
 11
-0.0350804833434566
 21
0.4745505749301407
 31
0.0
1001
AcDbBlockRepETag
1070
     1
1071
       39
1005
301
  0
LINE
  5
302
330
2D6
100
AcDbEntity
  8
0
 60
     1
100
AcDbLine
 10
-0.0350804833434566
 20
0.4745505749301407
 30
0.0
 11
-0.0350804833434548
 21
0.0410110755649837
 31
0.0
1001
AcDbBlockRepETag
1070
     1
1071
       40
1005
302
  0
LINE
  5
303
330
2D6
100
AcDbEntity
  8
0
 60
     1
100
AcDbLine
 10
-0.1183592572328092
 20
0.4745505749301407
 30
0.0
 11
-0.1183592572328092
 21
0.0410110755649837
 31
0.0
1001
AcDbBlockRepETag
1070
     1
1071
       41
1005
303
  0
LINE
  5
304
330
2D6
100
AcDbEntity
  8
0
100
AcDbLine
 10
-0.1829207667885502
 20
-2.710127713626786
 30
0.0
 11
1.567892985449946
 21
-2.710127713626786
 31
0.0
1001
AcDbBlockRepETag
1070
     1
1071
       42
1005
304
  0
LINE
  5
305
330
2D6
100
AcDbEntity
  8
0
100
AcDbLine
 10
1.567892985449946
 20
-2.793406487516141
 30
0.0
 11
-0.1829207667885502
 21
-2.793406487516141
 31
0.0
1001
AcDbBlockRepETag
1070
     1
1071
       43
1005
305
  0
LWPOLYLINE
  5
306
330
2D6
100
AcDbEntity
  8
0
100
AcDbPolyline
 90
        4
 70
     1
 43
0.0
 10
0.4005205255774414
 20
-2.793406487516141
 10
0.4338320351331806
 20
-2.793406487516141
 10
0.4338320351331806
 20
-2.893830891323887
 10
0.4005205255774414
 20
-2.893830891323887
1001
AcDbBlockRepETag
1070
     1
1071
       44
1005
306
  0
LWPOLYLINE
  5
307
330
2D6
100
AcDbEntity
  8
0
100
AcDbPolyline
 90
        4
 70
     1
 43
0.0
 10
0.95065030838769
 20
-2.793406487516141
 10
0.9839618179434292
 20
-2.793406487516141
 10
0.9839618179434292
 20
-2.893830891323887
 10
0.95065030838769
 20
-2.893830891323887
1001
AcDbBlockRepETag
1070
     1
1071
       45
1005
307
  0
CIRCLE
  5
308
330
2D6
100
AcDbEntity
  8
0
100
AcDbCircle
 10
0.5450063639590717
 20
-0.9676418387772303
 30
0.0
 40
0.1356449509899573
1001
AcDbBlockRepETag
1070
     1
1071
       46
1005
308
  0
CIRCLE
  5
309
330
2D6
100
AcDbEntity
  8
0
100
AcDbCircle
 10
0.5450063639590717
 20
-0.9676418387772303
 30
0.0
 40
0.1966396604955086
1001
AcDbBlockRepETag
1070
     1
1071
       47
1005
309
  0
LWPOLYLINE
  5
30A
330
2D6
100
AcDbEntity
  8
0
100
AcDbPolyline
 90
        4
 70
     1
 43
0.0
 10
0.0037921131971252
 20
-1.164281499272751
 10
0.1881417949116653
 20
-1.164281499272751
 10
0.1881417949116653
 20
-0.8442868665682583
 10
0.0037921131971252
 20
-0.8442868665682583
1001
AcDbBlockRepETag
1070
     1
1071
       48
1005
30A
  0
LWPOLYLINE
  5
30B
330
2D6
100
AcDbEntity
  8
0
100
AcDbPolyline
 90
        4
 70
     1
 43
0.0
 10
0.0160820919780953
 20
-1.151991520491766
 10
0.1758518161306952
 20
-1.151991520491766
 10
0.1758518161306952
 20
-0.8565768453492141
 10
0.0160820919780953
 20
-0.8565768453492141
1001
AcDbBlockRepETag
1070
     1
1071
       49
1005
30B
  0
CIRCLE
  5
30C
330
2D6
100
AcDbEntity
  8
0
100
AcDbCircle
 10
1.221410381311674
 20
-1.250311350739527
 30
0.0
 40
0.1720597029335703
1001
AcDbBlockRepETag
1070
     1
1071
       50
1005
30C
  0
CIRCLE
  5
30D
330
2D6
100
AcDbEntity
  8
0
100
AcDbCircle
 10
1.221410381311674
 20
-1.250311350739527
 30
0.0
 40
0.1597697241526006
1001
AcDbBlockRepETag
1070
     1
1071
       51
1005
30D
  0
LWPOLYLINE
  5
30E
330
2D6
100
AcDbEntity
  8
0
100
AcDbPolyline
 90
       16
 70
     1
 43
0.0
 10
1.09851059350198
 20
-1.225731393177587
 10
1.09851059350198
 20
-1.274891308301467
 10
1.196830423749734
 20
-1.274891308301467
 10
1.196830423749734
 20
-1.324506407824647
 10
1.245990338873614
 20
-1.324506407824647
 10
1.245990338873614
 20
-1.274891308301467
 10
1.307440232778457
 20
-1.274891308301467
 10
1.307440232778457
 20
-1.312216429043663
 10
1.381180105464277
 20
-1.262601329520511
 10
1.381180105464277
 20
-1.238021371958571
 10
1.307440232778457
 20
-1.188406272435391
 10
1.307440232778457
 20
-1.225731393177587
 10
1.245990338873614
 20
-1.225731393177587
 10
1.245990338873614
 20
-1.176571478053706
 10
1.196830423749734
 20
-1.176571478053706
 10
1.196830423749734
 20
-1.225731393177587
1001
AcDbBlockRepETag
1070
     1
1071
       52
1005
30E
  0
LINE
  5
30F
330
2D6
100
AcDbEntity
  8
0
100
AcDbLine
 10
-0.1829207667885519
 20
-1.521146068320139
 30
0.0
 11
1.567892985449931
 21
-1.521146068320136
 31
0.0
1001
AcDbBlockRepETag
1070
     1
1071
       53
1005
30F
  0
LINE
  5
310
330
2D6
100
AcDbEntity
  8
0
100
AcDbLine
 10
1.56789298544993
 20
-1.533436047101123
 30
0.0
 11
-0.1829207667885502
 21
-1.533436047101123
 31
0.0
1001
AcDbBlockRepETag
1070
     1
1071
       54
1005
310
  0
LINE
  5
311
330
2D6
100
AcDbEntity
  8
0
100
AcDbLine
 10
1.393470084245247
 20
-1.533436047101123
 30
0.0
 11
1.393470084245247
 21
-1.594885941005959
 31
0.0
1001
AcDbBlockRepETag
1070
     1
1071
       55
1005
311
  0
LINE
  5
312
330
2D6
100
AcDbEntity
  8
0
100
AcDbLine
 10
1.393470084245247
 20
-1.594885941005959
 30
0.0
 11
1.492245098892293
 21
-1.594885941005959
 31
0.0
1001
AcDbBlockRepETag
1070
     1
1071
       56
1005
312
  0
LINE
  5
313
330
2D6
100
AcDbEntity
  8
0
100
AcDbLine
 10
1.492245098892293
 20
-1.594885941005959
 30
0.0
 11
1.492245098892293
 21
-1.533436047101123
 31
0.0
1001
AcDbBlockRepETag
1070
     1
1071
       57
1005
313
  0
LINE
  5
314
330
2D6
100
AcDbEntity
  8
0
100
AcDbLine
 10
-0.0084978655838448
 20
-1.533436047101123
 30
0.0
 11
-0.0084978655838448
 21
-1.594885941005959
 31
0.0
1001
AcDbBlockRepETag
1070
     1
1071
       58
1005
314
  0
LINE
  5
315
330
2D6
100
AcDbEntity
  8
0
100
AcDbLine
 10
-0.0084978655838448
 20
-1.594885941005959
 30
0.0
 11
-0.1072728802308944
 21
-1.594885941005959
 31
0.0
1001
AcDbBlockRepETag
1070
     1
1071
       59
1005
315
  0
LINE
  5
316
330
2D6
100
AcDbEntity
  8
0
100
AcDbLine
 10
-0.1072728802308944
 20
-1.594885941005959
 30
0.0
 11
-0.1072728802308944
 21
-1.533436047101123
 31
0.0
1001
AcDbBlockRepETag
1070
     1
1071
       60
1005
316
  0
LWPOLYLINE
  5
317
330
2D6
100
AcDbEntity
  8
0
100
AcDbPolyline
 90
        4
 70
     1
 43
0.0
 10
-0.082237738269658
 20
-2.111975418605273
 10
0.1266919010068186
 20
-2.111975418605273
 10
0.1266919010068186
 20
-2.013200403958212
 10
-0.082237738269658
 20
-2.013200403958212
1001
AcDbBlockRepETag
1070
     1
1071
       61
1005
317
  0
LWPOLYLINE
  5
318
330
2D6
100
AcDbEntity
  8
0
100
AcDbPolyline
 90
        4
 70
     1
 43
0.0
 10
1.467209956931061
 20
-2.111975418605273
 10
1.258280317654584
 20
-2.111975418605273
 10
1.258280317654584
 20
-2.013200403958212
 10
1.467209956931061
 20
-2.013200403958212
1001
AcDbBlockRepETag
1070
     1
1071
       62
1005
318
  0
CIRCLE
  5
319
330
2D6
100
AcDbEntity
  8
0
100
AcDbCircle
 10
0.1266919010068186
 20
-1.810415754072228
 30
0.0
 40
0.1172099828185033
1001
AcDbBlockRepETag
1070
     1
1071
       63
1005
319
  0
CIRCLE
  5
31A
330
2D6
100
AcDbEntity
  8
0
100
AcDbCircle
 10
0.5019914382256765
 20
-1.810415754072228
 30
0.0
 40
0.1172099828185033
1001
AcDbBlockRepETag
1070
     1
1071
       64
1005
31A
  0
CIRCLE
  5
31B
330
2D6
100
AcDbEntity
  8
0
100
AcDbCircle
 10
0.8768357910452415
 20
-1.810415754072228
 30
0.0
 40
0.1172099828185033
1001
AcDbBlockRepETag
1070
     1
1071
       65
1005
31B
  0
CIRCLE
  5
31C
330
2D6
100
AcDbEntity
  8
0
100
AcDbCircle
 10
1.252135328264099
 20
-1.810415754072228
 30
0.0
 40
0.1172099828185033
1001
AcDbBlockRepETag
1070
     1
1071
       66
1005
31C
  0
LWPOLYLINE
  5
31D
330
2D6
100
AcDbEntity
  8
0
100
AcDbPolyline
 90
       13
 70
     1
 43
0.0
 10
0.0652420071019719
 20
-1.79198078590078
 10
0.0652420071019719
 20
-1.828850722243676
 10
0.1144019222258485
 20
-1.828850722243676
 10
0.1144019222258485
 20
-1.902590594929496
 10
0.1389818797877886
 20
-1.902590594929496
 10
0.1389818797877886
 20
-1.828850722243676
 10
0.1881417949116653
 20
-1.828850722243676
 10
0.1881417949116653
 20
-1.79198078590078
 10
0.1389818797877886
 20
-1.79198078590078
 10
0.1389818797877886
 20
-1.71824091321496
 10
0.1144019222258485
 20
-1.71824091321496
 10
0.1144019222258485
 20
-1.79198078590078
 10
0.0652420071019719
 20
-1.79198078590078
1001
AcDbBlockRepETag
1070
     1
1071
       67
1005
31D
  0
LWPOLYLINE
  5
31E
330
2D6
100
AcDbEntity
  8
0
100
AcDbPolyline
 90
       13
 70
     1
 43
0.0
 10
0.4405415443208299
 20
-1.79198078590078
 10
0.4405415443208299
 20
-1.828850722243676
 10
0.4897014594447065
 20
-1.828850722243676
 10
0.4897014594447065
 20
-1.902590594929496
 10
0.5142814170066466
 20
-1.902590594929496
 10
0.5142814170066466
 20
-1.828850722243676
 10
0.5634413321305232
 20
-1.828850722243676
 10
0.5634413321305232
 20
-1.79198078590078
 10
0.5142814170066466
 20
-1.79198078590078
 10
0.5142814170066466
 20
-1.71824091321496
 10
0.4897014594447065
 20
-1.71824091321496
 10
0.4897014594447065
 20
-1.79198078590078
 10
0.4405415443208299
 20
-1.79198078590078
1001
AcDbBlockRepETag
1070
     1
1071
       68
1005
31E
  0
LWPOLYLINE
  5
31F
330
2D6
100
AcDbEntity
  8
0
100
AcDbPolyline
 90
       13
 70
     1
 43
0.0
 10
0.8153858971403913
 20
-1.79198078590078
 10
0.8153858971403913
 20
-1.828850722243676
 10
0.8645458122642715
 20
-1.828850722243676
 10
0.8645458122642715
 20
-1.902590594929496
 10
0.8891257698262116
 20
-1.902590594929496
 10
0.8891257698262116
 20
-1.828850722243676
 10
0.9382856849500846
 20
-1.828850722243676
 10
0.9382856849500846
 20
-1.79198078590078
 10
0.8891257698262116
 20
-1.79198078590078
 10
0.8891257698262116
 20
-1.71824091321496
 10
0.8645458122642715
 20
-1.71824091321496
 10
0.8645458122642715
 20
-1.79198078590078
 10
0.8153858971403913
 20
-1.79198078590078
1001
AcDbBlockRepETag
1070
     1
1071
       69
1005
31F
  0
LWPOLYLINE
  5
320
330
2D6
100
AcDbEntity
  8
0
100
AcDbPolyline
 90
       13
 70
     1
 43
0.0
 10
1.190685434359249
 20
-1.79198078590078
 10
1.190685434359249
 20
-1.828850722243676
 10
1.239845349483129
 20
-1.828850722243676
 10
1.239845349483129
 20
-1.902590594929496
 10
1.264425307045069
 20
-1.902590594929496
 10
1.264425307045069
 20
-1.828850722243676
 10
1.313585222168942
 20
-1.828850722243676
 10
1.313585222168942
 20
-1.79198078590078
 10
1.264425307045069
 20
-1.79198078590078
 10
1.264425307045069
 20
-1.71824091321496
 10
1.239845349483129
 20
-1.71824091321496
 10
1.239845349483129
 20
-1.79198078590078
 10
1.190685434359249
 20
-1.79198078590078
1001
AcDbBlockRepETag
1070
     1
1071
       70
1005
320
  0
LWPOLYLINE
  5
321
330
2D6
100
AcDbEntity
  8
0
100
AcDbPolyline
 90
        4
 70
     1
 43
0.0
 10
0.3729466610254981
 20
-1.410536259291423
 10
0.5327163851781016
 20
-1.410536259291423
 10
0.5327163851781016
 20
-1.250311350739527
 10
0.3729466610254981
 20
-1.250311350739527
1001
AcDbBlockRepETag
1070
     1
1071
       71
1005
321
  0
CIRCLE
  5
322
330
2D6
100
AcDbEntity
  8
0
100
AcDbCircle
 10
0.1144019222258485
 20
-1.274891308301467
 30
0.0
 40
0.073739872685816
1001
AcDbBlockRepETag
1070
     1
1071
       72
1005
322
  0
CIRCLE
  5
323
330
2D6
100
AcDbEntity
  8
0
100
AcDbCircle
 10
0.1144019222258485
 20
-1.274891308301467
 30
0.0
 40
0.061449893904846
1001
AcDbBlockRepETag
1070
     1
1071
       73
1005
323
  0
LWPOLYLINE
  5
324
330
2D6
100
AcDbEntity
  8
0
100
AcDbPolyline
 90
       13
 70
     1
 43
0.0
 10
0.073459756120922
 20
-1.262608658470004
 10
0.073459756120922
 20
-1.287173958132957
 10
0.1062134890048618
 20
-1.287173958132957
 10
0.1062134890048618
 20
-1.336304557458864
 10
0.1225903554468353
 20
-1.336304557458864
 10
0.1225903554468353
 20
-1.287173958132957
 10
0.1553440883307751
 20
-1.287173958132957
 10
0.1553440883307751
 20
-1.262608658470004
 10
0.1225903554468353
 20
-1.262608658470004
 10
0.1225903554468353
 20
-1.21347805914407
 10
0.1062134890048618
 20
-1.21347805914407
 10
0.1062134890048618
 20
-1.262608658470004
 10
0.073459756120922
 20
-1.262608658470004
1001
AcDbBlockRepETag
1070
     1
1071
       74
1005
324
  0
LINE
  5
325
330
2D6
100
AcDbEntity
  8
0
100
AcDbLine
 10
1.221410381311674
 20
-0.9676418387772303
 30
0.0
 11
1.221410381311674
 21
-0.7336770575395138
 31
0.0
1001
AcDbBlockRepETag
1070
     1
1071
       75
1005
325
  0
LWPOLYLINE
  5
326
330
2D6
100
AcDbEntity
  8
0
100
AcDbPolyline
 90
        4
 70
     1
 43
0.0
 10
1.184540444968764
 20
-0.9676418387772303
 10
1.258280317654584
 20
-0.9676418387772303
 10
1.258280317654584
 20
-0.7336770575395138
 10
1.184540444968764
 20
-0.7336770575395138
1001
AcDbBlockRepETag
1070
     1
1071
       76
1005
326
  0
LINE
  5
327
330
2D6
100
AcDbEntity
  8
0
100
AcDbLine
 10
1.567892985449921
 20
-2.148845354948165
 30
0.0
 11
-0.1829207667885519
 21
-2.148845354948165
 31
0.0
1001
AcDbBlockRepETag
1070
     1
1071
       77
1005
327
  0
TEXT
  5
328
330
2D6
100
AcDbEntity
  8
0
100
AcDbText
 10
-0.0076360963147817
 20
-2.692064345101838
 30
0.0
 40
0.0983210632
  1
2
100
AcDbText
1001
AcDbBlockRepETag
1070
     1
1071
       78
1005
328
  0
TEXT
  5
329
330
2D6
100
AcDbEntity
  8
0
100
AcDbText
 10
0.1821788322663416
 20
-2.692064345101838
 30
0.0
 40
0.0983210632
  1
T1
100
AcDbText
1001
AcDbBlockRepETag
1070
     1
1071
       79
1005
329
  0
TEXT
  5
32A
330
2D6
100
AcDbEntity
  8
0
100
AcDbText
 10
0.5424936864954671
 20
-2.692064345101838
 30
0.0
 40
0.0983210632
  1
4
100
AcDbText
1001
AcDbBlockRepETag
1070
     1
1071
       80
1005
32A
  0
TEXT
  5
32B
330
2D6
100
AcDbEntity
  8
0
100
AcDbText
 10
0.7323086150765903
 20
-2.692064345101838
 30
0.0
 40
0.0983210632
  1
T2
100
AcDbText
1001
AcDbBlockRepETag
1070
     1
1071
       81
1005
32B
  0
TEXT
  5
32C
330
2D6
100
AcDbEntity
  8
0
100
AcDbText
 10
1.092623469305715
 20
-2.692064345101838
 30
0.0
 40
0.0983210632
  1
6
100
AcDbText
1001
AcDbBlockRepETag
1070
     1
1071
       82
1005
32C
  0
TEXT
  5
32D
330
2D6
100
AcDbEntity
  8
0
100
AcDbText
 10
1.282438397886838
 20
-2.692064345101838
 30
0.0
 40
0.0983210632
  1
T3
100
AcDbText
1001
AcDbBlockRepETag
1070
     1
1071
       83
1005
32D
  0
CIRCLE
  5
32E
330
2D6
100
AcDbEntity
  8
0
100
AcDbCircle
 10
0.692486109330698
 20
-2.39366837284725
 30
0.0
 40
0.147934929770927
1001
AcDbBlockRepETag
1070
     1
1071
       84
1005
32E
  0
LWPOLYLINE
  5
32F
330
2D6
100
AcDbEntity
  8
0
100
AcDbPolyline
 90
       13
 70
     1
 43
0.0
 10
0.6740511411592483
 20
-2.4551182667521
 10
0.7109210775021442
 20
-2.4551182667521
 10
0.7109210775021442
 20
-2.40595835162822
 10
0.7846609501879645
 20
-2.40595835162822
 10
0.7846609501879645
 20
-2.38137839406628
 10
0.7109210775021442
 20
-2.38137839406628
 10
0.7109210775021442
 20
-2.332218478942407
 10
0.6740511411592483
 20
-2.332218478942407
 10
0.6740511411592483
 20
-2.38137839406628
 10
0.600311268473428
 20
-2.38137839406628
 10
0.600311268473428
 20
-2.40595835162822
 10
0.6740511411592483
 20
-2.40595835162822
 10
0.6740511411592483
 20
-2.4551182667521
1001
AcDbBlockRepETag
1070
     1
1071
       85
1005
32F
  0
CIRCLE
  5
330
330
2D6
100
AcDbEntity
  8
0
100
AcDbCircle
 10
1.242615892140948
 20
-2.39366837284725
 30
0.0
 40
0.147934929770927
1001
AcDbBlockRepETag
1070
     1
1071
       86
1005
330
  0
LWPOLYLINE
  5
331
330
2D6
100
AcDbEntity
  8
0
100
AcDbPolyline
 90
       13
 70
     1
 43
0.0
 10
1.224180923969498
 20
-2.4551182667521
 10
1.261050860312394
 20
-2.4551182667521
 10
1.261050860312394
 20
-2.40595835162822
 10
1.334790732998214
 20
-2.40595835162822
 10
1.334790732998214
 20
-2.38137839406628
 10
1.261050860312394
 20
-2.38137839406628
 10
1.261050860312394
 20
-2.332218478942407
 10
1.224180923969498
 20
-2.332218478942407
 10
1.224180923969498
 20
-2.38137839406628
 10
1.150441051283678
 20
-2.38137839406628
 10
1.150441051283678
 20
-2.40595835162822
 10
1.224180923969498
 20
-2.40595835162822
 10
1.224180923969498
 20
-2.4551182667521
1001
AcDbBlockRepETag
1070
     1
1071
       87
1005
331
  0
CIRCLE
  5
332
330
2D6
100
AcDbEntity
  8
0
100
AcDbCircle
 10
0.1423563265204475
 20
-2.39366837284725
 30
0.0
 40
0.147934929770927
1001
AcDbBlockRepETag
1070
     1
1071
       88
1005
332
  0
LWPOLYLINE
  5
333
330
2D6
100
AcDbEntity
  8
0
100
AcDbPolyline
 90
       13
 70
     1
 43
0.0
 10
0.1607912946918972
 20
-2.4551182667521
 10
0.1239213583490013
 20
-2.4551182667521
 10
0.1239213583490013
 20
-2.40595835162822
 10
0.050181485663181
 20
-2.40595835162822
 10
0.050181485663181
 20
-2.38137839406628
 10
0.1239213583490013
 20
-2.38137839406628
 10
0.1239213583490013
 20
-2.332218478942407
 10
0.1607912946918972
 20
-2.332218478942407
 10
0.1607912946918972
 20
-2.38137839406628
 10
0.2345311673777175
 20
-2.38137839406628
 10
0.2345311673777175
 20
-2.40595835162822
 10
0.1607912946918972
 20
-2.40595835162822
 10
0.1607912946918972
 20
-2.4551182667521
1001
AcDbBlockRepETag
1070
     1
1071
       89
1005
333
  0
TEXT
  5
334
330
2D6
100
AcDbEntity
  8
SS-A
 62
     4
100
AcDbText
 10
-0.147593784038827
 20
-0.5531148782019115
 30
0.0
 40
0.1422194935674756
  1
CEP7-E__B
 41
0.65
  7
SIMPLEX
 72
     4
 11
0.2661972186741615
 21
-0.48877748825472
 31
0.0
100
AcDbText
1001
AcDbBlockRepETag
1070
     1
1071
       90
1005
334
  0
POINT
  5
335
330
2D6
100
AcDbEntity
  8
0
 62
     1
100
AcDbPoint
 10
0.0
 20
0.0
 30
0.0
1001
AcDbBlockRepETag
1070
     1
1071
       91
1005
335
  0
LINE
  5
336
330
2D6
100
AcDbEntity
  8
0
100
AcDbLine
 10
-0.1516707667885504
 20
-0.3087597747702953
 30
0.0
 11
-0.1516707667885502
 21
0.0410110755649837
 31
0.0
1001
AcDbBlockRepETag
1070
     1
1071
       92
1005
336
  0
ENDBLK
  5
337
330
2D6
100
AcDbEntity
  8
0
100
AcDbBlockEnd
  0
BLOCK
  5
33B
330
338
100
AcDbEntity
  8
0
 62
     1
100
AcDbBlockBegin
  2
CAT7-23-E_B - Plan
 70
     0
 10
0.0
 20
0.0
 30
0.0
  3
CAT7-23-E_B - Plan
  1

  0
INSERT
  5
33C
102
{ACAD_XDICTIONARY
360
33D
102
}
330
338
100
AcDbEntity
  8
0
 62
     1
100
AcDbBlockReference
  2
*U6
 10
0.0
 20
0.0
 30
0.0
  0
INSERT
  5
343
102
{ACAD_XDICTIONARY
360
344
102
}
330
338
100
AcDbEntity
  8
0
 62
     1
100
AcDbBlockReference
  2
*U4
 10
0.0
 20
0.0
 30
0.0
  0
ENDBLK
  5
34A
330
338
100
AcDbEntity
  8
0
 62
     1
100
AcDbBlockEnd
  0
BLOCK
  5
34E
330
34B
100
AcDbEntity
  8
0
 62
     1
100
AcDbBlockBegin
  2
*U6
 70
     1
 10
0.0
 20
0.0
 30
0.0
  3
*U6
  1

  0
LWPOLYLINE
  5
34F
330
34B
100
AcDbEntity
  8
0
100
AcDbPolyline
 90
        2
 70
   128
 43
0.0
 10
0.8870231193762965
 20
-0.3390355380760681
 10
0.4879768806237
 20
-0.3390355380760681
1001
AcDbBlockRepETag
1070
     1
1071
        0
1005
34F
  0
LWPOLYLINE
  5
350
330
34B
100
AcDbEntity
  8
0
100
AcDbPolyline
 90
        2
 70
   129
 43
0.0
 10
0.4879768806237
 20
-0.3390355380760681
 10
0.4879768806237
 20
-0.1794170425750288
1001
AcDbBlockRepETag
1070
     1
1071
        1
1005
350
  0
LWPOLYLINE
  5
351
330
34B
100
AcDbEntity
  8
0
100
AcDbPolyline
 90
        2
 70
   129
 43
0.0
 10
0.8870231193762965
 20
-0.1794170425750288
 10
0.8870231193762965
 20
-0.3390355380760681
1001
AcDbBlockRepETag
1070
     1
1071
        2
1005
351
  0
LWPOLYLINE
  5
352
330
34B
100
AcDbEntity
  8
0
100
AcDbPolyline
 90
        2
 70
   128
 43
0.0
 10
0.4879768806237
 20
-0.3390355380760681
 10
0.8870231193762965
 20
-0.3390355380760681
1001
AcDbBlockRepETag
1070
     1
1071
        3
1005
352
  0
LWPOLYLINE
  5
353
330
34B
100
AcDbEntity
  8
0
100
AcDbPolyline
 90
        4
 70
   128
 43
0.0
 10
0.5677861283742214
 20
-0.1794170425750288
 10
0.5677861283742214
 20
-0.2592262903255467
 10
0.8072138716257786
 20
-0.2592262903255467
 10
0.8072138716257786
 20
-0.1794170425750288
1001
AcDbBlockRepETag
1070
     1
1071
        4
1005
353
  0
LINE
  5
354
330
34B
100
AcDbEntity
  8
0
100
AcDbLine
 10
1.24733839966173
 20
2.497713753291659
 30
0.0
 11
1.24733839966173
 21
2.856855368168996
 31
0.0
1001
AcDbBlockRepETag
1070
     1
1071
        5
1005
354
  0
LINE
  5
355
330
34B
100
AcDbEntity
  8
0
100
AcDbLine
 10
0.1288352657463623
 20
2.856855368168996
 30
0.0
 11
0.1288352657463623
 21
2.497713753291659
 31
0.0
1001
AcDbBlockRepETag
1070
     1
1071
        6
1005
355
  0
LINE
  5
356
330
34B
100
AcDbEntity
  8
0
100
AcDbLine
 10
1.24733839966173
 20
2.856855368168996
 30
0.0
 11
0.1288352657463623
 21
2.856855368168996
 31
0.0
1001
AcDbBlockRepETag
1070
     1
1071
        7
1005
356
  0
LINE
  5
357
330
34B
100
AcDbEntity
  8
0
100
AcDbLine
 10
0.5484206491406365
 20
2.497713753291655
 30
0.0
 11
0.5484206491406365
 21
2.657332248792695
 31
0.0
1001
AcDbBlockRepETag
1070
     1
1071
        8
1005
357
  0
LINE
  5
358
330
34B
100
AcDbEntity
  8
0
100
AcDbLine
 10
0.5484206491406365
 20
2.657332248792695
 30
0.0
 11
0.8277530162674562
 21
2.657332248792695
 31
0.0
1001
AcDbBlockRepETag
1070
     1
1071
        9
1005
358
  0
LINE
  5
359
330
34B
100
AcDbEntity
  8
0
100
AcDbLine
 10
0.8277530162674562
 20
2.657332248792695
 30
0.0
 11
0.8277530162674562
 21
2.497713753291655
 31
0.0
1001
AcDbBlockRepETag
1070
     1
1071
       10
1005
359
  0
LINE
  5
35A
330
34B
100
AcDbEntity
  8
0
100
AcDbLine
 10
0.8870231193762965
 20
-0.2592262903255467
 30
0.0
 11
1.566575390663809
 21
-0.2592262903255467
 31
0.0
1001
AcDbBlockRepETag
1070
     1
1071
       11
1005
35A
  0
LINE
  5
35B
330
34B
100
AcDbEntity
  8
0
100
AcDbLine
 10
1.566575390663809
 20
0.0611843660846248
 30
0.0
 11
1.566575390663809
 21
-0.2592262903255467
 31
0.0
1001
AcDbBlockRepETag
1070
     1
1071
       12
1005
35B
  0
LINE
  5
35C
330
34B
100
AcDbEntity
  8
0
100
AcDbLine
 10
-0.1915753906638091
 20
2.617427624917436
 30
0.0
 11
-0.1915753906638091
 21
2.298190633915361
 31
0.0
1001
AcDbBlockRepETag
1070
     1
1071
       13
1005
35C
  0
LWPOLYLINE
  5
35D
330
34B
100
AcDbEntity
  8
0
100
AcDbPolyline
 90
        4
 70
   128
 43
0.0
 10
1.486766142913287
 20
-0.1794170425750288
 10
1.486766142913287
 20
-0.2193216664502877
 10
1.287243023536989
 20
-0.2193216664502877
 10
1.287243023536989
 20
-0.1794170425750288
1001
AcDbBlockRepETag
1070
     1
1071
       14
1005
35D
  0
LWPOLYLINE
  5
35E
330
34B
100
AcDbEntity
  8
0
100
AcDbPolyline
 90
        4
 70
   128
 43
0.0
 10
1.24733839966173
 20
-0.1794170425750288
 10
1.24733839966173
 20
-0.2193216664502877
 10
1.006736991002076
 20
-0.2193216664502877
 10
1.006736991002076
 20
-0.1794170425750288
1001
AcDbBlockRepETag
1070
     1
1071
       15
1005
35E
  0
LWPOLYLINE
  5
35F
330
34B
100
AcDbEntity
  8
0
100
AcDbPolyline
 90
        3
 70
   128
 43
0.0
 10
0.9668323671268179
 20
-0.1794170425750288
 10
0.9668323671268179
 20
-0.2193216664502877
 10
0.8870231193762965
 20
-0.2193216664502877
1001
AcDbBlockRepETag
1070
     1
1071
       16
1005
35F
  0
LWPOLYLINE
  5
360
330
34B
100
AcDbEntity
  8
0
100
AcDbPolyline
 90
        2
 70
   129
 43
0.0
 10
0.6475953761247393
 20
-0.0996077948245109
 10
0.6475953761247393
 20
0.0611843660846248
1001
AcDbBlockRepETag
1070
     1
1071
       17
1005
360
  0
LWPOLYLINE
  5
361
330
34B
100
AcDbEntity
  8
0
100
AcDbPolyline
 90
        3
 70
   128
 43
0.0
 10
0.6874999999999983
 20
0.0611843660846248
 10
0.6874999999999983
 20
-0.0996077948245109
 10
0.6475953761247393
 20
-0.0996077948245109
1001
AcDbBlockRepETag
1070
     1
1071
       18
1005
361
  0
LWPOLYLINE
  5
362
330
34B
100
AcDbEntity
  8
0
100
AcDbPolyline
 90
        2
 70
   129
 43
0.0
 10
1.126450862627857
 20
0.0611843660846248
 10
1.126450862627857
 20
-0.0996077948245109
1001
AcDbBlockRepETag
1070
     1
1071
       19
1005
362
  0
LWPOLYLINE
  5
363
330
34B
100
AcDbEntity
  8
0
100
AcDbPolyline
 90
        4
 70
   129
 43
0.0
 10
1.086546238752594
 20
-0.0996077948245109
 10
1.086546238752594
 20
0.0611843660846248
 10
1.086546238752594
 20
-0.0996077948245109
 10
1.126450862627857
 20
-0.0996077948245109
1001
AcDbBlockRepETag
1070
     1
1071
       20
1005
363
  0
LINE
  5
364
330
34B
100
AcDbEntity
  8
0
100
AcDbLine
 10
-0.1516707667885502
 20
0.0611843660846248
 30
0.0
 11
-0.1516707667885502
 21
-0.1794170425750288
 31
0.0
1001
AcDbBlockRepETag
1070
     1
1071
       21
1005
364
  0
LINE
  5
365
330
34B
100
AcDbEntity
  8
0
100
AcDbLine
 10
1.52667076678855
 20
0.0611843660846248
 30
0.0
 11
1.52667076678855
 21
-0.1794170425750288
 31
0.0
1001
AcDbBlockRepETag
1070
     1
1071
       22
1005
365
  0
LWPOLYLINE
  5
366
330
34B
100
AcDbEntity
  8
0
100
AcDbPolyline
 90
        2
 70
   129
 43
0.0
 10
0.2884537612474016
 20
0.0611843660846248
 10
0.2884537612474016
 20
-0.0996077948245109
1001
AcDbBlockRepETag
1070
     1
1071
       23
1005
366
  0
LWPOLYLINE
  5
367
330
34B
100
AcDbEntity
  8
0
100
AcDbPolyline
 90
        3
 70
   128
 43
0.0
 10
0.2485491373721427
 20
0.0611843660846248
 10
0.2485491373721427
 20
-0.0996077948245109
 10
0.2884537612474016
 20
-0.0996077948245109
1001
AcDbBlockRepETag
1070
     1
1071
       24
1005
367
  0
LINE
  5
368
330
34B
100
AcDbEntity
  8
0
100
AcDbLine
 10
1.566575390663809
 20
2.298190633915361
 30
0.0
 11
1.566575390663809
 21
2.4578091294164
 31
0.0
1001
AcDbBlockRepETag
1070
     1
1071
       25
1005
368
  0
LINE
  5
369
330
34B
100
AcDbEntity
  8
0
100
AcDbLine
 10
1.52667076678855
 20
2.497713753291655
 30
0.0
 11
1.52667076678855
 21
2.298190633915361
 31
0.0
1001
AcDbBlockRepETag
1070
     1
1071
       26
1005
369
  0
LWPOLYLINE
  5
36A
330
34B
100
AcDbEntity
  8
0
100
AcDbPolyline
 90
        2
 70
   129
 43
0.0
 10
1.126450862627857
 20
2.4578091294164
 10
1.126450862627857
 20
2.298190633915361
1001
AcDbBlockRepETag
1070
     1
1071
       27
1005
36A
  0
LWPOLYLINE
  5
36B
330
34B
100
AcDbEntity
  8
0
100
AcDbPolyline
 90
        4
 70
   129
 43
0.0
 10
1.086546238752594
 20
2.4578091294164
 10
1.126450862627857
 20
2.4578091294164
 10
1.086546238752594
 20
2.4578091294164
 10
1.086546238752594
 20
2.298190633915361
1001
AcDbBlockRepETag
1070
     1
1071
       28
1005
36B
  0
LWPOLYLINE
  5
36C
330
34B
100
AcDbEntity
  8
0
100
AcDbPolyline
 90
        6
 70
   129
 43
0.0
 10
0.6475953761247393
 20
2.4578091294164
 10
0.6874999999999983
 20
2.4578091294164
 10
0.6874999999999983
 20
2.298190633915361
 10
0.6874999999999983
 20
2.4578091294164
 10
0.6475953761247393
 20
2.4578091294164
 10
0.6475953761247393
 20
2.298190633915361
1001
AcDbBlockRepETag
1070
     1
1071
       29
1005
36C
  0
LWPOLYLINE
  5
36D
330
34B
100
AcDbEntity
  8
0
100
AcDbPolyline
 90
        2
 70
   129
 43
0.0
 10
0.2884537612474016
 20
2.4578091294164
 10
0.2884537612474016
 20
2.298190633915361
1001
AcDbBlockRepETag
1070
     1
1071
       30
1005
36D
  0
LWPOLYLINE
  5
36E
330
34B
100
AcDbEntity
  8
0
100
AcDbPolyline
 90
        4
 70
   129
 43
0.0
 10
0.2884537612474016
 20
2.4578091294164
 10
0.2485491373721427
 20
2.4578091294164
 10
0.2485491373721427
 20
2.298190633915361
 10
0.2485491373721427
 20
2.4578091294164
1001
AcDbBlockRepETag
1070
     1
1071
       31
1005
36E
  0
LINE
  5
36F
330
34B
100
AcDbEntity
  8
0
100
AcDbLine
 10
-0.1516707667885502
 20
2.298190633915361
 30
0.0
 11
-0.1516707667885502
 21
2.537618377166918
 31
0.0
1001
AcDbBlockRepETag
1070
     1
1071
       32
1005
36F
  0
LINE
  5
370
330
34B
100
AcDbEntity
  8
0
100
AcDbLine
 10
-0.1516707667885502
 20
2.537618377166918
 30
0.0
 11
0.0889306418711034
 21
2.537618377166918
 31
0.0
1001
AcDbBlockRepETag
1070
     1
1071
       33
1005
370
  0
LINE
  5
371
330
34B
100
AcDbEntity
  8
0
100
AcDbLine
 10
0.0889306418711034
 20
2.537618377166918
 30
0.0
 11
0.0889306418711034
 21
2.497713753291659
 31
0.0
1001
AcDbBlockRepETag
1070
     1
1071
       34
1005
371
  0
LINE
  5
372
330
34B
100
AcDbEntity
  8
0
100
AcDbLine
 10
1.52667076678855
 20
2.497713753291659
 30
0.0
 11
-0.1516707667885502
 21
2.497713753291659
 31
0.0
1001
AcDbBlockRepETag
1070
     1
1071
       35
1005
372
  0
LWPOLYLINE
  5
373
330
34B
100
AcDbEntity
  8
0
100
AcDbPolyline
 90
        2
 70
   129
 43
0.0
 10
0.4879768806237
 20
-0.2592262903255467
 10
0.0490260179958444
 20
-0.2592262903255467
1001
AcDbBlockRepETag
1070
     1
1071
       36
1005
373
  0
LWPOLYLINE
  5
374
330
34B
100
AcDbEntity
  8
0
100
AcDbPolyline
 90
        5
 70
   128
 43
0.0
 10
0.0490260179958444
 20
-0.2592262903255467
 10
0.0490260179958444
 20
-0.2193216664502877
 10
0.4879768806237
 20
-0.2193216664502877
 10
0.3682630089979231
 20
-0.2193216664502877
 10
0.3682630089979231
 20
-0.1794170425750288
1001
AcDbBlockRepETag
1070
     1
1071
       37
1005
374
  0
LWPOLYLINE
  5
375
330
34B
100
AcDbEntity
  8
0
100
AcDbPolyline
 90
        4
 70
   128
 43
0.0
 10
0.0490260179958444
 20
-0.2592262903255467
 10
0.0490260179958444
 20
-0.2193216664502877
 10
0.4879768806237
 20
-0.2193216664502877
 10
0.0490260179958444
 20
-0.2193216664502877
1001
AcDbBlockRepETag
1070
     1
1071
       38
1005
375
  0
LWPOLYLINE
  5
376
330
34B
100
AcDbEntity
  8
0
100
AcDbPolyline
 90
        2
 70
   129
 43
0.0
 10
0.4879768806237
 20
-0.2193216664502877
 10
0.3283583851226606
 20
-0.2193216664502877
1001
AcDbBlockRepETag
1070
     1
1071
       39
1005
376
  0
LWPOLYLINE
  5
377
330
34B
100
AcDbEntity
  8
0
100
AcDbPolyline
 90
        2
 70
   129
 43
0.0
 10
0.3283583851226606
 20
-0.2193216664502877
 10
0.3283583851226606
 20
-0.1794170425750288
1001
AcDbBlockRepETag
1070
     1
1071
       40
1005
377
  0
LINE
  5
378
330
34B
100
AcDbEntity
  8
0
100
AcDbLine
 10
-0.1915753906638091
 20
-0.1794170425750288
 30
0.0
 11
1.566575390663809
 21
-0.1794170425750252
 31
0.0
1001
AcDbBlockRepETag
1070
     1
1071
       41
1005
378
  0
LINE
  5
379
330
34B
100
AcDbEntity
  8
0
100
AcDbLine
 10
-0.1915753906638091
 20
0.0611843660846248
 30
0.0
 11
-0.1915753906638091
 21
-0.1794170425750288
 31
0.0
1001
AcDbBlockRepETag
1070
     1
1071
       42
1005
379
  0
LINE
  5
37A
330
34B
100
AcDbEntity
  8
0
100
AcDbLine
 10
1.046641614877334
 20
1.459019867126805
 30
0.0
 11
1.046641614877335
 21
1.818161482004146
 31
0.0
1001
AcDbBlockRepETag
1070
     1
1071
       43
1005
37A
  0
LINE
  5
37B
330
34B
100
AcDbEntity
  8
0
100
AcDbLine
 10
0.8870231193762965
 20
1.818161482004146
 30
0.0
 11
0.8870231193762965
 21
1.459019867126809
 31
0.0
1001
AcDbBlockRepETag
1070
     1
1071
       44
1005
37B
  0
LINE
  5
37C
330
34B
100
AcDbEntity
  8
0
100
AcDbLine
 10
0.926927743251559
 20
1.020069004498953
 30
0.0
 11
0.926927743251559
 21
1.339305995501035
 31
0.0
1001
AcDbBlockRepETag
1070
     1
1071
       45
1005
37C
  0
LINE
  5
37D
330
34B
100
AcDbEntity
  8
0
100
AcDbLine
 10
0.926927743251559
 20
1.339305995501035
 30
0.0
 11
0.448072256748441
 21
1.339305995501018
 31
0.0
1001
AcDbBlockRepETag
1070
     1
1071
       46
1005
37D
  0
LINE
  5
37E
330
34B
100
AcDbEntity
  8
0
100
AcDbLine
 10
0.8072138716257786
 20
1.339305995501032
 30
0.0
 11
0.8072138716257786
 21
1.020069004498953
 31
0.0
1001
AcDbBlockRepETag
1070
     1
1071
       47
1005
37E
  0
LWPOLYLINE
  5
37F
330
34B
100
AcDbEntity
  8
0
100
AcDbPolyline
 90
        4
 70
   129
 43
0.0
 10
-0.1915753906638091
 20
2.298190633915361
 10
-0.1915753906638091
 20
0.0611843660846248
 10
1.566575390663809
 20
0.0611843660846248
 10
1.566575390663809
 20
2.298190633915361
1001
AcDbBlockRepETag
1070
     1
1071
       48
1005
37F
  0
LINE
  5
380
330
34B
100
AcDbEntity
  8
0
100
AcDbLine
 10
0.2884537612474016
 20
0.8193722197145625
 30
0.0
 11
0.2884537612474016
 21
0.5400398525877428
 31
0.0
1001
AcDbBlockRepETag
1070
     1
1071
       49
1005
380
  0
LINE
  5
381
330
34B
100
AcDbEntity
  8
0
100
AcDbLine
 10
0.2884537612474016
 20
0.5400398525877428
 30
0.0
 11
1.086546238752594
 21
0.5400398525877428
 31
0.0
1001
AcDbBlockRepETag
1070
     1
1071
       50
1005
381
  0
LINE
  5
382
330
34B
100
AcDbEntity
  8
0
100
AcDbLine
 10
1.086546238752594
 20
0.5400398525877428
 30
0.0
 11
1.086546238752594
 21
0.8193722197145625
 31
0.0
1001
AcDbBlockRepETag
1070
     1
1071
       51
1005
382
  0
LINE
  5
383
330
34B
100
AcDbEntity
  8
0
100
AcDbLine
 10
1.086546238752594
 20
0.8193722197145625
 30
0.0
 11
0.2884537612474016
 21
0.8193722197145625
 31
0.0
1001
AcDbBlockRepETag
1070
     1
1071
       52
1005
383
  0
LINE
  5
384
330
34B
100
AcDbEntity
  8
0
100
AcDbLine
 10
0.3283583851226606
 20
1.459019867126809
 30
0.0
 11
1.046641614877334
 21
1.459019867126805
 31
0.0
1001
AcDbBlockRepETag
1070
     1
1071
       53
1005
384
  0
LINE
  5
385
330
34B
100
AcDbEntity
  8
0
100
AcDbLine
 10
1.046641614877335
 20
1.818161482004146
 30
0.0
 11
0.3283583851226606
 21
1.818161482004146
 31
0.0
1001
AcDbBlockRepETag
1070
     1
1071
       54
1005
385
  0
LINE
  5
386
330
34B
100
AcDbEntity
  8
0
100
AcDbLine
 10
0.3283583851226606
 20
1.818161482004146
 30
0.0
 11
0.3283583851226606
 21
1.459019867126809
 31
0.0
1001
AcDbBlockRepETag
1070
     1
1071
       55
1005
386
  0
LINE
  5
387
330
34B
100
AcDbEntity
  8
0
100
AcDbLine
 10
0.4879768806237
 20
1.459019867126809
 30
0.0
 11
0.4879768806237
 21
1.818161482004146
 31
0.0
1001
AcDbBlockRepETag
1070
     1
1071
       56
1005
387
  0
LINE
  5
388
330
34B
100
AcDbEntity
  8
0
100
AcDbLine
 10
0.5677861283742214
 20
1.020069004498953
 30
0.0
 11
0.5677861283742214
 21
1.339305995501032
 31
0.0
1001
AcDbBlockRepETag
1070
     1
1071
       57
1005
388
  0
LINE
  5
389
330
34B
100
AcDbEntity
  8
0
100
AcDbLine
 10
0.448072256748441
 20
1.339305995501018
 30
0.0
 11
0.448072256748441
 21
1.020069004498949
 31
0.0
1001
AcDbBlockRepETag
1070
     1
1071
       58
1005
389
  0
LINE
  5
38A
330
34B
100
AcDbEntity
  8
0
100
AcDbLine
 10
0.448072256748441
 20
1.020069004498949
 30
0.0
 11
0.926927743251559
 21
1.020069004498953
 31
0.0
1001
AcDbBlockRepETag
1070
     1
1071
       59
1005
38A
  0
CIRCLE
  5
38B
330
34B
100
AcDbEntity
  8
0
100
AcDbCircle
 10
0.0484391852917963
 20
0.3165843054954465
 30
0.0
 40
0.147934929770927
1001
AcDbBlockRepETag
1070
     1
1071
       60
1005
38B
  0
LWPOLYLINE
  5
38C
330
34B
100
AcDbEntity
  8
0
100
AcDbPolyline
 90
       13
 70
     1
 43
0.0
 10
-0.0437356555654756
 20
0.288931853238271
 10
-0.0437356555654756
 20
0.3442367577526149
 10
0.0300042171203447
 20
0.3442367577526149
 10
0.0300042171203447
 20
0.4548465667813453
 10
0.0668741534632549
 20
0.4548465667813453
 10
0.0668741534632549
 20
0.3442367577526149
 10
0.1406140261490609
 20
0.3442367577526149
 10
0.1406140261490609
 20
0.288931853238271
 10
0.0668741534632549
 20
0.288931853238271
 10
0.0668741534632549
 20
0.1783220442095406
 10
0.0300042171203447
 20
0.1783220442095406
 10
0.0300042171203447
 20
0.288931853238271
 10
-0.0437356555654756
 20
0.288931853238271
1001
AcDbBlockRepETag
1070
     1
1071
       61
1005
38C
  0
CIRCLE
  5
38D
330
34B
100
AcDbEntity
  8
0
100
AcDbCircle
 10
0.4680245686860705
 20
0.3165843054954465
 30
0.0
 40
0.147934929770927
1001
AcDbBlockRepETag
1070
     1
1071
       62
1005
38D
  0
LWPOLYLINE
  5
38E
330
34B
100
AcDbEntity
  8
0
100
AcDbPolyline
 90
       13
 70
     1
 43
0.0
 10
0.3758497278287987
 20
0.288931853238271
 10
0.3758497278287987
 20
0.3442367577526149
 10
0.449589600514619
 20
0.3442367577526149
 10
0.449589600514619
 20
0.4548465667813453
 10
0.4864595368575291
 20
0.4548465667813453
 10
0.4864595368575291
 20
0.3442367577526149
 10
0.5601994095433352
 20
0.3442367577526149
 10
0.5601994095433352
 20
0.288931853238271
 10
0.4864595368575291
 20
0.288931853238271
 10
0.4864595368575291
 20
0.1783220442095406
 10
0.449589600514619
 20
0.1783220442095406
 10
0.449589600514619
 20
0.288931853238271
 10
0.3758497278287987
 20
0.288931853238271
1001
AcDbBlockRepETag
1070
     1
1071
       63
1005
38E
  0
CIRCLE
  5
38F
330
34B
100
AcDbEntity
  8
0
100
AcDbCircle
 10
1.326560814708201
 20
0.3165843054954465
 30
0.0
 40
0.147934929770927
1001
AcDbBlockRepETag
1070
     1
1071
       64
1005
38F
  0
LWPOLYLINE
  5
390
330
34B
100
AcDbEntity
  8
0
100
AcDbPolyline
 90
       13
 70
     1
 43
0.0
 10
1.418735655565473
 20
0.288931853238271
 10
1.418735655565473
 20
0.3442367577526149
 10
1.344995782879653
 20
0.3442367577526149
 10
1.344995782879653
 20
0.4548465667813453
 10
1.308125846536743
 20
0.4548465667813453
 10
1.308125846536743
 20
0.3442367577526149
 10
1.234385973850937
 20
0.3442367577526149
 10
1.234385973850937
 20
0.288931853238271
 10
1.308125846536743
 20
0.288931853238271
 10
1.308125846536743
 20
0.1783220442095406
 10
1.344995782879653
 20
0.1783220442095406
 10
1.344995782879653
 20
0.288931853238271
 10
1.418735655565473
 20
0.288931853238271
1001
AcDbBlockRepETag
1070
     1
1071
       65
1005
390
  0
CIRCLE
  5
391
330
34B
100
AcDbEntity
  8
0
100
AcDbCircle
 10
0.9069754313139277
 20
0.3165843054954465
 30
0.0
 40
0.147934929770927
1001
AcDbBlockRepETag
1070
     1
1071
       66
1005
391
  0
LWPOLYLINE
  5
392
330
34B
100
AcDbEntity
  8
0
100
AcDbPolyline
 90
       13
 70
     1
 43
0.0
 10
0.9991502721711995
 20
0.288931853238271
 10
0.9991502721711995
 20
0.3442367577526149
 10
0.9254103994853792
 20
0.3442367577526149
 10
0.9254103994853792
 20
0.4548465667813453
 10
0.8885404631424691
 20
0.4548465667813453
 10
0.8885404631424691
 20
0.3442367577526149
 10
0.814800590456663
 20
0.3442367577526149
 10
0.814800590456663
 20
0.288931853238271
 10
0.8885404631424691
 20
0.288931853238271
 10
0.8885404631424691
 20
0.1783220442095406
 10
0.9254103994853792
 20
0.1783220442095406
 10
0.9254103994853792
 20
0.288931853238271
 10
0.9991502721711995
 20
0.288931853238271
1001
AcDbBlockRepETag
1070
     1
1071
       67
1005
392
  0
TEXT
  5
393
330
34B
100
AcDbEntity
  8
0
100
AcDbText
 10
-0.0762796377160218
 20
0.0797617358231655
 30
0.0
 40
0.0737407974
  1
2
100
AcDbText
1001
AcDbBlockRepETag
1070
     1
1071
       68
1005
393
  0
TEXT
  5
394
330
34B
100
AcDbEntity
  8
0
100
AcDbText
 10
0.0961726638004645
 20
0.0797617358231655
 30
0.0
 40
0.0737407974
  1
T1
100
AcDbText
1001
AcDbBlockRepETag
1070
     1
1071
       69
1005
394
  0
TEXT
  5
395
330
34B
100
AcDbEntity
  8
0
100
AcDbText
 10
0.3433057456782524
 20
0.0797617358231655
 30
0.0
 40
0.0737407974
  1
4
100
AcDbText
1001
AcDbBlockRepETag
1070
     1
1071
       70
1005
395
  0
TEXT
  5
396
330
34B
100
AcDbEntity
  8
0
100
AcDbText
 10
0.5157580471947388
 20
0.0797617358231655
 30
0.0
 40
0.0737407974
  1
T2
100
AcDbText
1001
AcDbBlockRepETag
1070
     1
1071
       71
1005
396
  0
TEXT
  5
397
330
34B
100
AcDbEntity
  8
0
100
AcDbText
 10
0.7822566083061098
 20
0.0797617358231655
 30
0.0
 40
0.0737407974
  1
6
100
AcDbText
1001
AcDbBlockRepETag
1070
     1
1071
       72
1005
397
  0
TEXT
  5
398
330
34B
100
AcDbEntity
  8
0
100
AcDbText
 10
0.954708909822596
 20
0.0797617358231655
 30
0.0
 40
0.0737407974
  1
T3
100
AcDbText
1001
AcDbBlockRepETag
1070
     1
1071
       73
1005
398
  0
TEXT
  5
399
330
34B
100
AcDbEntity
  8
0
100
AcDbText
 10
1.201841991700383
 20
0.0797617358231655
 30
0.0
 40
0.0737407974
  1
14
100
AcDbText
1001
AcDbBlockRepETag
1070
     1
1071
       74
1005
399
  0
TEXT
  5
39A
330
34B
100
AcDbEntity
  8
0
100
AcDbText
 10
1.37429429321687
 20
0.0797617358231655
 30
0.0
 40
0.0737407974
  1
NO
100
AcDbText
1001
AcDbBlockRepETag
1070
     1
1071
       75
1005
39A
  0
CIRCLE
  5
39B
330
34B
100
AcDbEntity
  8
0
100
AcDbCircle
 10
0.0484391852917963
 20
2.042790694504539
 30
0.0
 40
0.147934929770927
1001
AcDbBlockRepETag
1070
     1
1071
       76
1005
39B
  0
LWPOLYLINE
  5
39C
330
34B
100
AcDbEntity
  8
0
100
AcDbPolyline
 90
       13
 70
     1
 43
0.0
 10
-0.0437356555654756
 20
2.070443146761714
 10
-0.0437356555654756
 20
2.01513824224737
 10
0.0300042171203447
 20
2.01513824224737
 10
0.0300042171203447
 20
1.90452843321864
 10
0.0668741534632549
 20
1.90452843321864
 10
0.0668741534632549
 20
2.01513824224737
 10
0.1406140261490609
 20
2.01513824224737
 10
0.1406140261490609
 20
2.070443146761714
 10
0.0668741534632549
 20
2.070443146761714
 10
0.0668741534632549
 20
2.181052955790445
 10
0.0300042171203447
 20
2.181052955790445
 10
0.0300042171203447
 20
2.070443146761714
 10
-0.0437356555654756
 20
2.070443146761714
1001
AcDbBlockRepETag
1070
     1
1071
       77
1005
39C
  0
CIRCLE
  5
39D
330
34B
100
AcDbEntity
  8
0
100
AcDbCircle
 10
0.4680245686860705
 20
2.042790694504539
 30
0.0
 40
0.147934929770927
1001
AcDbBlockRepETag
1070
     1
1071
       78
1005
39D
  0
LWPOLYLINE
  5
39E
330
34B
100
AcDbEntity
  8
0
100
AcDbPolyline
 90
       13
 70
     1
 43
0.0
 10
0.3758497278287987
 20
2.070443146761714
 10
0.3758497278287987
 20
2.01513824224737
 10
0.449589600514619
 20
2.01513824224737
 10
0.449589600514619
 20
1.90452843321864
 10
0.4864595368575291
 20
1.90452843321864
 10
0.4864595368575291
 20
2.01513824224737
 10
0.5601994095433352
 20
2.01513824224737
 10
0.5601994095433352
 20
2.070443146761714
 10
0.4864595368575291
 20
2.070443146761714
 10
0.4864595368575291
 20
2.181052955790445
 10
0.449589600514619
 20
2.181052955790445
 10
0.449589600514619
 20
2.070443146761714
 10
0.3758497278287987
 20
2.070443146761714
1001
AcDbBlockRepETag
1070
     1
1071
       79
1005
39E
  0
CIRCLE
  5
39F
330
34B
100
AcDbEntity
  8
0
100
AcDbCircle
 10
1.326560814708201
 20
2.042790694504539
 30
0.0
 40
0.147934929770927
1001
AcDbBlockRepETag
1070
     1
1071
       80
1005
39F
  0
LWPOLYLINE
  5
3A0
330
34B
100
AcDbEntity
  8
0
100
AcDbPolyline
 90
       13
 70
     1
 43
0.0
 10
1.418735655565473
 20
2.070443146761714
 10
1.418735655565473
 20
2.01513824224737
 10
1.344995782879653
 20
2.01513824224737
 10
1.344995782879653
 20
1.90452843321864
 10
1.308125846536743
 20
1.90452843321864
 10
1.308125846536743
 20
2.01513824224737
 10
1.234385973850937
 20
2.01513824224737
 10
1.234385973850937
 20
2.070443146761714
 10
1.308125846536743
 20
2.070443146761714
 10
1.308125846536743
 20
2.181052955790445
 10
1.344995782879653
 20
2.181052955790445
 10
1.344995782879653
 20
2.070443146761714
 10
1.418735655565473
 20
2.070443146761714
1001
AcDbBlockRepETag
1070
     1
1071
       81
1005
3A0
  0
CIRCLE
  5
3A1
330
34B
100
AcDbEntity
  8
0
100
AcDbCircle
 10
0.9069754313139277
 20
2.042790694504539
 30
0.0
 40
0.147934929770927
1001
AcDbBlockRepETag
1070
     1
1071
       82
1005
3A1
  0
LWPOLYLINE
  5
3A2
330
34B
100
AcDbEntity
  8
0
100
AcDbPolyline
 90
       13
 70
     1
 43
0.0
 10
0.9991502721711995
 20
2.070443146761714
 10
0.9991502721711995
 20
2.01513824224737
 10
0.9254103994853792
 20
2.01513824224737
 10
0.9254103994853792
 20
1.90452843321864
 10
0.8885404631424691
 20
1.90452843321864
 10
0.8885404631424691
 20
2.01513824224737
 10
0.814800590456663
 20
2.01513824224737
 10
0.814800590456663
 20
2.070443146761714
 10
0.8885404631424691
 20
2.070443146761714
 10
0.8885404631424691
 20
2.181052955790445
 10
0.9254103994853792
 20
2.181052955790445
 10
0.9254103994853792
 20
2.070443146761714
 10
0.9991502721711995
 20
2.070443146761714
1001
AcDbBlockRepETag
1070
     1
1071
       83
1005
3A2
  0
TEXT
  5
3A3
330
34B
100
AcDbEntity
  8
0
100
AcDbText
 10
-0.0762796377160218
 20
2.205872466776821
 30
0.0
 40
0.0737407974
  1
1
100
AcDbText
1001
AcDbBlockRepETag
1070
     1
1071
       84
1005
3A3
  0
TEXT
  5
3A4
330
34B
100
AcDbEntity
  8
0
100
AcDbText
 10
0.0961726638004645
 20
2.205872466776821
 30
0.0
 40
0.0737407974
  1
L1
100
AcDbText
1001
AcDbBlockRepETag
1070
     1
1071
       85
1005
3A4
  0
TEXT
  5
3A5
330
34B
100
AcDbEntity
  8
0
100
AcDbText
 10
0.3433057456782524
 20
2.205872466776821
 30
0.0
 40
0.0737407974
  1
3
100
AcDbText
1001
AcDbBlockRepETag
1070
     1
1071
       86
1005
3A5
  0
TEXT
  5
3A6
330
34B
100
AcDbEntity
  8
0
100
AcDbText
 10
0.5157580471947388
 20
2.205872466776821
 30
0.0
 40
0.0737407974
  1
L2
100
AcDbText
1001
AcDbBlockRepETag
1070
     1
1071
       87
1005
3A6
  0
TEXT
  5
3A7
330
34B
100
AcDbEntity
  8
0
100
AcDbText
 10
0.7822566083061098
 20
2.205872466776821
 30
0.0
 40
0.0737407974
  1
5
100
AcDbText
1001
AcDbBlockRepETag
1070
     1
1071
       88
1005
3A7
  0
TEXT
  5
3A8
330
34B
100
AcDbEntity
  8
0
100
AcDbText
 10
0.954708909822596
 20
2.205872466776821
 30
0.0
 40
0.0737407974
  1
L3
100
AcDbText
1001
AcDbBlockRepETag
1070
     1
1071
       89
1005
3A8
  0
TEXT
  5
3A9
330
34B
100
AcDbEntity
  8
0
100
AcDbText
 10
1.201841991700383
 20
2.205872466776821
 30
0.0
 40
0.0737407974
  1
13
100
AcDbText
1001
AcDbBlockRepETag
1070
     1
1071
       90
1005
3A9
  0
TEXT
  5
3AA
330
34B
100
AcDbEntity
  8
0
100
AcDbText
 10
1.37429429321687
 20
2.205872466776821
 30
0.0
 40
0.0737407974
  1
NO
100
AcDbText
1001
AcDbBlockRepETag
1070
     1
1071
       91
1005
3AA
  0
LINE
  5
3AB
330
34B
100
AcDbEntity
  8
0
100
AcDbLine
 10
-0.1915753906638091
 20
2.617427624917436
 30
0.0
 11
0.1288352657463623
 21
2.617427624917436
 31
0.0
1001
AcDbBlockRepETag
1070
     1
1071
       92
1005
3AB
  0
LINE
  5
3AC
330
34B
100
AcDbEntity
  8
0
100
AcDbLine
 10
1.566575390663809
 20
2.4578091294164
 30
0.0
 11
1.52667076678855
 21
2.4578091294164
 31
0.0
1001
AcDbBlockRepETag
1070
     1
1071
       93
1005
3AC
  0
CIRCLE
  5
3AD
330
34B
100
AcDbEntity
  8
0
100
AcDbCircle
 10
0.3386279574434994
 20
2.648476212138447
 30
0.0
 40
0.1172099828185033
1001
AcDbBlockRepETag
1070
     1
1071
       94
1005
3AD
  0
LWPOLYLINE
  5
3AE
330
34B
100
AcDbEntity
  8
0
100
AcDbPolyline
 90
       13
 70
     1
 43
0.0
 10
0.2771780635386527
 20
2.666911180309895
 10
0.2771780635386527
 20
2.630041243966999
 10
0.3263379786625293
 20
2.630041243966999
 10
0.3263379786625293
 20
2.556301371281179
 10
0.3509179362244694
 20
2.556301371281179
 10
0.3509179362244694
 20
2.630041243966999
 10
0.4000778513483461
 20
2.630041243966999
 10
0.4000778513483461
 20
2.666911180309895
 10
0.3509179362244694
 20
2.666911180309895
 10
0.3509179362244694
 20
2.740651052995715
 10
0.3263379786625293
 20
2.740651052995715
 10
0.3263379786625293
 20
2.666911180309895
 10
0.2771780635386527
 20
2.666911180309895
1001
AcDbBlockRepETag
1070
     1
1071
       95
1005
3AE
  0
CIRCLE
  5
3AF
330
34B
100
AcDbEntity
  8
0
100
AcDbCircle
 10
1.037545707964593
 20
2.648476212138447
 30
0.0
 40
0.1172099828185034
1001
AcDbBlockRepETag
1070
     1
1071
       96
1005
3AF
  0
LWPOLYLINE
  5
3B0
330
34B
100
AcDbEntity
  8
0
100
AcDbPolyline
 90
       13
 70
     1
 43
0.0
 10
1.09899560186944
 20
2.666911180309895
 10
1.09899560186944
 20
2.630041243966999
 10
1.049835686745563
 20
2.630041243966999
 10
1.049835686745563
 20
2.556301371281179
 10
1.025255729183623
 20
2.556301371281179
 10
1.025255729183623
 20
2.630041243966999
 10
0.9760958140597466
 20
2.630041243966999
 10
0.9760958140597466
 20
2.666911180309895
 10
1.025255729183623
 20
2.666911180309895
 10
1.025255729183623
 20
2.740651052995715
 10
1.049835686745563
 20
2.740651052995715
 10
1.049835686745563
 20
2.666911180309895
 10
1.09899560186944
 20
2.666911180309895
1001
AcDbBlockRepETag
1070
     1
1071
       97
1005
3B0
  0
TEXT
  5
3B1
330
34B
100
AcDbEntity
  8
0
100
AcDbText
 10
1.110275725668635
 20
2.76384911236887
 30
0.0
 40
0.0737407974
  1
A2
100
AcDbText
1001
AcDbBlockRepETag
1070
     1
1071
       98
1005
3B1
  0
TEXT
  5
3B2
330
34B
100
AcDbEntity
  8
0
100
AcDbText
 10
0.1429966107394573
 20
2.76384911236887
 30
0.0
 40
0.0737407974
  1
A1
100
AcDbText
1001
AcDbBlockRepETag
1070
     1
1071
       99
1005
3B2
  0
CIRCLE
  5
3B3
330
34B
100
AcDbEntity
  8
0
  6
HIDDEN2
100
AcDbCircle
 10
1.374999999999996
 20
2.359374999999985
 30
0.0
 40
0.09375
1001
AcDbBlockRepETag
1070
     1
1071
      100
1005
3B3
  0
CIRCLE
  5
3B4
330
34B
100
AcDbEntity
  8
0
  6
HIDDEN2
100
AcDbCircle
 10
0.0
 20
0.0
 30
0.0
 40
0.09375
1001
AcDbBlockRepETag
1070
     1
1071
      101
1005
3B4
  0
POINT
  5
3B5
330
34B
100
AcDbEntity
  8
0
 62
     1
100
AcDbPoint
 10
1.374999999999996
 20
2.359374999999985
 30
0.0
1001
AcDbBlockRepETag
1070
     1
1071
      102
1005
3B5
  0
POINT
  5
3B6
330
34B
100
AcDbEntity
  8
0
 62
     1
100
AcDbPoint
 10
0.0
 20
0.0
 30
0.0
1001
AcDbBlockRepETag
1070
     1
1071
      103
1005
3B6
  0
TEXT
  5
3B7
330
34B
100
AcDbEntity
  8
SS-A
 62
     4
100
AcDbText
 10
-0.0916821879566415
 20
0.8394595394734725
 30
0.0
 40
0.1422194935674756
  1
CA7
 41
0.75
  7
SIMPLEX
 72
     4
 11
0.053076939424539
 21
0.9105692862572103
 31
0.0
100
AcDbText
1001
AcDbBlockRepETag
1070
     1
1071
      104
1005
3B7
  0
TEXT
  5
3B8
330
34B
100
AcDbEntity
  8
SS-A
 62
     4
 60
     1
100
AcDbText
 10
-0.0993010893977563
 20
0.6635931879648062
 30
0.0
 40
0.1422194935674756
  1
-23
 41
0.75
  7
SIMPLEX
 72
     4
 11
0.053076939424539
 21
0.7347029347485439
 31
0.0
100
AcDbText
1001
AcDbBlockRepETag
1070
     1
1071
      105
1005
3B8
  0
TEXT
  5
3B9
330
34B
100
AcDbEntity
  8
SS-A
 62
     4
 60
     1
100
AcDbText
 10
-0.0866029203292317
 20
0.6635931879648061
 30
0.0
 40
0.1422194935674756
  1
-16
 41
0.75
  7
SIMPLEX
 72
     4
 11
0.053076939424539
 21
0.7347029347485439
 31
0.0
100
AcDbText
1001
AcDbBlockRepETag
1070
     1
1071
      106
1005
3B9
  0
TEXT
  5
3BA
330
34B
100
AcDbEntity
  8
SS-A
 62
     4
100
AcDbText
 10
-0.0891425541429367
 20
0.6635931879648061
 30
0.0
 40
0.1422194935674756
  1
-12
 41
0.75
  7
SIMPLEX
 72
     4
 11
0.053076939424539
 21
0.7347029347485439
 31
0.0
100
AcDbText
1001
AcDbBlockRepETag
1070
     1
1071
      107
1005
3BA
  0
TEXT
  5
3BB
330
34B
100
AcDbEntity
  8
SS-A
 62
     4
 60
     1
100
AcDbText
 10
-0.0967614555840514
 20
0.6635931879648061
 30
0.0
 40
0.1422194935674756
  1
-09
 41
0.75
  7
SIMPLEX
 72
     4
 11
0.053076939424539
 21
0.7347029347485439
 31
0.0
100
AcDbText
1001
AcDbBlockRepETag
1070
     1
1071
      108
1005
3BB
  0
TEXT
  5
3BC
330
34B
100
AcDbEntity
  8
SS-A
 62
     4
 60
     1
100
AcDbText
 10
-0.0866029203292317
 20
0.8394595394734725
 30
0.0
 40
0.1422194935674756
  1
CS7
 41
0.75
  7
SIMPLEX
 72
     4
 11
0.053076939424539
 21
0.9105692862572103
 31
0.0
100
AcDbText
1001
AcDbBlockRepETag
1070
     1
1071
      109
1005
3BC
  0
ENDBLK
  5
3BD
330
34B
100
AcDbEntity
  8
0
 62
     1
100
AcDbBlockEnd
  0
ENDSEC
  0
SECTION
  2
ENTITIES
  0
INSERT
  5
3DB
102
{ACAD_XDICTIONARY
360
3DC
102
}
330
1F
100
AcDbEntity
  8
TEXT
  6
Continuous
 62
     1
100
AcDbBlockReference
  2
*U6
 10
15.53354346444854
 20
12.2544286041062
 30
0.0
  0
INSERT
  5
3E2
330
1F
100
AcDbEntity
  8
TEXT
  6
Continuous
 62
     1
100
AcDbBlockReference
  2
*U2
 10
14.98087569476246
 20
13.43411610410619
 30
0.0
  0
INSERT
  5
3E3
330
1F
100
AcDbEntity
  8
TEXT
  6
Continuous
 62
     1
100
AcDbBlockReference
  2
CAT7-23-E_B - Plan
 10
13.41430030409865
 20
12.2544286041062
 30
0.0
  0
ENDSEC
  0
SECTION
  2
OBJECTS
  0
DICTIONARY
  5
C
330
0
100
AcDbDictionary
281
     1
  3
ACAD_CIP_PREVIOUS_PRODUCT_INFO
350
1A5
  3
ACAD_COLOR
350
73
  3
ACAD_DETAILVIEWSTYLE
350
1AB
  3
ACAD_GROUP
350
D
  3
ACAD_LAYOUT
350
1A
  3
ACAD_MATERIAL
350
72
  3
ACAD_MLEADERSTYLE
350
D7
  3
ACAD_MLINESTYLE
350
17
  3
ACAD_PLOTSETTINGS
350
19
  3
ACAD_PLOTSTYLENAME
350
E
  3
ACAD_SCALELIST
350
B6
  3
ACAD_SECTIONVIEWSTYLE
350
1A8
  3
ACAD_TABLESTYLE
350
86
  3
ACAD_VISUALSTYLE
350
99
  3
ACDB_RECOMPOSE_DATA
350
475
  3
AcDbVariableDictionary
350
66
  3
AcDsDecomposeData
350
47B
  3
AEC_PROPERTY_SET_DEFS
350
3D9
  0
DICTIONARY
  5
18E
330
2
100
AcDbDictionary
280
     1
281
     1
  3
ACAD_LAYERSTATES
360
18F
  0
DICTIONARY
  5
E6
330
10
100
AcDbDictionary
280
     1
281
     1
  0
DICTIONARY
  5
3C0
330
3BF
100
AcDbDictionary
280
     1
281
     1
  0
DICTIONARY
  5
3C2
330
3C1
100
AcDbDictionary
280
     1
281
     1
  0
DICTIONARY
  5
3C4
330
3C3
100
AcDbDictionary
280
     1
281
     1
  0
DICTIONARY
  5
15D
330
1F
100
AcDbDictionary
280
     1
281
     1
  0
DICTIONARY
  5
1D0
330
1CF
100
AcDbDictionary
280
     1
281
     1
  3
ACAD_ENHANCEDBLOCK
360
1D1
  3
ACAD_SORTENTS
360
1D6
  3
AcDbDynamicBlockRoundTripPurgePreventer
360
1D7
  0
DICTIONARY
  5
249
330
248
100
AcDbDictionary
280
     1
281
     1
  3
ACAD_ENHANCEDBLOCK
360
24A
  3
ACAD_SORTENTS
360
24F
  3
AcDbDynamicBlockRoundTripPurgePreventer
360
250
  0
DICTIONARY
  5
26F
330
26E
100
AcDbDictionary
280
     1
281
     1
  3
ACAD_ENHANCEDBLOCK
360
270
  3
ACAD_SORTENTS
360
275
  3
AcDbDynamicBlockRoundTripPurgePreventer
360
276
  0
DICTIONARY
  5
2D7
330
2D6
100
AcDbDictionary
280
     1
281
     1
  3
ACAD_SORTENTS
360
2D8
  0
DICTIONARY
  5
339
330
338
100
AcDbDictionary
280
     1
281
     1
  3
ACAD_SORTENTS
360
33A
  0
DICTIONARY
  5
34C
330
34B
100
AcDbDictionary
280
     1
281
     1
  3
ACAD_SORTENTS
360
34D
  0
DICTIONARY
  5
33D
330
33C
100
AcDbDictionary
280
     1
281
     1
  3
AcDbBlockRepresentation
360
33E
  0
DICTIONARY
  5
344
330
343
100
AcDbDictionary
280
     1
281
     1
  3
AcDbBlockRepresentation
360
345
  0
DICTIONARY
  5
3DC
330
3DB
100
AcDbDictionary
280
     1
281
     1
  3
AcDbBlockRepresentation
360
3DD
  0
XRECORD
  5
1A5
102
{ACAD_REACTORS
330
C
102
}
330
C
100
AcDbXrecord
280
     1
300
ACAD_E
300
2014
300
ACAD_E_F_S
  0
DICTIONARY
  5
73
102
{ACAD_REACTORS
330
C
102
}
330
C
100
AcDbDictionary
281
     1
  0
DICTIONARY
  5
1AB
102
{ACAD_REACTORS
330
C
102
}
330
C
100
AcDbDictionary
281
     1
  3
Imperial24
350
1AC
  0
DICTIONARY
  5
D
102
{ACAD_REACTORS
330
C
102
}
330
C
100
AcDbDictionary
281
     1
  0
DICTIONARY
  5
1A
102
{ACAD_REACTORS
330
C
102
}
330
C
100
AcDbDictionary
281
     1
  3
Layout1
350
59
  3
Layout2
350
5E
  3
Model
350
22
  0
DICTIONARY
  5
72
102
{ACAD_REACTORS
330
C
102
}
330
C
100
AcDbDictionary
281
     1
  3
ByBlock
350
97
  3
ByLayer
350
96
  3
Global
350
98
  0
DICTIONARY
  5
D7
102
{ACAD_REACTORS
330
C
102
}
330
C
100
AcDbDictionary
281
     1
  3
Annotative
350
E5
  3
Standard
350
D8
  0
DICTIONARY
  5
17
102
{ACAD_REACTORS
330
C
102
}
330
C
100
AcDbDictionary
281
     1
  3
Standard
350
18
  0
DICTIONARY
  5
19
102
{ACAD_REACTORS
330
C
102
}
330
C
100
AcDbDictionary
281
     1
  0
ACDBDICTIONARYWDFLT
  5
E
102
{ACAD_REACTORS
330
C
102
}
330
C
100
AcDbDictionary
281
     1
  3
Normal
350
F
100
AcDbDictionaryWithDefault
340
F
  0
DICTIONARY
  5
B6
102
{ACAD_REACTORS
330
C
102
}
330
C
100
AcDbDictionary
281
     1
  3
A0
350
B7
  3
A1
350
124
  3
A2
350
125
  3
A3
350
126
  3
A4
350
127
  3
A5
350
128
  3
A6
350
129
  3
A7
350
12A
  3
A8
350
12B
  3
A9
350
12C
  3
B0
350
12D
  3
B1
350
12E
  3
B2
350
12F
  3
B3
350
130
  3
B4
350
131
  3
B5
350
132
  3
B6
350
133
  3
B7
350
134
  3
B8
350
135
  3
B9
350
136
  3
C0
350
137
  3
C1
350
138
  3
C2
350
139
  3
C3
350
13A
  3
C4
350
13B
  3
C5
350
13C
  3
C6
350
13D
  3
C7
350
13E
  3
C8
350
13F
  3
C9
350
140
  3
D0
350
141
  3
D1
350
142
  3
D2
350
143
  0
DICTIONARY
  5
1A8
102
{ACAD_REACTORS
330
C
102
}
330
C
100
AcDbDictionary
281
     1
  3
Imperial24
350
1AA
  0
DICTIONARY
  5
86
102
{ACAD_REACTORS
330
C
102
}
330
C
100
AcDbDictionary
281
     1
  3
Standard
350
87
  0
DICTIONARY
  5
99
102
{ACAD_REACTORS
330
C
102
}
330
C
100
AcDbDictionary
281
     1
  3
2dWireframe
350
9F
  3
Basic
350
9E
  3
Brighten
350
A5
  3
ColorChange
350
A9
  3
Conceptual
350
A2
  3
Dim
350
A4
  3
EdgeColorOff
350
175
  3
Facepattern
350
A8
  3
Flat
350
9A
  3
FlatWithEdges
350
9B
  3
Gouraud
350
9C
  3
GouraudWithEdges
350
9D
  3
Hidden
350
A1
  3
JitterOff
350
173
  3
Linepattern
350
A7
  3
OverhangOff
350
174
  3
Realistic
350
A3
  3
Shaded
350
182
  3
Shaded with edges
350
181
  3
Shades of Gray
350
17E
  3
Sketchy
350
17F
  3
Thicken
350
A6
  3
Wireframe
350
A0
  3
X-Ray
350
180
  0
XRECORD
  5
475
102
{ACAD_REACTORS
330
C
102
}
330
C
100
AcDbXrecord
280
     1
 90
        1
330
87
  0
DICTIONARY
  5
66
102
{ACAD_REACTORS
330
C
102
}
330
C
100
AcDbDictionary
281
     1
  3
CANNOSCALE
350
F0
  3
CMLEADERSTYLE
350
EF
  3
CTABLESTYLE
350
89
  3
CVIEWDETAILSTYLE
350
1B7
  3
CVIEWSECTIONSTYLE
350
1B8
  3
DIMASSOC
350
67
  3
HIDETEXT
350
6B
  3
LAYEREVAL
350
14D
  3
LAYERNOTIFY
350
14E
  3
LIGHTINGUNITS
350
472
  3
MSLTSCALE
350
471
  3
XCLIPFRAME
350
473
  0
DICTIONARY
  5
47B
102
{ACAD_REACTORS
330
C
102
}
330
C
100
AcDbDictionary
281
     1
  3
AcDsRecords
350
47D
  3
AcDsSchemas
350
47C
1001
ACAD
1070
     2
  0
DICTIONARY
  5
3D9
102
{ACAD_REACTORS
330
C
102
}
330
C
100
AcDbDictionary
281
     1
  0
DICTIONARY
  5
18F
102
{ACAD_REACTORS
330
18E
102
}
330
18E
100
AcDbDictionary
281
     1
  0
ACAD_EVALUATION_GRAPH
  5
1D1
102
{ACAD_REACTORS
330
1D0
102
}
330
1D0
100
AcDbEvalGraph
 96
        4
 97
        4
 91
        0
 93
       32
 95
        1
360
1D2
 92
        0
 92
        0
 92
        1
 92
        2
 91
        1
 93
       32
 95
        2
360
1D3
 92
       -1
 92
       -1
 92
        0
 92
        0
 91
        2
 93
       32
 95
        3
360
1D4
 92
        1
 92
        1
 92
       -1
 92
       -1
 91
        3
 93
       32
 95
        4
360
1D5
 92
        2
 92
        2
 92
       -1
 92
       -1
 92
        0
 93
        0
 94
        1
 91
        1
 91
        0
 92
       -1
 92
       -1
 92
       -1
 92
       -1
 92
       -1
 92
        1
 93
        0
 94
        1
 91
        0
 91
        2
 92
       -1
 92
       -1
 92
       -1
 92
        2
 92
       -1
 92
        2
 93
        0
 94
        1
 91
        0
 91
        3
 92
       -1
 92
       -1
 92
        1
 92
       -1
 92
       -1
  0
SORTENTSTABLE
  5
1D6
102
{ACAD_REACTORS
330
1D0
102
}
330
1D0
100
AcDbSortentsTable
330
1CF
  0
ACDB_DYNAMICBLOCKPURGEPREVENTER_VERSION
  5
1D7
102
{ACAD_REACTORS
330
1D0
102
}
330
1D0
100
AcDbDynamicBlockPurgePreventer
 70
     1
  0
ACAD_EVALUATION_GRAPH
  5
24A
102
{ACAD_REACTORS
330
249
102
}
330
249
100
AcDbEvalGraph
 96
        4
 97
        4
 91
        0
 93
       32
 95
        1
360
24B
 92
        0
 92
        0
 92
        1
 92
        2
 91
        1
 93
       32
 95
        2
360
24C
 92
       -1
 92
       -1
 92
        0
 92
        0
 91
        2
 93
       32
 95
        3
360
24D
 92
        1
 92
        1
 92
       -1
 92
       -1
 91
        3
 93
       32
 95
        4
360
24E
 92
        2
 92
        2
 92
       -1
 92
       -1
 92
        0
 93
        0
 94
        1
 91
        1
 91
        0
 92
       -1
 92
       -1
 92
       -1
 92
       -1
 92
       -1
 92
        1
 93
        0
 94
        1
 91
        0
 91
        2
 92
       -1
 92
       -1
 92
       -1
 92
        2
 92
       -1
 92
        2
 93
        0
 94
        1
 91
        0
 91
        3
 92
       -1
 92
       -1
 92
        1
 92
       -1
 92
       -1
  0
SORTENTSTABLE
  5
24F
102
{ACAD_REACTORS
330
249
102
}
330
249
100
AcDbSortentsTable
330
248
331
252
  5
16C
331
253
  5
16D
331
254
  5
16E
331
255
  5
16F
331
256
  5
16B
  0
ACDB_DYNAMICBLOCKPURGEPREVENTER_VERSION
  5
250
102
{ACAD_REACTORS
330
249
102
}
330
249
100
AcDbDynamicBlockPurgePreventer
 70
     1
  0
ACAD_EVALUATION_GRAPH
  5
270
102
{ACAD_REACTORS
330
26F
102
}
330
26F
100
AcDbEvalGraph
 96
        4
 97
        4
 91
        0
 93
       32
 95
        1
360
271
 92
        0
 92
        0
 92
        1
 92
        2
 91
        1
 93
       32
 95
        2
360
272
 92
       -1
 92
       -1
 92
        0
 92
        0
 91
        2
 93
       32
 95
        3
360
273
 92
        1
 92
        1
 92
       -1
 92
       -1
 91
        3
 93
       32
 95
        4
360
274
 92
        2
 92
        2
 92
       -1
 92
       -1
 92
        0
 93
        0
 94
        1
 91
        1
 91
        0
 92
       -1
 92
       -1
 92
       -1
 92
       -1
 92
       -1
 92
        1
 93
        0
 94
        1
 91
        0
 91
        2
 92
       -1
 92
       -1
 92
       -1
 92
        2
 92
       -1
 92
        2
 93
        0
 94
        1
 91
        0
 91
        3
 92
       -1
 92
       -1
 92
        1
 92
       -1
 92
       -1
  0
SORTENTSTABLE
  5
275
102
{ACAD_REACTORS
330
26F
102
}
330
26F
100
AcDbSortentsTable
330
26E
331
2AE
  5
1B1
331
2AA
  5
1AD
331
286
  5
1E5
331
2C5
  5
1C8
331
282
  5
1E1
331
2C1
  5
1C4
331
27E
  5
1DD
331
2BD
  5
1C0
331
27A
  5
1D9
331
2B9
  5
1BC
331
295
  5
1F4
331
2D4
  5
1A1
331
291
  5
1F0
331
2D0
  5
1D3
331
28D
  5
1EC
331
2CC
  5
1CF
331
289
  5
1E8
331
2C8
  5
1CB
331
2A4
  5
1A7
331
2A0
  5
1A3
331
29C
  5
1FB
331
298
  5
1F7
331
2B7
  5
1BA
331
2B3
  5
1B6
331
2AF
  5
1B2
331
2AB
  5
1AE
331
287
  5
1E6
331
2C6
  5
1C9
331
283
  5
1E2
331
2C2
  5
1C5
331
27F
  5
1DE
331
2BE
  5
1C1
331
27B
  5
1DA
331
2BA
  5
1BD
331
296
  5
1F5
331
292
  5
1F1
331
2D1
  5
1D4
331
28E
  5
1ED
331
2CD
  5
1D0
331
2C9
  5
1CC
331
28A
  5
1E9
331
2A5
  5
1A8
331
2A1
  5
1A4
331
29D
  5
1FC
331
299
  5
1F8
331
2B4
  5
1B7
331
2B0
  5
1B3
331
2AC
  5
1AF
331
2A8
  5
1AB
331
2C7
  5
1CA
331
284
  5
1E3
331
2C3
  5
1C6
331
280
  5
1DF
331
2BF
  5
1C2
331
2BB
  5
1BE
331
27C
  5
1DB
331
278
  5
1D7
331
297
  5
1F6
331
293
  5
1F2
331
2D2
  5
1D5
331
28F
  5
1EE
331
2CE
  5
1D1
331
2CA
  5
1CD
331
28B
  5
1EA
331
2A6
  5
1A9
331
2A2
  5
1A5
331
29E
  5
1FD
331
29A
  5
1F9
331
2B5
  5
1B8
331
2B1
  5
1B4
331
2AD
  5
1B0
331
2A9
  5
1AC
331
285
  5
1E4
331
2C4
  5
1C7
331
281
  5
1E0
331
2C0
  5
1C3
331
2BC
  5
1BF
331
27D
  5
1DC
331
2B8
  5
1BB
331
279
  5
1D8
331
294
  5
1F3
331
2D3
  5
1D6
331
290
  5
1EF
331
2CF
  5
1D2
331
2CB
  5
1CE
331
28C
  5
1EB
331
288
  5
1E7
331
2A7
  5
1AA
331
2A3
  5
1A6
331
29F
  5
1A2
331
29B
  5
1FA
331
2B6
  5
1B9
331
2B2
  5
1B5
  0
ACDB_DYNAMICBLOCKPURGEPREVENTER_VERSION
  5
276
102
{ACAD_REACTORS
330
26F
102
}
330
26F
100
AcDbDynamicBlockPurgePreventer
 70
     1
  0
SORTENTSTABLE
  5
2D8
102
{ACAD_REACTORS
330
2D7
102
}
330
2D7
100
AcDbSortentsTable
330
2D6
331
32E
  5
234
331
2EF
  5
251
331
2EB
  5
24D
331
32A
  5
230
331
326
  5
22C
331
2E7
  5
249
331
322
  5
228
331
2E3
  5
245
331
2FE
  5
260
331
2FA
  5
25C
331
335
  5
23B
331
2F6
  5
258
331
331
  5
237
331
2F2
  5
254
331
30D
  5
213
331
309
  5
20F
331
305
  5
20B
331
301
  5
207
331
2DF
  5
241
331
2DB
  5
23D
331
31C
  5
222
331
318
  5
21E
331
314
  5
21A
331
310
  5
216
331
32F
  5
235
331
2EC
  5
24E
331
32B
  5
231
331
2E8
  5
24A
331
327
  5
22D
331
2E4
  5
246
331
323
  5
229
331
2E0
  5
242
331
2FF
  5
261
331
2FB
  5
25D
331
2F7
  5
259
331
336
  5
206
331
332
  5
238
331
2F3
  5
255
331
30E
  5
214
331
30A
  5
210
331
306
  5
20C
331
302
  5
208
331
31D
  5
223
331
2DC
  5
23E
331
319
  5
21F
331
315
  5
21B
331
311
  5
217
331
32C
  5
232
331
2ED
  5
24F
331
2E9
  5
24B
331
328
  5
22E
331
324
  5
22A
331
2E5
  5
247
331
2E1
  5
243
331
320
  5
226
331
2FC
  5
25E
331
2F8
  5
25A
331
2F4
  5
256
331
333
  5
239
331
2F0
  5
252
331
30F
  5
215
331
30B
  5
211
331
307
  5
20D
331
303
  5
209
331
31E
  5
224
331
2DD
  5
23F
331
31A
  5
220
331
316
  5
21C
331
312
  5
218
331
32D
  5
233
331
2EE
  5
250
331
2EA
  5
24C
331
329
  5
22F
331
325
  5
22B
331
2E6
  5
248
331
2E2
  5
244
331
321
  5
227
331
2FD
  5
25F
331
2F9
  5
25B
331
334
  5
23A
331
2F5
  5
257
331
330
  5
236
331
2F1
  5
253
331
30C
  5
212
331
308
  5
20E
331
304
  5
20A
331
300
  5
262
331
2DE
  5
240
331
31F
  5
225
331
2DA
  5
23C
331
31B
  5
221
331
317
  5
21D
331
313
  5
219
  0
SORTENTSTABLE
  5
33A
102
{ACAD_REACTORS
330
339
102
}
330
339
100
AcDbSortentsTable
330
338
  0
SORTENTSTABLE
  5
34D
102
{ACAD_REACTORS
330
34C
102
}
330
34C
100
AcDbSortentsTable
330
34B
  0
DICTIONARY
  5
33E
102
{ACAD_REACTORS
330
33D
102
}
330
33D
100
AcDbDictionary
280
     1
281
     1
  3
AcDbRepData
360
33F
  3
AppDataCache
360
340
  0
DICTIONARY
  5
345
102
{ACAD_REACTORS
330
344
102
}
330
344
100
AcDbDictionary
280
     1
281
     1
  3
AcDbRepData
360
346
  3
AppDataCache
360
347
  0
DICTIONARY
  5
3DD
102
{ACAD_REACTORS
330
3DC
102
}
330
3DC
100
AcDbDictionary
280
     1
281
     1
  3
AcDbRepData
360
3DE
  3
AppDataCache
360
3DF
  0
ACDBDETAILVIEWSTYLE
  5
1AC
102
{ACAD_XDICTIONARY
360
1C6
102
}
102
{ACAD_REACTORS
330
1AB
102
}
330
1AB
100
AcDbModelDocViewStyle
 70
     0
  3
Imperial24
290
     0
100
AcDbDetailViewStyle
 70
     0
 71
     0
 90
        3
 71
     1
340
11
 62
   256
 40
0.24
340
0
 62
   256
 40
0.24
300

 40
0.36
280
     3
 71
     2
340
16
 90
       25
 62
   256
 71
     3
340
11
 62
   256
 40
0.24
 90
        1
 40
0.75
 90
        1
300
%<\AcVar ViewType \f "%tc1">% %<\AcVar ViewDetailId>%\PSCALE %<\AcVar ViewScale \f "%sn">%
 71
     4
340
16
 90
       25
 62
   256
340
16
 90
       25
 62
   256
280
     0
  0
LAYOUT
  5
59
102
{ACAD_REACTORS
330
1A
102
}
330
1A
100
AcDbPlotSettings
  1

  2
None
  4

  6

 40
0.0
 41
0.0
 42
0.0
 43
0.0
 44
0.0
 45
0.0
 46
0.0
 47
0.0
 48
0.0
 49
0.0
140
0.0
141
0.0
142
1.0
143
1.0
 70
   688
 72
     0
 73
     0
 74
     5
  7

 75
    16
147
1.0
 76
     0
 77
     2
 78
   300
148
0.0
149
0.0
100
AcDbLayout
  1
Layout1
 70
     1
 71
     1
 10
0.0
 20
0.0
 11
12.0
 21
9.0
 12
0.0
 22
0.0
 32
0.0
 14
0.0
 24
0.0
 34
0.0
 15
0.0
 25
0.0
 35
0.0
146
0.0
 13
0.0
 23
0.0
 33
0.0
 16
1.0
 26
0.0
 36
0.0
 17
0.0
 27
1.0
 37
0.0
 76
     0
330
58
  0
LAYOUT
  5
5E
102
{ACAD_REACTORS
330
1A
102
}
330
1A
100
AcDbPlotSettings
  1

  2
None
  4

  6

 40
0.0
 41
0.0
 42
0.0
 43
0.0
 44
0.0
 45
0.0
 46
0.0
 47
0.0
 48
0.0
 49
0.0
140
0.0
141
0.0
142
1.0
143
1.0
 70
   688
 72
     0
 73
     0
 74
     5
  7

 75
    16
147
1.0
 76
     0
 77
     2
 78
   300
148
0.0
149
0.0
100
AcDbLayout
  1
Layout2
 70
     1
 71
     2
 10
0.0
 20
0.0
 11
12.0
 21
9.0
 12
0.0
 22
0.0
 32
0.0
 14
0.0
 24
0.0
 34
0.0
 15
0.0
 25
0.0
 35
0.0
146
0.0
 13
0.0
 23
0.0
 33
0.0
 16
1.0
 26
0.0
 36
0.0
 17
0.0
 27
1.0
 37
0.0
 76
     0
330
5D
  0
LAYOUT
  5
22
102
{ACAD_XDICTIONARY
360
194
102
}
102
{ACAD_REACTORS
330
1A
102
}
330
1A
100
AcDbPlotSettings
  1

  2
none_device
  4
ANSI_A_(8.50_x_11.00_Inches)
  6

 40
6.349999904632568
 41
19.04999923706055
 42
6.350006103515625
 43
19.04998779296875
 44
215.8999938964844
 45
279.3999938964844
 46
0.0
 47
0.0
 48
0.0
 49
0.0
140
0.0
141
0.0
142
1.0
143
2.584895464708373
 70
 11952
 72
     0
 73
     1
 74
     0
  7

 75
     0
147
0.3868628397755418
 76
     0
 77
     2
 78
   300
148
0.0
149
0.0
100
AcDbLayout
  1
Model
 70
     1
 71
     0
 10
0.0
 20
0.0
 11
12.0
 21
9.0
 12
0.0
 22
0.0
 32
0.0
 14
0.0
 24
0.0
 34
0.0
 15
0.0
 25
0.0
 35
0.0
146
0.0
 13
0.0
 23
0.0
 33
0.0
 16
1.0
 26
0.0
 36
0.0
 17
0.0
 27
1.0
 37
0.0
 76
     0
330
1F
331
94
  0
MATERIAL
  5
97
102
{ACAD_XDICTIONARY
360
188
102
}
102
{ACAD_REACTORS
330
72
102
}
330
72
100
AcDbMaterial
  1
ByBlock
  0
MATERIAL
  5
96
102
{ACAD_XDICTIONARY
360
186
102
}
102
{ACAD_REACTORS
330
72
102
}
330
72
100
AcDbMaterial
  1
ByLayer
  0
MATERIAL
  5
98
102
{ACAD_XDICTIONARY
360
110
102
}
102
{ACAD_REACTORS
330
72
102
}
330
72
100
AcDbMaterial
  1
Global
 43
0.0208000000566244
 43
0.0
 43
0.0
 43
0.0
 43
0.0
 43
0.0208000000566244
 43
0.0
 43
0.0
 43
0.0
 43
0.0
 43
1.0
 43
0.0
 43
0.0
 43
0.0
 43
0.0
 43
1.0
 49
0.0208000000566244
 49
0.0
 49
0.0
 49
0.0
 49
0.0
 49
0.0208000000566244
 49
0.0
 49
0.0
 49
0.0
 49
0.0
 49
1.0
 49
0.0
 49
0.0
 49
0.0
 49
0.0
 49
1.0
142
0.0208000000566244
142
0.0
142
0.0
142
0.0
142
0.0
142
0.0208000000566244
142
0.0
142
0.0
142
0.0
142
0.0
142
1.0
142
0.0
142
0.0
142
0.0
142
0.0
142
1.0
144
0.0208000000566244
144
0.0
144
0.0
144
0.0
144
0.0
144
0.0208000000566244
144
0.0
144
0.0
144
0.0
144
0.0
144
1.0
144
0.0
144
0.0
144
0.0
144
0.0
144
1.0
1001
ACAD
1070
    -1
1070
     3
1070
     0
1000

1071
        0
1070
     0
  0
MLEADERSTYLE
  5
E5
102
{ACAD_REACTORS
330
D7
102
}
330
D7
100
AcDbMLeaderStyle
170
     2
171
     1
172
     0
 90
        2
 40
0.0
 41
0.0
173
     1
 91
-1056964608
340
14
 92
       -2
290
     1
 42
0.09
291
     1
 43
0.36
  3
Standard
 44
0.18
300

342
11
174
     1
178
     1
175
     1
176
     0
 93
-1056964608
 45
0.18
292
     0
297
     0
 46
0.18
 94
-1056964608
 47
1.0
 49
1.0
140
1.0
293
     1
141
0.0
294
     1
177
     0
142
1.0
295
     0
296
     1
143
0.125
1001
ACAD_MLEADERVER
1070
     2
  0
MLEADERSTYLE
  5
D8
102
{ACAD_REACTORS
330
D7
102
}
330
D7
100
AcDbMLeaderStyle
170
     2
171
     1
172
     0
 90
        2
 40
0.0
 41
0.0
173
     1
 91
-1056964608
340
14
 92
       -2
290
     1
 42
0.09
291
     1
 43
0.36
  3
Standard
 44
0.18
300

342
11
174
     1
178
     1
175
     1
176
     0
 93
-1056964608
 45
0.18
292
     0
297
     0
 46
0.18
 94
-1056964608
 47
1.0
 49
1.0
140
1.0
293
     1
141
0.0
294
     1
177
     0
142
1.0
295
     0
296
     0
143
0.125
1001
ACAD_MLEADERVER
1070
     2
  0
MLINESTYLE
  5
18
102
{ACAD_REACTORS
330
17
102
}
330
17
100
AcDbMlineStyle
  2
STANDARD
 70
     0
  3

 62
   256
 51
90.0
 52
90.0
 71
     2
 49
0.5
 62
   256
  6
BYLAYER
 49
-0.5
 62
   256
  6
BYLAYER
  0
ACDBPLACEHOLDER
  5
F
102
{ACAD_REACTORS
330
E
102
}
330
E
  0
SCALE
  5
B7
102
{ACAD_REACTORS
330
B6
102
}
330
B6
100
AcDbScale
 70
     0
300
1:1
140
1.0
141
1.0
290
     1
  0
SCALE
  5
124
102
{ACAD_REACTORS
330
B6
102
}
330
B6
100
AcDbScale
 70
     0
300
1:2
140
1.0
141
2.0
290
     0
  0
SCALE
  5
125
102
{ACAD_REACTORS
330
B6
102
}
330
B6
100
AcDbScale
 70
     0
300
1:4
140
1.0
141
4.0
290
     0
  0
SCALE
  5
126
102
{ACAD_REACTORS
330
B6
102
}
330
B6
100
AcDbScale
 70
     0
300
1:5
140
1.0
141
5.0
290
     0
  0
SCALE
  5
127
102
{ACAD_REACTORS
330
B6
102
}
330
B6
100
AcDbScale
 70
     0
300
1:8
140
1.0
141
8.0
290
     0
  0
SCALE
  5
128
102
{ACAD_REACTORS
330
B6
102
}
330
B6
100
AcDbScale
 70
     0
300
1:10
140
1.0
141
10.0
290
     0
  0
SCALE
  5
129
102
{ACAD_REACTORS
330
B6
102
}
330
B6
100
AcDbScale
 70
     0
300
1:16
140
1.0
141
16.0
290
     0
  0
SCALE
  5
12A
102
{ACAD_REACTORS
330
B6
102
}
330
B6
100
AcDbScale
 70
     0
300
1:20
140
1.0
141
20.0
290
     0
  0
SCALE
  5
12B
102
{ACAD_REACTORS
330
B6
102
}
330
B6
100
AcDbScale
 70
     0
300
1:30
140
1.0
141
30.0
290
     0
  0
SCALE
  5
12C
102
{ACAD_REACTORS
330
B6
102
}
330
B6
100
AcDbScale
 70
     0
300
1:40
140
1.0
141
40.0
290
     0
  0
SCALE
  5
12D
102
{ACAD_REACTORS
330
B6
102
}
330
B6
100
AcDbScale
 70
     0
300
1:50
140
1.0
141
50.0
290
     0
  0
SCALE
  5
12E
102
{ACAD_REACTORS
330
B6
102
}
330
B6
100
AcDbScale
 70
     0
300
1:100
140
1.0
141
100.0
290
     0
  0
SCALE
  5
12F
102
{ACAD_REACTORS
330
B6
102
}
330
B6
100
AcDbScale
 70
     0
300
2:1
140
2.0
141
1.0
290
     0
  0
SCALE
  5
130
102
{ACAD_REACTORS
330
B6
102
}
330
B6
100
AcDbScale
 70
     0
300
4:1
140
4.0
141
1.0
290
     0
  0
SCALE
  5
131
102
{ACAD_REACTORS
330
B6
102
}
330
B6
100
AcDbScale
 70
     0
300
8:1
140
8.0
141
1.0
290
     0
  0
SCALE
  5
132
102
{ACAD_REACTORS
330
B6
102
}
330
B6
100
AcDbScale
 70
     0
300
10:1
140
10.0
141
1.0
290
     0
  0
SCALE
  5
133
102
{ACAD_REACTORS
330
B6
102
}
330
B6
100
AcDbScale
 70
     0
300
100:1
140
100.0
141
1.0
290
     0
  0
SCALE
  5
134
102
{ACAD_REACTORS
330
B6
102
}
330
B6
100
AcDbScale
 70
     0
300
1/128" = 1'-0"
140
0.0078125
141
12.0
290
     0
  0
SCALE
  5
135
102
{ACAD_REACTORS
330
B6
102
}
330
B6
100
AcDbScale
 70
     0
300
1/64" = 1'-0"
140
0.015625
141
12.0
290
     0
  0
SCALE
  5
136
102
{ACAD_REACTORS
330
B6
102
}
330
B6
100
AcDbScale
 70
     0
300
1/32" = 1'-0"
140
0.03125
141
12.0
290
     0
  0
SCALE
  5
137
102
{ACAD_REACTORS
330
B6
102
}
330
B6
100
AcDbScale
 70
     0
300
1/16" = 1'-0"
140
0.0625
141
12.0
290
     0
  0
SCALE
  5
138
102
{ACAD_REACTORS
330
B6
102
}
330
B6
100
AcDbScale
 70
     0
300
3/32" = 1'-0"
140
0.09375
141
12.0
290
     0
  0
SCALE
  5
139
102
{ACAD_REACTORS
330
B6
102
}
330
B6
100
AcDbScale
 70
     0
300
1/8" = 1'-0"
140
0.125
141
12.0
290
     0
  0
SCALE
  5
13A
102
{ACAD_REACTORS
330
B6
102
}
330
B6
100
AcDbScale
 70
     0
300
3/16" = 1'-0"
140
0.1875
141
12.0
290
     0
  0
SCALE
  5
13B
102
{ACAD_REACTORS
330
B6
102
}
330
B6
100
AcDbScale
 70
     0
300
1/4" = 1'-0"
140
0.25
141
12.0
290
     0
  0
SCALE
  5
13C
102
{ACAD_REACTORS
330
B6
102
}
330
B6
100
AcDbScale
 70
     0
300
3/8" = 1'-0"
140
0.375
141
12.0
290
     0
  0
SCALE
  5
13D
102
{ACAD_REACTORS
330
B6
102
}
330
B6
100
AcDbScale
 70
     0
300
1/2" = 1'-0"
140
0.5
141
12.0
290
     0
  0
SCALE
  5
13E
102
{ACAD_REACTORS
330
B6
102
}
330
B6
100
AcDbScale
 70
     0
300
3/4" = 1'-0"
140
0.75
141
12.0
290
     0
  0
SCALE
  5
13F
102
{ACAD_REACTORS
330
B6
102
}
330
B6
100
AcDbScale
 70
     0
300
1" = 1'-0"
140
1.0
141
12.0
290
     0
  0
SCALE
  5
140
102
{ACAD_REACTORS
330
B6
102
}
330
B6
100
AcDbScale
 70
     0
300
1-1/2" = 1'-0"
140
1.5
141
12.0
290
     0
  0
SCALE
  5
141
102
{ACAD_REACTORS
330
B6
102
}
330
B6
100
AcDbScale
 70
     0
300
3" = 1'-0"
140
3.0
141
12.0
290
     0
  0
SCALE
  5
142
102
{ACAD_REACTORS
330
B6
102
}
330
B6
100
AcDbScale
 70
     0
300
6" = 1'-0"
140
6.0
141
12.0
290
     0
  0
SCALE
  5
143
102
{ACAD_REACTORS
330
B6
102
}
330
B6
100
AcDbScale
 70
     0
300
1'-0" = 1'-0"
140
12.0
141
12.0
290
     0
  0
ACDBSECTIONVIEWSTYLE
  5
1AA
102
{ACAD_XDICTIONARY
360
1C4
102
}
102
{ACAD_REACTORS
330
1A8
102
}
330
1A8
100
AcDbModelDocViewStyle
 70
     0
  3
Imperial24
290
     0
100
AcDbSectionViewStyle
 70
     0
 71
     0
 90
       78
 71
     1
340
11
 62
   256
 40
0.24
340
0
340
0
 62
   256
 40
0.24
300
I, O, Q, S, X, Z
 40
0.48
 90
        3
 40
0.18
 90
        1
 71
     2
340
16
 90
       25
 62
   256
340
16
 90
       50
 62
   256
 40
0.24
 40
0.0
 40
0.24
 71
     3
340
11
 62
   256
 40
0.24
 90
        1
 40
0.75
 90
        1
300
%<\AcVar ViewType \f "%tc1">% %<\AcVar ViewSectionStartId>%-%<\AcVar ViewSectionEndId>%\PSCALE %<\AcVar ViewScale \f "%sn">%
 71
     4
 62
   256
 62
   257
300
ANSI31
 40
1.0
 90
        0
290
     0
290
     0
 90
        6
 40
0.0
 40
1.570796326794896
 40
0.2617993877991494
 40
1.308996938995747
 40
-0.2617993877991494
 40
1.832595714594046
  0
TABLESTYLE
  5
87
102
{ACAD_XDICTIONARY
360
104
102
}
102
{ACAD_REACTORS
330
86
102
}
330
86
100
AcDbTableStyle
  3
Standard
 70
     0
 71
     0
 40
0.06
 41
0.06
280
     0
281
     0
  7
Standard
140
0.18
170
     2
 62
     0
 63
     7
283
     0
274
    -2
284
     1
 64
     0
275
    -2
285
     1
 65
     0
276
    -2
286
     1
 66
     0
277
    -2
287
     1
 67
     0
278
    -2
288
     1
 68
     0
279
    -2
289
     1
 69
     0
  7
Standard
140
0.25
170
     5
 62
     0
 63
     7
283
     0
274
    -2
284
     1
 64
     0
275
    -2
285
     1
 65
     0
276
    -2
286
     1
 66
     0
277
    -2
287
     1
 67
     0
278
    -2
288
     1
 68
     0
279
    -2
289
     1
 69
     0
  7
Standard
140
0.18
170
     5
 62
     0
 63
     7
283
     0
274
    -2
284
     1
 64
     0
275
    -2
285
     1
 65
     0
276
    -2
286
     1
 66
     0
277
    -2
287
     1
 67
     0
278
    -2
288
     1
 68
     0
279
    -2
289
     1
 69
     0
  0
VISUALSTYLE
  5
9F
102
{ACAD_XDICTIONARY
360
48C
102
}
102
{ACAD_REACTORS
330
99
102
}
330
99
100
AcDbVisualStyle
  2
2dWireframe
 70
     4
 71
     0
 72
     2
 73
     1
 90
        0
 40
-0.6
 41
-30.0
 62
     5
 63
     7
421
 16777215
 74
     1
 91
        4
 64
     7
 65
   257
 75
     1
175
     1
 42
1.0
 92
        0
 66
   257
 43
1.0
 76
     1
 77
     6
 78
     2
 67
     7
 79
     5
170
     0
171
     0
290
     0
174
     0
 93
        1
 44
0.0
173
     0
291
     0
 45
0.0
1001
ACAD
1000
AcDbSavedByObjectVersion
1070
     0
  0
VISUALSTYLE
  5
9E
102
{ACAD_XDICTIONARY
360
48A
102
}
102
{ACAD_REACTORS
330
99
102
}
330
99
100
AcDbVisualStyle
  2
Basic
 70
     7
 71
     1
 72
     0
 73
     1
 90
        0
 40
-0.6
 41
-30.0
 62
     5
 63
     7
421
 16777215
 74
     0
 91
        4
 64
     7
 65
   257
 75
     1
175
     1
 42
1.0
 92
        8
 66
     7
 43
1.0
 76
     1
 77
     6
 78
     2
 67
     7
 79
     5
170
     0
171
     0
290
     0
174
     0
 93
        1
 44
0.0
173
     0
291
     1
 45
0.0
1001
ACAD
1000
AcDbSavedByObjectVersion
1070
     0
  0
VISUALSTYLE
  5
A5
102
{ACAD_XDICTIONARY
360
498
102
}
102
{ACAD_REACTORS
330
99
102
}
330
99
100
AcDbVisualStyle
  2
Brighten
 70
    12
 71
     2
 72
     2
 73
     1
 90
        0
 40
-0.6
 41
-30.0
 62
     5
 63
     7
421
 16777215
 74
     1
 91
        4
 64
     7
 65
   257
 75
     1
175
     1
 42
1.0
 92
        8
 66
     7
 43
1.0
 76
     1
 77
     6
 78
     2
 67
     7
 79
     5
170
     0
171
     0
290
     0
174
     0
 93
        1
 44
50.0
173
     0
291
     1
 45
0.0
1001
ACAD
1000
AcDbSavedByObjectVersion
1070
     0
  0
VISUALSTYLE
  5
A9
102
{ACAD_XDICTIONARY
360
4A0
102
}
102
{ACAD_REACTORS
330
99
102
}
330
99
100
AcDbVisualStyle
  2
ColorChange
 70
    16
 71
     2
 72
     2
 73
     3
 90
        0
 40
-0.6
 41
-30.0
 62
     5
 63
     8
421
  8421504
 74
     1
 91
        4
 64
     7
 65
   257
 75
     1
175
     1
 42
1.0
 92
        8
 66
     8
424
  8421504
 43
1.0
 76
     1
 77
     6
 78
     2
 67
     7
 79
     5
170
     0
171
     0
290
     0
174
     0
 93
        1
 44
0.0
173
     0
291
     1
 45
0.0
1001
ACAD
1000
AcDbSavedByObjectVersion
1070
     0
  0
VISUALSTYLE
  5
A2
102
{ACAD_XDICTIONARY
360
492
102
}
102
{ACAD_REACTORS
330
99
102
}
330
99
100
AcDbVisualStyle
  2
Conceptual
 70
     9
 71
     3
 72
     2
 73
     1
 90
        0
 40
-0.6
 41
-30.0
 62
     5
 63
     7
421
 16777215
 74
     2
 91
        2
 64
     7
 65
   257
 75
     1
175
     1
 42
40.0
 92
        8
 66
     7
 43
1.0
 76
     1
 77
     6
 78
     2
 67
     7
 79
     3
170
     0
171
     0
290
     0
174
     0
 93
        1
 44
0.0
173
     0
291
     0
 45
0.0
1001
ACAD
1000
AcDbSavedByObjectVersion
1070
     0
  0
VISUALSTYLE
  5
A4
102
{ACAD_XDICTIONARY
360
496
102
}
102
{ACAD_REACTORS
330
99
102
}
330
99
100
AcDbVisualStyle
  2
Dim
 70
    11
 71
     2
 72
     2
 73
     1
 90
        0
 40
-0.6
 41
-30.0
 62
     5
 63
     7
421
 16777215
 74
     1
 91
        4
 64
     7
 65
   257
 75
     1
175
     1
 42
1.0
 92
        8
 66
     7
 43
1.0
 76
     1
 77
     6
 78
     2
 67
     7
 79
     5
170
     0
171
     0
290
     0
174
     0
 93
        1
 44
-50.0
173
     0
291
     1
 45
0.0
1001
ACAD
1000
AcDbSavedByObjectVersion
1070
     0
  0
VISUALSTYLE
  5
175
102
{ACAD_XDICTIONARY
360
4A6
102
}
102
{ACAD_REACTORS
330
99
102
}
330
99
100
AcDbVisualStyle
  2
EdgeColorOff
 70
    22
 71
     2
 72
     2
 73
     0
 90
        0
 40
-0.6
 41
-30.0
 62
     5
 63
     7
421
 16777215
 74
     1
 91
        4
 64
     7
 65
   257
 75
     1
175
     1
 42
1.0
 92
        8
 66
     7
 43
1.0
 76
     1
 77
     6
 78
     2
 67
     7
 79
     5
170
     0
171
     0
290
     0
174
     0
 93
        1
 44
0.0
173
     0
291
     1
 45
0.0
1001
ACAD
1000
AcDbSavedByObjectVersion
1070
     0
  0
VISUALSTYLE
  5
A8
102
{ACAD_XDICTIONARY
360
49E
102
}
102
{ACAD_REACTORS
330
99
102
}
330
99
100
AcDbVisualStyle
  2
Facepattern
 70
    15
 71
     2
 72
     2
 73
     1
 90
        0
 40
-0.6
 41
-30.0
 62
     5
 63
     7
421
 16777215
 74
     1
 91
        4
 64
     7
 65
   257
 75
     1
175
     1
 42
1.0
 92
        8
 66
     7
 43
1.0
 76
     1
 77
     6
 78
     2
 67
     7
 79
     5
170
     0
171
     0
290
     0
174
     0
 93
        1
 44
0.0
173
     0
291
     1
 45
0.0
1001
ACAD
1000
AcDbSavedByObjectVersion
1070
     0
  0
VISUALSTYLE
  5
9A
102
{ACAD_XDICTIONARY
360
482
102
}
102
{ACAD_REACTORS
330
99
102
}
330
99
100
AcDbVisualStyle
  2
Flat
 70
     0
 71
     2
 72
     1
 73
     1
 90
        2
 40
-0.6
 41
30.0
 62
     5
 63
     7
421
 16777215
 74
     0
 91
        0
 64
     7
 65
   257
 75
     1
175
     1
 42
1.0
 92
        8
 66
     7
 43
1.0
 76
     1
 77
     6
 78
     2
 67
     7
 79
     5
170
     0
171
     0
290
     0
174
     0
 93
       13
 44
0.0
173
     0
291
     1
 45
0.0
1001
ACAD
1000
AcDbSavedByObjectVersion
1070
     0
  0
VISUALSTYLE
  5
9B
102
{ACAD_XDICTIONARY
360
484
102
}
102
{ACAD_REACTORS
330
99
102
}
330
99
100
AcDbVisualStyle
  2
FlatWithEdges
 70
     1
 71
     2
 72
     1
 73
     1
 90
        2
 40
-0.6
 41
30.0
 62
     5
 63
     7
421
 16777215
 74
     1
 91
        0
 64
     7
 65
   257
 75
     1
175
     1
 42
1.0
 92
        0
 66
   257
 43
1.0
 76
     1
 77
     6
 78
     2
 67
     7
 79
     5
170
     0
171
     0
290
     0
174
     0
 93
       13
 44
0.0
173
     0
291
     1
 45
0.0
1001
ACAD
1000
AcDbSavedByObjectVersion
1070
     0
  0
VISUALSTYLE
  5
9C
102
{ACAD_XDICTIONARY
360
486
102
}
102
{ACAD_REACTORS
330
99
102
}
330
99
100
AcDbVisualStyle
  2
Gouraud
 70
     2
 71
     2
 72
     2
 73
     1
 90
        2
 40
-0.6
 41
30.0
 62
     5
 63
     7
421
 16777215
 74
     0
 91
        0
 64
     7
 65
   257
 75
     1
175
     1
 42
1.0
 92
        0
 66
     7
 43
1.0
 76
     1
 77
     6
 78
     2
 67
     7
 79
     5
170
     0
171
     0
290
     0
174
     0
 93
       13
 44
0.0
173
     0
291
     1
 45
0.0
1001
ACAD
1000
AcDbSavedByObjectVersion
1070
     0
  0
VISUALSTYLE
  5
9D
102
{ACAD_XDICTIONARY
360
488
102
}
102
{ACAD_REACTORS
330
99
102
}
330
99
100
AcDbVisualStyle
  2
GouraudWithEdges
 70
     3
 71
     2
 72
     2
 73
     1
 90
        2
 40
-0.6
 41
30.0
 62
     5
 63
     7
421
 16777215
 74
     1
 91
        0
 64
     7
 65
   257
 75
     1
175
     1
 42
1.0
 92
        0
 66
   257
 43
1.0
 76
     1
 77
     6
 78
     2
 67
     7
 79
     5
170
     0
171
     0
290
     0
174
     0
 93
       13
 44
0.0
173
     0
291
     1
 45
0.0
1001
ACAD
1000
AcDbSavedByObjectVersion
1070
     0
  0
VISUALSTYLE
  5
A1
102
{ACAD_XDICTIONARY
360
490
102
}
102
{ACAD_REACTORS
330
99
102
}
330
99
100
AcDbVisualStyle
  2
Hidden
 70
     6
 71
     1
 72
     2
 73
     2
 90
        0
 40
-0.6
 41
-30.0
 62
     5
 63
     7
421
 16777215
 74
     2
 91
        2
 64
     7
 65
   257
 75
     2
175
     1
 42
40.0
 92
        0
 66
   257
 43
1.0
 76
     1
 77
     6
 78
     2
 67
     7
 79
     3
170
     0
171
     0
290
     0
174
     0
 93
        1
 44
0.0
173
     0
291
     0
 45
0.0
1001
ACAD
1000
AcDbSavedByObjectVersion
1070
     0
  0
VISUALSTYLE
  5
173
102
{ACAD_XDICTIONARY
360
4A2
102
}
102
{ACAD_REACTORS
330
99
102
}
330
99
100
AcDbVisualStyle
  2
JitterOff
 70
    20
 71
     2
 72
     2
 73
     0
 90
        0
 40
-0.6
 41
-30.0
 62
     5
 63
     7
421
 16777215
 74
     1
 91
        4
 64
     7
 65
   257
 75
     1
175
     1
 42
1.0
 92
       10
 66
     7
 43
1.0
 76
     1
 77
     6
 78
     2
 67
     7
 79
     5
170
     0
171
     0
290
     0
174
     0
 93
        1
 44
0.0
173
     0
291
     1
 45
0.0
1001
ACAD
1000
AcDbSavedByObjectVersion
1070
     0
  0
VISUALSTYLE
  5
A7
102
{ACAD_XDICTIONARY
360
49C
102
}
102
{ACAD_REACTORS
330
99
102
}
330
99
100
AcDbVisualStyle
  2
Linepattern
 70
    14
 71
     2
 72
     2
 73
     1
 90
        0
 40
-0.6
 41
-30.0
 62
     5
 63
     7
421
 16777215
 74
     1
 91
        4
 64
     7
 65
   257
 75
     7
175
     7
 42
1.0
 92
        8
 66
     7
 43
1.0
 76
     1
 77
     6
 78
     2
 67
     7
 79
     5
170
     0
171
     0
290
     0
174
     0
 93
        1
 44
0.0
173
     0
291
     1
 45
0.0
1001
ACAD
1000
AcDbSavedByObjectVersion
1070
     0
  0
VISUALSTYLE
  5
174
102
{ACAD_XDICTIONARY
360
4A4
102
}
102
{ACAD_REACTORS
330
99
102
}
330
99
100
AcDbVisualStyle
  2
OverhangOff
 70
    21
 71
     2
 72
     2
 73
     0
 90
        0
 40
-0.6
 41
-30.0
 62
     5
 63
     7
421
 16777215
 74
     1
 91
        4
 64
     7
 65
   257
 75
     1
175
     1
 42
1.0
 92
        9
 66
     7
 43
1.0
 76
     1
 77
     6
 78
     2
 67
     7
 79
     5
170
     0
171
     0
290
     0
174
     0
 93
        1
 44
0.0
173
     0
291
     1
 45
0.0
1001
ACAD
1000
AcDbSavedByObjectVersion
1070
     0
  0
VISUALSTYLE
  5
A3
102
{ACAD_XDICTIONARY
360
494
102
}
102
{ACAD_REACTORS
330
99
102
}
330
99
100
AcDbVisualStyle
  2
Realistic
 70
     8
 71
     2
 72
     3
 73
     0
 90
        2
 40
-0.6
 41
30.0
 62
     5
 63
     7
421
 16777215
 74
     0
 91
        0
 64
     7
 65
   257
 75
     1
175
     1
 42
1.0
 92
        8
 66
   257
 43
1.0
 76
     1
 77
     6
 78
     2
 67
     7
 79
     3
170
     0
171
     0
290
     0
174
     0
 93
       13
 44
0.0
173
     0
291
     0
 45
0.0
1001
ACAD
1000
AcDbSavedByObjectVersion
1070
     0
  0
VISUALSTYLE
  5
182
102
{ACAD_XDICTIONARY
360
4B0
102
}
102
{ACAD_REACTORS
330
99
102
}
330
99
100
AcDbVisualStyle
  2
Shaded
 70
    27
 71
     2
 72
     2
 73
     1
 90
        2
 40
-0.6
 41
30.0
 62
     5
 63
     7
421
 16777215
 74
     0
 91
        4
 64
     7
 65
   257
 75
     1
175
     1
 42
1.0
 92
        8
 66
   257
 43
1.0
 76
     1
 77
     6
 78
     2
 67
     8
425
  7895160
 79
     3
170
     0
171
     0
290
     0
174
     0
 93
        5
 44
0.0
173
     0
291
     0
 45
0.0
1001
ACAD
1000
AcDbSavedByObjectVersion
1070
     0
  0
VISUALSTYLE
  5
181
102
{ACAD_XDICTIONARY
360
4AE
102
}
102
{ACAD_REACTORS
330
99
102
}
330
99
100
AcDbVisualStyle
  2
Shaded with edges
 70
    26
 71
     2
 72
     2
 73
     1
 90
        2
 40
-0.6
 41
30.0
 62
     5
 63
     7
421
 16777215
 74
     1
 91
       10
 64
     7
 65
   257
 75
     2
175
     1
 42
1.0
 92
        8
 66
   257
 43
1.0
 76
     1
 77
     6
 78
     2
 67
     7
 79
     3
170
     0
171
     0
290
     0
174
     0
 93
        5
 44
0.0
173
     0
291
     0
 45
0.0
1001
ACAD
1000
AcDbSavedByObjectVersion
1070
     0
  0
VISUALSTYLE
  5
17E
102
{ACAD_XDICTIONARY
360
4A8
102
}
102
{ACAD_REACTORS
330
99
102
}
330
99
100
AcDbVisualStyle
  2
Shades of Gray
 70
    23
 71
     2
 72
     2
 73
     3
 90
        0
 40
-0.6
 41
-30.0
 62
     5
 63
     7
421
 16777215
 74
     2
 91
        2
 64
     7
 65
     7
 75
     1
175
     1
 42
40.0
 92
        8
 66
     7
 43
1.0
 76
     1
 77
     6
 78
     2
 67
     7
 79
     3
170
     0
171
     0
290
     0
174
     0
 93
        1
 44
0.0
173
     0
291
     0
 45
0.0
1001
ACAD
1000
AcDbSavedByObjectVersion
1070
     0
  0
VISUALSTYLE
  5
17F
102
{ACAD_XDICTIONARY
360
4AA
102
}
102
{ACAD_REACTORS
330
99
102
}
330
99
100
AcDbVisualStyle
  2
Sketchy
 70
    24
 71
     1
 72
     2
 73
     2
 90
        0
 40
-0.6
 41
-30.0
 62
     5
 63
     7
421
 16777215
 74
     2
 91
        2
 64
     7
 65
     7
 75
     1
175
     1
 42
40.0
 92
       11
 66
     7
 43
1.0
 76
     1
 77
     6
 78
     2
 67
     7
 79
     6
170
     0
171
     0
290
     0
174
     0
 93
        1
 44
0.0
173
     0
291
     0
 45
0.0
1001
ACAD
1000
AcDbSavedByObjectVersion
1070
     0
  0
VISUALSTYLE
  5
A6
102
{ACAD_XDICTIONARY
360
49A
102
}
102
{ACAD_REACTORS
330
99
102
}
330
99
100
AcDbVisualStyle
  2
Thicken
 70
    13
 71
     2
 72
     2
 73
     1
 90
        0
 40
-0.6
 41
-30.0
 62
     5
 63
     7
421
 16777215
 74
     1
 91
        4
 64
     7
 65
   257
 75
     1
175
     1
 42
1.0
 92
       12
 66
     7
 43
1.0
 76
     1
 77
     6
 78
     2
 67
     7
 79
     5
170
     0
171
     0
290
     0
174
     0
 93
        1
 44
0.0
173
     0
291
     1
 45
0.0
1001
ACAD
1000
AcDbSavedByObjectVersion
1070
     0
  0
VISUALSTYLE
  5
A0
102
{ACAD_XDICTIONARY
360
48E
102
}
102
{ACAD_REACTORS
330
99
102
}
330
99
100
AcDbVisualStyle
  2
Wireframe
 70
     5
 71
     0
 72
     2
 73
     0
 90
        0
 40
-0.6
 41
-30.0
 62
     5
 63
     7
421
 16777215
 74
     1
 91
        4
 64
     7
 65
   257
 75
     1
175
     1
 42
1.0
 92
        0
 66
   257
 43
1.0
 76
     1
 77
     6
 78
     2
 67
     7
 79
     3
170
     0
171
     0
290
     0
174
     0
 93
        1
 44
0.0
173
     0
291
     0
 45
0.0
1001
ACAD
1000
AcDbSavedByObjectVersion
1070
     0
  0
VISUALSTYLE
  5
180
102
{ACAD_XDICTIONARY
360
4AC
102
}
102
{ACAD_REACTORS
330
99
102
}
330
99
100
AcDbVisualStyle
  2
X-Ray
 70
    25
 71
     2
 72
     2
 73
     1
 90
        1
 40
0.5
 41
-30.0
 62
     5
 63
     7
421
 16777215
 74
     1
 91
        0
 64
     7
 65
   257
 75
     1
175
     1
 42
1.0
 92
        8
 66
     7
 43
1.0
 76
     1
 77
     6
 78
     2
 67
     7
 79
     3
170
     0
171
     0
290
     0
174
     0
 93
       13
 44
0.0
173
     0
291
     0
 45
0.0
1001
ACAD
1000
AcDbSavedByObjectVersion
1070
     0
  0
DICTIONARYVAR
  5
F0
102
{ACAD_REACTORS
330
66
102
}
330
66
100
DictionaryVariables
280
     0
  1
1:1
  0
DICTIONARYVAR
  5
EF
102
{ACAD_REACTORS
330
66
102
}
330
66
100
DictionaryVariables
280
     0
  1
STANDARD
  0
DICTIONARYVAR
  5
89
102
{ACAD_REACTORS
330
66
102
}
330
66
100
DictionaryVariables
280
     0
  1
STANDARD
  0
DICTIONARYVAR
  5
1B7
102
{ACAD_REACTORS
330
66
102
}
330
66
100
DictionaryVariables
280
     0
  1
Imperial24
  0
DICTIONARYVAR
  5
1B8
102
{ACAD_REACTORS
330
66
102
}
330
66
100
DictionaryVariables
280
     0
  1
Imperial24
  0
DICTIONARYVAR
  5
67
102
{ACAD_REACTORS
330
66
102
}
330
66
100
DictionaryVariables
280
     0
  1
2
  0
DICTIONARYVAR
  5
6B
102
{ACAD_REACTORS
330
66
102
}
330
66
100
DictionaryVariables
280
     0
  1
1
  0
DICTIONARYVAR
  5
14D
102
{ACAD_REACTORS
330
66
102
}
330
66
100
DictionaryVariables
280
     0
  1
0
  0
DICTIONARYVAR
  5
14E
102
{ACAD_REACTORS
330
66
102
}
330
66
100
DictionaryVariables
280
     0
  1
0
  0
DICTIONARYVAR
  5
472
102
{ACAD_REACTORS
330
66
102
}
330
66
100
DictionaryVariables
280
     0
  1
2
  0
DICTIONARYVAR
  5
471
102
{ACAD_REACTORS
330
66
102
}
330
66
100
DictionaryVariables
280
     0
  1
1
  0
DICTIONARYVAR
  5
473
102
{ACAD_REACTORS
330
66
102
}
330
66
100
DictionaryVariables
280
     0
  1
2
  0
DICTIONARY
  5
47D
102
{ACAD_REACTORS
330
47B
102
}
330
47B
100
AcDbDictionary
281
     1
  0
DICTIONARY
  5
47C
102
{ACAD_REACTORS
330
47B
102
}
330
47B
100
AcDbDictionary
281
     1
  3
8796087986912
350
476
  3
8796087986928
350
477
  3
8796087986944
350
478
  3
8796087986960
350
479
  3
8796087986976
350
47A
  0
BLOCKVISIBILITYPARAMETER
  5
1D2
330
1D1
100
AcDbEvalExpr
 90
        1
 98
       31
 99
       55
100
AcDbBlockElement
300
Visibility State
 98
       25
 99
      104
1071
        0
100
AcDbBlockParameter
280
     1
281
     0
100
AcDbBlock1PtParameter
1010
0.0
1020
0.0
1030
0.0
 93
        2
170
     0
171
     0
100
AcDbBlockVisibilityParameter
281
     1
301
Visibility
302

 91
        0
 93
      110
331
1D9
331
1DA
331
1DB
331
1DC
331
1DD
331
1DE
331
1DF
331
1E0
331
1E1
331
1E2
331
1E3
331
1E4
331
1E5
331
1E6
331
1E7
331
1E8
331
1E9
331
1EA
331
1EB
331
1EC
331
1ED
331
1EE
331
1EF
331
1F0
331
1F1
331
1F2
331
1F3
331
1F4
331
1F5
331
1F6
331
1F7
331
1F8
331
1F9
331
1FA
331
1FB
331
1FC
331
1FD
331
1FE
331
1FF
331
200
331
201
331
202
331
203
331
204
331
205
331
206
331
207
331
208
331
209
331
20A
331
20B
331
20C
331
20D
331
20E
331
20F
331
210
331
211
331
212
331
213
331
214
331
215
331
216
331
217
331
218
331
219
331
21A
331
21B
331
21C
331
21D
331
21E
331
21F
331
220
331
221
331
222
331
223
331
224
331
225
331
226
331
227
331
228
331
229
331
22A
331
22B
331
22C
331
22D
331
22E
331
22F
331
230
331
231
331
232
331
233
331
234
331
235
331
236
331
237
331
238
331
239
331
23A
331
23B
331
23C
331
23D
331
23E
331
23F
331
240
331
241
331
243
331
244
331
245
331
242
331
246
 92
        5
303
CA7-09
 94
      106
332
1D9
332
1DA
332
1DB
332
1DC
332
1DD
332
1DE
332
1DF
332
1E0
332
1E1
332
1E2
332
1E3
332
1E4
332
1E5
332
1E6
332
1E7
332
1E8
332
1E9
332
1EA
332
1EB
332
1EC
332
1ED
332
1EE
332
1EF
332
1F0
332
1F1
332
1F2
332
1F3
332
1F4
332
1F5
332
1F6
332
1F7
332
1F8
332
1F9
332
1FA
332
1FB
332
1FC
332
1FD
332
1FE
332
1FF
332
200
332
201
332
202
332
203
332
204
332
205
332
206
332
207
332
208
332
209
332
20A
332
20B
332
20C
332
20D
332
20E
332
20F
332
210
332
211
332
212
332
213
332
214
332
215
332
216
332
217
332
218
332
219
332
21A
332
21B
332
21C
332
21D
332
21E
332
21F
332
220
332
221
332
222
332
223
332
224
332
225
332
226
332
227
332
228
332
229
332
22A
332
22B
332
22C
332
22D
332
22E
332
22F
332
230
332
231
332
232
332
233
332
234
332
235
332
236
332
237
332
238
332
239
332
23A
332
23B
332
23C
332
23D
332
23E
332
23F
332
240
332
241
332
245
 95
        0
303
CA7-12
 94
      106
332
1D9
332
1DA
332
1DB
332
1DC
332
1DD
332
1DE
332
1DF
332
1E0
332
1E1
332
1E2
332
1E3
332
1E4
332
1E5
332
1E6
332
1E7
332
1E8
332
1E9
332
1EA
332
1EB
332
1EC
332
1ED
332
1EE
332
1EF
332
1F0
332
1F1
332
1F2
332
1F3
332
1F4
332
1F5
332
1F6
332
1F7
332
1F8
332
1F9
332
1FA
332
1FB
332
1FC
332
1FD
332
1FE
332
1FF
332
200
332
201
332
202
332
203
332
204
332
205
332
206
332
207
332
208
332
209
332
20A
332
20B
332
20C
332
20D
332
20E
332
20F
332
210
332
211
332
212
332
213
332
214
332
215
332
216
332
217
332
218
332
219
332
21A
332
21B
332
21C
332
21D
332
21E
332
21F
332
220
332
221
332
222
332
223
332
224
332
225
332
226
332
227
332
228
332
229
332
22A
332
22B
332
22C
332
22D
332
22E
332
22F
332
230
332
231
332
232
332
233
332
234
332
235
332
236
332
237
332
238
332
239
332
23A
332
23B
332
23C
332
23D
332
23E
332
23F
332
240
332
241
332
244
 95
        0
303
CA7-16
 94
      106
332
1D9
332
1DA
332
1DB
332
1DC
332
1DD
332
1DE
332
1DF
332
1E0
332
1E1
332
1E2
332
1E3
332
1E4
332
1E5
332
1E6
332
1E7
332
1E8
332
1E9
332
1EA
332
1EB
332
1EC
332
1ED
332
1EE
332
1EF
332
1F0
332
1F1
332
1F2
332
1F3
332
1F4
332
1F5
332
1F6
332
1F7
332
1F8
332
1F9
332
1FA
332
1FB
332
1FC
332
1FD
332
1FE
332
1FF
332
200
332
201
332
202
332
203
332
204
332
205
332
206
332
207
332
208
332
209
332
20A
332
20B
332
20C
332
20D
332
20E
332
20F
332
210
332
211
332
212
332
213
332
214
332
215
332
216
332
217
332
218
332
219
332
21A
332
21B
332
21C
332
21D
332
21E
332
21F
332
220
332
221
332
222
332
223
332
224
332
225
332
226
332
227
332
228
332
229
332
22A
332
22B
332
22C
332
22D
332
22E
332
22F
332
230
332
231
332
232
332
233
332
234
332
235
332
236
332
237
332
238
332
239
332
23A
332
23B
332
23C
332
23D
332
23E
332
23F
332
240
332
241
332
243
 95
        0
303
CA7-23
 94
      106
332
1D9
332
1DA
332
1DB
332
1DC
332
1DD
332
1DE
332
1DF
332
1E0
332
1E1
332
1E2
332
1E3
332
1E4
332
1E5
332
1E6
332
1E7
332
1E8
332
1E9
332
1EA
332
1EB
332
1EC
332
1ED
332
1EE
332
1EF
332
1F0
332
1F1
332
1F2
332
1F3
332
1F4
332
1F5
332
1F6
332
1F7
332
1F8
332
1F9
332
1FA
332
1FB
332
1FC
332
1FD
332
1FE
332
1FF
332
200
332
201
332
202
332
203
332
204
332
205
332
206
332
207
332
208
332
209
332
20A
332
20B
332
20C
332
20D
332
20E
332
20F
332
210
332
211
332
212
332
213
332
214
332
215
332
216
332
217
332
218
332
219
332
21A
332
21B
332
21C
332
21D
332
21E
332
21F
332
220
332
221
332
222
332
223
332
224
332
225
332
226
332
227
332
228
332
229
332
22A
332
22B
332
22C
332
22D
332
22E
332
22F
332
230
332
231
332
232
332
233
332
234
332
235
332
236
332
237
332
238
332
239
332
23A
332
23B
332
23C
332
23D
332
23E
332
23F
332
240
332
241
332
242
 95
        0
303
CS7
 94
       89
332
1D9
332
1DA
332
1DB
332
1DC
332
1DD
332
1DE
332
1DF
332
1E0
332
1E1
332
1E2
332
1E3
332
1E4
332
1E5
332
1E6
332
1E7
332
1E8
332
1E9
332
1EA
332
1EB
332
1EC
332
1ED
332
1EE
332
1EF
332
1F0
332
1F1
332
1F2
332
1F3
332
1F4
332
1F5
332
1F6
332
1F7
332
1F8
332
1F9
332
1FA
332
1FB
332
1FC
332
1FD
332
1FE
332
1FF
332
200
332
201
332
202
332
203
332
204
332
205
332
206
332
207
332
208
332
209
332
20A
332
20B
332
20C
332
20D
332
20E
332
20F
332
210
332
211
332
212
332
213
332
214
332
215
332
216
332
217
332
218
332
219
332
21A
332
21B
332
21C
332
225
332
226
332
227
332
228
332
229
332
22A
332
22B
332
22C
332
235
332
236
332
237
332
238
332
239
332
23A
332
23B
332
23C
332
23D
332
23E
332
23F
332
240
332
246
 95
        0
  0
BLOCKVISIBILITYGRIP
  5
1D3
330
1D1
100
AcDbEvalExpr
 90
        2
 98
       31
 99
       55
100
AcDbBlockElement
300
Grip
 98
       25
 99
      104
1071
        0
100
AcDbBlockGrip
 91
        3
 92
        4
1010
0.0
1020
0.0
1030
0.0
280
     0
 93
       -1
100
AcDbBlockVisibilityGrip
  0
BLOCKGRIPLOCATIONCOMPONENT
  5
1D4
330
1D1
100
AcDbEvalExpr
 90
        3
 98
       31
 99
       55
  1

 70
    40
140
0.0
100
AcDbBlockGripExpr
 91
        1
300
UpdatedX
  0
BLOCKGRIPLOCATIONCOMPONENT
  5
1D5
330
1D1
100
AcDbEvalExpr
 90
        4
 98
       31
 99
       55
  1

 70
    40
140
0.0
100
AcDbBlockGripExpr
 91
        1
300
UpdatedY
  0
BLOCKVISIBILITYPARAMETER
  5
24B
330
24A
100
AcDbEvalExpr
 90
        1
 98
       31
 99
       55
100
AcDbBlockElement
300
Visibility State
 98
       25
 99
      104
1071
        0
100
AcDbBlockParameter
280
     1
281
     0
100
AcDbBlock1PtParameter
1010
0.0
1020
0.0
1030
0.0
 93
        2
170
     0
171
     0
100
AcDbBlockVisibilityParameter
281
     1
301
Visibility
302

 91
        0
 93
       27
331
252
331
253
331
254
331
255
331
256
331
257
331
258
331
259
331
25A
331
25B
331
25C
331
25D
331
25E
331
25F
331
260
331
261
331
262
331
263
331
264
331
265
331
266
331
267
331
268
331
269
331
26A
331
26B
331
26C
 92
        2
303
Tab
 94
       27
332
252
332
253
332
254
332
255
332
256
332
257
332
258
332
259
332
25A
332
25B
332
25C
332
25D
332
25E
332
25F
332
260
332
261
332
262
332
263
332
264
332
265
332
266
332
267
332
268
332
269
332
26A
332
26B
332
26C
 95
        0
303
No Tab
 94
       25
332
252
332
253
332
256
332
257
332
258
332
259
332
25A
332
25B
332
25C
332
25D
332
25E
332
25F
332
260
332
261
332
262
332
263
332
264
332
265
332
266
332
267
332
268
332
269
332
26A
332
26B
332
26C
 95
        0
  0
BLOCKVISIBILITYGRIP
  5
24C
330
24A
100
AcDbEvalExpr
 90
        2
 98
       31
 99
       55
100
AcDbBlockElement
300
Grip
 98
       25
 99
      104
1071
        0
100
AcDbBlockGrip
 91
        3
 92
        4
1010
0.0
1020
0.0
1030
0.0
280
     0
 93
       -1
100
AcDbBlockVisibilityGrip
  0
BLOCKGRIPLOCATIONCOMPONENT
  5
24D
330
24A
100
AcDbEvalExpr
 90
        3
 98
       31
 99
       55
  1

 70
    40
140
0.0
100
AcDbBlockGripExpr
 91
        1
300
UpdatedX
  0
BLOCKGRIPLOCATIONCOMPONENT
  5
24E
330
24A
100
AcDbEvalExpr
 90
        4
 98
       31
 99
       55
  1

 70
    40
140
0.0
100
AcDbBlockGripExpr
 91
        1
300
UpdatedY
  0
BLOCKVISIBILITYPARAMETER
  5
271
330
270
100
AcDbEvalExpr
 90
        1
 98
       31
 99
       55
100
AcDbBlockElement
300
Visibility State
 98
       25
 99
      104
1071
        0
100
AcDbBlockParameter
280
     1
281
     0
100
AcDbBlock1PtParameter
1010
0.0
1020
0.0
1030
0.0
 93
        2
170
     0
171
     0
100
AcDbBlockVisibilityParameter
281
     1
301
Visibility
302

 91
        0
 93
       93
331
278
331
279
331
27A
331
27B
331
27C
331
27D
331
27E
331
27F
331
280
331
281
331
282
331
283
331
284
331
285
331
286
331
287
331
288
331
289
331
28A
331
28B
331
28C
331
28D
331
28E
331
28F
331
290
331
291
331
292
331
293
331
294
331
295
331
296
331
297
331
298
331
299
331
29A
331
29B
331
29C
331
29D
331
29E
331
29F
331
2A0
331
2A1
331
2A2
331
2A3
331
2A4
331
2A5
331
2A6
331
2A7
331
2A8
331
2A9
331
2AA
331
2AB
331
2AC
331
2AD
331
2AE
331
2AF
331
2B0
331
2B1
331
2B2
331
2B3
331
2B4
331
2B5
331
2B6
331
2B7
331
2B8
331
2B9
331
2BA
331
2BB
331
2BC
331
2BD
331
2BE
331
2BF
331
2C0
331
2C1
331
2C2
331
2C3
331
2C4
331
2C5
331
2C6
331
2C7
331
2C8
331
2C9
331
2CA
331
2CB
331
2CC
331
2CD
331
2CE
331
2CF
331
2D0
331
2D1
331
2D2
331
2D3
331
2D4
 92
        2
303
Terminals On
 94
       93
332
278
332
279
332
27A
332
27B
332
27C
332
27D
332
27E
332
27F
332
280
332
281
332
282
332
283
332
284
332
285
332
286
332
287
332
288
332
289
332
28A
332
28B
332
28C
332
28D
332
28E
332
28F
332
290
332
291
332
292
332
293
332
294
332
295
332
296
332
297
332
298
332
299
332
29A
332
29B
332
29C
332
29D
332
29E
332
29F
332
2A0
332
2A1
332
2A2
332
2A3
332
2A4
332
2A5
332
2A6
332
2A7
332
2A8
332
2A9
332
2AA
332
2AB
332
2AC
332
2AD
332
2AE
332
2AF
332
2B0
332
2B1
332
2B2
332
2B3
332
2B4
332
2B5
332
2B6
332
2B7
332
2B8
332
2B9
332
2BA
332
2BB
332
2BC
332
2BD
332
2BE
332
2BF
332
2C0
332
2C1
332
2C2
332
2C3
332
2C4
332
2C5
332
2C6
332
2C7
332
2C8
332
2C9
332
2CA
332
2CB
332
2CC
332
2CD
332
2CE
332
2CF
332
2D0
332
2D1
332
2D2
332
2D3
332
2D4
 95
        0
303
Terminals Off
 94
       84
332
293
332
294
332
295
332
296
332
297
332
298
332
29E
332
2A2
332
2A3
332
2A4
332
2A5
332
2A6
332
2A7
332
2A8
332
2A9
332
2AA
332
2AB
332
2AC
332
2AD
332
2AE
332
2AF
332
2B0
332
2B1
332
2B2
332
2B3
332
2B4
332
2B5
332
2B6
332
2B7
332
2B8
332
2B9
332
2BA
332
2BB
332
2BC
332
2BD
332
2BE
332
2BF
332
2C0
332
2C1
332
2C2
332
2C3
332
2C4
332
2C5
332
2C6
332
2C7
332
2C8
332
2C9
332
2CA
332
2CB
332
2CC
332
2CD
332
2CE
332
2CF
332
2D0
332
2D1
332
2D2
332
2D3
332
2D4
332
29C
332
291
332
290
332
28F
332
28E
332
28D
332
28C
332
28B
332
28A
332
289
332
287
332
286
332
285
332
284
332
283
332
282
332
281
332
280
332
27F
332
27E
332
27D
332
27C
332
27B
332
29D
332
288
332
292
 95
        0
  0
BLOCKVISIBILITYGRIP
  5
272
330
270
100
AcDbEvalExpr
 90
        2
 98
       31
 99
       55
100
AcDbBlockElement
300
Grip
 98
       25
 99
      104
1071
        0
100
AcDbBlockGrip
 91
        3
 92
        4
1010
0.0
1020
0.0
1030
0.0
280
     0
 93
       -1
100
AcDbBlockVisibilityGrip
  0
BLOCKGRIPLOCATIONCOMPONENT
  5
273
330
270
100
AcDbEvalExpr
 90
        3
 98
       31
 99
       55
  1

 70
    40
140
0.0
100
AcDbBlockGripExpr
 91
        1
300
UpdatedX
  0
BLOCKGRIPLOCATIONCOMPONENT
  5
274
330
270
100
AcDbEvalExpr
 90
        4
 98
       31
 99
       55
  1

 70
    40
140
0.0
100
AcDbBlockGripExpr
 91
        1
300
UpdatedY
  0
ACDB_BLOCKREPRESENTATION_DATA
  5
33F
102
{ACAD_REACTORS
330
33E
102
}
330
33E
100
AcDbBlockRepresentationData
 70
     1
340
1CF
  0
DICTIONARY
  5
340
102
{ACAD_REACTORS
330
33E
102
}
330
33E
100
AcDbDictionary
280
     1
281
     1
  3
ACAD_ENHANCEDBLOCKDATA
360
341
  0
ACDB_BLOCKREPRESENTATION_DATA
  5
346
102
{ACAD_REACTORS
330
345
102
}
330
345
100
AcDbBlockRepresentationData
 70
     1
340
26E
  0
DICTIONARY
  5
347
102
{ACAD_REACTORS
330
345
102
}
330
345
100
AcDbDictionary
280
     1
281
     1
  3
ACAD_ENHANCEDBLOCKDATA
360
348
  0
ACDB_BLOCKREPRESENTATION_DATA
  5
3DE
102
{ACAD_REACTORS
330
3DD
102
}
330
3DD
100
AcDbBlockRepresentationData
 70
     1
340
1CF
  0
DICTIONARY
  5
3DF
102
{ACAD_REACTORS
330
3DD
102
}
330
3DD
100
AcDbDictionary
280
     1
281
     1
  3
ACAD_ENHANCEDBLOCKDATA
360
3E0
  0
DICTIONARY
  5
1C6
330
1AC
100
AcDbDictionary
280
     1
281
     1
  3
ACAD_XREC_ROUNDTRIP
360
4B3
  0
DICTIONARY
  5
194
330
22
100
AcDbDictionary
280
     1
281
     1
  0
DICTIONARY
  5
188
330
97
100
AcDbDictionary
280
     1
281
     1
  3
ACAD_XREC_ROUNDTRIP
360
480
  3
FBXASSET
360
189
  0
DICTIONARY
  5
186
330
96
100
AcDbDictionary
280
     1
281
     1
  3
ACAD_XREC_ROUNDTRIP
360
47F
  3
FBXASSET
360
187
  0
DICTIONARY
  5
110
330
98
100
AcDbDictionary
280
     1
281
     1
  3
ACAD_XREC_ROUNDTRIP
360
481
  3
BUMPTILE
360
112
  3
DIFFUSETILE
360
111
  3
FBXASSET
360
18A
  3
OPACITYTILE
360
113
  3
REFLECTIONTILE
360
114
  0
DICTIONARY
  5
1C4
330
1AA
100
AcDbDictionary
280
     1
281
     1
  3
ACAD_XREC_ROUNDTRIP
360
4B2
  0
DICTIONARY
  5
104
330
87
100
AcDbDictionary
280
     1
281
     1
  3
ACAD_ROUNDTRIP_2008_TABLESTYLE_CELLSTYLEMAP
360
474
  3
ACAD_XREC_ROUNDTRIP
360
47E
  0
DICTIONARY
  5
48C
330
9F
100
AcDbDictionary
280
     1
281
     1
  3
ACAD_XREC_ROUNDTRIP
360
48D
  0
DICTIONARY
  5
48A
330
9E
100
AcDbDictionary
280
     1
281
     1
  3
ACAD_XREC_ROUNDTRIP
360
48B
  0
DICTIONARY
  5
498
330
A5
100
AcDbDictionary
280
     1
281
     1
  3
ACAD_XREC_ROUNDTRIP
360
499
  0
DICTIONARY
  5
4A0
330
A9
100
AcDbDictionary
280
     1
281
     1
  3
ACAD_XREC_ROUNDTRIP
360
4A1
  0
DICTIONARY
  5
492
330
A2
100
AcDbDictionary
280
     1
281
     1
  3
ACAD_XREC_ROUNDTRIP
360
493
  0
DICTIONARY
  5
496
330
A4
100
AcDbDictionary
280
     1
281
     1
  3
ACAD_XREC_ROUNDTRIP
360
497
  0
DICTIONARY
  5
4A6
330
175
100
AcDbDictionary
280
     1
281
     1
  3
ACAD_XREC_ROUNDTRIP
360
4A7
  0
DICTIONARY
  5
49E
330
A8
100
AcDbDictionary
280
     1
281
     1
  3
ACAD_XREC_ROUNDTRIP
360
49F
  0
DICTIONARY
  5
482
330
9A
100
AcDbDictionary
280
     1
281
     1
  3
ACAD_XREC_ROUNDTRIP
360
483
  0
DICTIONARY
  5
484
330
9B
100
AcDbDictionary
280
     1
281
     1
  3
ACAD_XREC_ROUNDTRIP
360
485
  0
DICTIONARY
  5
486
330
9C
100
AcDbDictionary
280
     1
281
     1
  3
ACAD_XREC_ROUNDTRIP
360
487
  0
DICTIONARY
  5
488
330
9D
100
AcDbDictionary
280
     1
281
     1
  3
ACAD_XREC_ROUNDTRIP
360
489
  0
DICTIONARY
  5
490
330
A1
100
AcDbDictionary
280
     1
281
     1
  3
ACAD_XREC_ROUNDTRIP
360
491
  0
DICTIONARY
  5
4A2
330
173
100
AcDbDictionary
280
     1
281
     1
  3
ACAD_XREC_ROUNDTRIP
360
4A3
  0
DICTIONARY
  5
49C
330
A7
100
AcDbDictionary
280
     1
281
     1
  3
ACAD_XREC_ROUNDTRIP
360
49D
  0
DICTIONARY
  5
4A4
330
174
100
AcDbDictionary
280
     1
281
     1
  3
ACAD_XREC_ROUNDTRIP
360
4A5
  0
DICTIONARY
  5
494
330
A3
100
AcDbDictionary
280
     1
281
     1
  3
ACAD_XREC_ROUNDTRIP
360
495
  0
DICTIONARY
  5
4B0
330
182
100
AcDbDictionary
280
     1
281
     1
  3
ACAD_XREC_ROUNDTRIP
360
4B1
  0
DICTIONARY
  5
4AE
330
181
100
AcDbDictionary
280
     1
281
     1
  3
ACAD_XREC_ROUNDTRIP
360
4AF
  0
DICTIONARY
  5
4A8
330
17E
100
AcDbDictionary
280
     1
281
     1
  3
ACAD_XREC_ROUNDTRIP
360
4A9
  0
DICTIONARY
  5
4AA
330
17F
100
AcDbDictionary
280
     1
281
     1
  3
ACAD_XREC_ROUNDTRIP
360
4AB
  0
DICTIONARY
  5
49A
330
A6
100
AcDbDictionary
280
     1
281
     1
  3
ACAD_XREC_ROUNDTRIP
360
49B
  0
DICTIONARY
  5
48E
330
A0
100
AcDbDictionary
280
     1
281
     1
  3
ACAD_XREC_ROUNDTRIP
360
48F
  0
DICTIONARY
  5
4AC
330
180
100
AcDbDictionary
280
     1
281
     1
  3
ACAD_XREC_ROUNDTRIP
360
4AD
  0
XRECORD
  5
476
102
{ACAD_REACTORS
330
47C
102
}
330
47C
100
AcDbXrecord
280
     1
  1
AcDb_Thumbnail_Schema
102
{ATTRRECORD
341
477
  2
AcDbDs::TreatedAsObjectData
280
     1
291
     1
102
ATTRRECORD}
102
{ATTRRECORD
341
478
  2
AcDbDs::Legacy
280
     1
291
     1
102
ATTRRECORD}
  2
AcDbDs::ID
280
    10
 91
        8
102
{ATTRRECORD
341
479
  2
AcDs:Indexable
280
     1
291
     1
102
ATTRRECORD}
102
{ATTRRECORD
341
47A
  2
AcDbDs::HandleAttribute
280
     7
282
     1
102
ATTRRECORD}
  2
Thumbnail_Data
280
    15
 91
        0
  0
XRECORD
  5
477
102
{ACAD_REACTORS
330
47C
102
}
330
47C
100
AcDbXrecord
280
     1
  1
AcDbDs::TreatedAsObjectDataSchema
  2
AcDbDs::TreatedAsObjectData
280
     1
 91
        0
  0
XRECORD
  5
478
102
{ACAD_REACTORS
330
47C
102
}
330
47C
100
AcDbXrecord
280
     1
  1
AcDbDs::LegacySchema
  2
AcDbDs::Legacy
280
     1
 91
        0
  0
XRECORD
  5
479
102
{ACAD_REACTORS
330
47C
102
}
330
47C
100
AcDbXrecord
280
     1
  1
AcDbDs::IndexedPropertySchema
  2
AcDs:Indexable
280
     1
 91
        0
  0
XRECORD
  5
47A
102
{ACAD_REACTORS
330
47C
102
}
330
47C
100
AcDbXrecord
280
     1
  1
AcDbDs::HandleAttributeSchema
  2
AcDbDs::HandleAttribute
280
     7
 91
        1
284
     1
  0
DICTIONARY
  5
341
102
{ACAD_REACTORS
330
340
102
}
330
340
100
AcDbDictionary
280
     1
281
     1
  3
1
360
342
  0
DICTIONARY
  5
348
102
{ACAD_REACTORS
330
347
102
}
330
347
100
AcDbDictionary
280
     1
281
     1
  3
1
360
349
  0
DICTIONARY
  5
3E0
102
{ACAD_REACTORS
330
3DF
102
}
330
3DF
100
AcDbDictionary
280
     1
281
     1
  3
1
360
3E1
  0
XRECORD
  5
4B3
102
{ACAD_REACTORS
330
1C6
102
}
330
1C6
100
AcDbXrecord
280
     1
102
DISPLAYNAME
  1
Imperial24
102
FLAGS
 90
        0
  0
XRECORD
  5
480
102
{ACAD_REACTORS
330
188
102
}
330
188
100
AcDbXrecord
280
     1
102
MATERIAL
148
0.0
149
0.0
149
0.0
 93
        0
 94
       63
282
     0
 72
     1
 77
     1
171
     1
175
     1
179
     1
273
     0
  0
XRECORD
  5
189
102
{ACAD_REACTORS
330
188
102
}
330
188
100
AcDbXrecord
280
     1
 70
     1
 90
429727718
  1
508B35C9-AEE7-456F-BE74-D52651303AC6
310
504B03040A0000080000B670623B3DEE336E79000000790000001B0000006175746F6465736B2D64657369676E2D7061636B6167652E786D6C3C3F786D6C2076657273696F6E3D22312E302220656E636F64696E673D227574662D3822203F3E3C666F726D6174733E3C666F726D61743E687474703A2F2F736368656D612E
310
6175746F6465736B2E636F6D2F64657369676E2D7061636B6167652F323030393C2F666F726D61743E3C2F666F726D6174733E504B0304140006080800B670623BD486FD9CA0000000F4000000130000005B436F6E74656E745F54797065735D2E786D6C7D8EC10E82300C865F65E91D8A1E8C310C0EEA1BF002731658846E
310
D98AC1B77784ABF1D8FE5FBFBF75BBCE937A534CCEB38643598122B6FEE978D0B0485F9C41B54DDD7D022595594E1A469170414C76A4D9A4D207E29CF43ECE46F218070CC6BECC4078ACAA135ACF422C856C0E68EA1BF5669944DDD7BCDE7B1F8E415D77AECB980613C2E4AC91FC167A2B244592486606FC29C8FD7F045B9A
310
EF7053A7E60B504B0304140006080800B670623B28ED286BEB0000007C01000008000000636F72652E786D6C8D90416EC3201045AF82665B6183218D6D61A254764FD00B204C5C94182C03558F5F9C3852BBEB6A467FFE9B197D71FA9E6FE8CBACC17AD7012D0820E3B41FAD9B3A48F1826B40272956EFE32F1B20A766D3C1
310
268314D3EAD3B24BDABB685CCCAAF3A3D94515828980F42D371D04FD696655A814B3235C8B45E9AB9A4C419F5D8653B2237A1CB163DE672FD6AC209BF3C08E0D1B30EB19C3FC9D72FCC6EB231EFA33EDE96BDD341517E5064B11EDFCBCAF57A3A2194156843498524CAA0FCA5B7268F9E185D42D21A2DCEC7FA0B48CFF8492
310
759155FBBB0F2C80A4F991FB408A72CB22977B50B96EB9C91F504B0304140006080800B670623B55019EA25F0000007C00000007000000636E782E786D6C4DCB3B0E80201045D1AD90E915ED2CF8AC45050C11660C8261F98AB1B07AC9C97D42D718D865D3E909258CFD00CCE24AC6E326A164D74DC0B4128928FF32603847
310
2BA13128B1252AC747C6BAB984FC68F0B87FE8960A5C09FE86CFB69FBA01504B0304140006080800B670623B7BC41AC871010000D40300000C0000006662782F636F72652E786D6CC553ED6E8320147D15C2DF4501B56B6D90A64BBB27D80B50A5CE54C120983EFEAE1F4DD7A56BBA5FF3879273EEE59E7310BE393735EA95
310
ED2AA333CC428A91D2B9292A5D66D8BB63B0C26823B835C67D2BC348CB46657880B1E0A535BE9DA1DC68A7B403549B42CDA0EC3AE530CA6B5864B8CB3F552343E91D5474A7B095F949962A6421D0502778E72C0840D390E18DC5F170E664C205F7BE2A66B62A605A75AC94C522DDEEE3651AEF837817C741F2CE92E02D592D
310
83FD6ECB76EC7595A651C2C9D02CB8AB9A8BBADC2AE954814544691A3016D0E883256BBA58278B17BA5A53CAC9507ED3E4DBE2C9265F691747B3DCA9ADC382819091F8E1162272A8933DE82182932144F88C09DF060D8140C84E1EEA8B8F1340BDCA9DB1093085F157AA97B557309586747CD0EF0B4EA64E983A6E0EAEEFCE
310
889E9EF17847386AA94B30211D2C0FDE0D3AF9A4610EAD5536E8DD1969631B593F67E381C33F5157F17725E5A636F6BF1491F980C8FC7B90E13E8A2F504B0304140006080800B670623B70102A487D0000009D0000000B0000006662782F636E782E786D6C4DCCD10A83201886E15B91FFDC95A5C30335ACCDFB886521330D
310
A76397BF1A1DECE883878F57749FD5A3B74D2F17830472A901D9F088930B8B849267CC01754AA418F3DF0D5018572BE160506249B16C274D761E8BCFBB7A179E27F65CB39A0F14D396184C9921B81F34C3ACA1B4B99ABB6E6F062A25AA5F69DF23ACBE504B0304140006080800B670623B3610CA3329010000120200003100
310
00006662782F42384135303843342D343331462D343546312D424341352D3532343432364645413344462F636F72652E786D6C8D515B6EC32010BC0AE22B55850D0E446E848992B43E412FE000495162B07854397EA176A4F62F3F2C9A9D991D58BEBB8F37F0AD7D30CE76905418026DA553C65E3A98E219B510EC04F7CEC5
310
3F3408EC30EA0E16180A7EF12E4D0B249D8DDAC68C5AA7F4020E21E80881BCE54B0783FCD2E3500D296646B856D320AFC34557A4CAEDCC133C449F0380794839A138B47B86DB2345744D7A44594FD0E1B867883594369BFE63BF7EEF793D0B054FC9A8456E548E63CE46FB674D8A58F068C6477CE9F510B582A2C1F80D1182
310
70F349E816B32D65AFB8DD62CCEB42FF274A937A52948C8DEB66893BCB021484D7734370E5D2E9F608A3EF93F3119479ABA0E50B14B8C298119A43CCC4FCFCECB8A18B6388CEE7EF5D5D4F994BD86CBBA182D76543B9FCAE2FD7B24DF103504B0304140006080800B670623B1B8617914E0100003303000030000000666278
310
2F42384135303843342D343331462D343546312D424341352D3532343432364645413344462F636E782E786D6CD593C16EC32010447F0571AD6CE3D489D20813A9877E410FBD62D82434182CC055F3F75D1292E692438FBD206B7698593D61BEFD1E2DF982108D773D6D6B460938E5B571FB9ECE6957AD29D90A1EBC4F7736
310
4A9C1CA1A759A682EF839FA72269D8C9D92654AD71C72206887E0E0A22CAF926B15E498B01E0AA19451807D01A34B919F16B070157417138917400F2F6FA41FCF0092A45DEE414C19BDC21783E4BD39D891265658C3D8DEA00A3ACE59CBC8678ACB54CB26EEB6BD7839D7E9348BE70AD9C8321B9BCA7F9A4A26C542347DEE0
310
50F09802D22BA6749A800A394DD62899107273365E3C82CFC6A55557BC06C10774B7ABE7AEC3B0F34CF06446280E154026D0542C187BA9DAB6628BF7B6DBB0E5A65B3EB1F58631DE64BBE083F7B65CC218087E22CABB042E51D1F2268F1FE12B3EA24D40D63E9CFE00120194D60B9D5BC67FE6D39CDF37E20AF817881F504B
310
0304140006080800B670623BBFEF2E3B690500003C100000340000006662782F42384135303843342D343331462D343546312D424341352D3532343432364645413344462F6F626A656374732E786D6CAD575D739B3814FD2B0CFB0C98D84E931D4227B6938EA793B6534F3BFB90198F0099B001899144EAECAFDF231018B0
310
D37A3FFC609090EEE7B94757C1FB7D915B2F54C88CB31BDB7727B64559CC938CA53776A576CE956DBD0F03C1B9EA2DB32D460A7A63EB693B0C52C1ABD24C257447AA5C8D66EF177F5832A68CDA569C13296F6C193FD182B8A4523CA1F2D94D88226EBADBBBBEDB2C1C8A4D05299F46424B222853B014F30C52ACC6287F389C
310
D85E1878FA7B18E87FB36AFAF62AAFF667A83F635211161F291B8999FAB3D5DDC5FCDA99CF6653677679E13B8BFBC5CAF1DF4D27CBCBE5F2FAF6EE1A8AA51290642C117467871F101B91C581D77CEA2C36869F3229E68CD1B8F61F1ED6361B89092D294B90C78C4A68EB793D190E7D1D9BDEE7A91E1B95FDE9F3BCEAEFE809
310
6A6D6F9F7D4B79F4275C90E7A04248AA51D5C4C738DAE06F72885AC4796EBE65D22A88A22223B995679120E2D50EB1542F098381188D4EA111AE3DB043FF20AF6F2B4AE3D7D83D65E5AECA730D4D3BAC91BD05FEA992B565D95F549CD6069B90AB2A63EACA38A45E4B6A87D781574F86817E4C2FCCC72690D62E2729520E37
310
9BAF234797BAF6D62B3BFC781FED37BA1E4F2B2F052FA9501A3E80569BB8F6A9A364D4FA67654E6F803383981F82F21591FF84F23D9882BC896C3FDBCF8C162508933B2E0AE4C69DD43F6BD2BE38DDDBF10BF86CB4FA784D37F3AF16075E67EC9030DECA1FC0A55373F5DFF3378C591FA9BDF485C10B0A8C8BA909E5262639
310
A8E72163488806A595734C81CB77D1DE0ED7604A303B76913CEC0272F412782FF88EFF4636D8AA56DF7B322474C4B767303F625997056C7B032C473C592B36CEBD15F3F9FF5233B7ABCDC74D257624A60F8658567497B14CE1EC3C80B76FD02011038F9EE9EB0F2E12387A9C844D3F09855125116D1D731DF8B43D2CF4E0A0
310
79A020C6BE946BCE0B7EA1E1219331CD73C228AF5A2DDD31A4B1DA918CE91350854D40A71723140BFA92E94E62B0626016CEFA5864A50E5977E8753CEDBEE1CBB7F52780D20E17AF0BA0F5F9B02A3AD07DCC732EB6D1EBB661421BE0C39E21BABF0FE16D22EA6929407C8DE596724C88B749B6DB5512BC7B228ADFD7CB7EA6
310
3A22397E690BA8D5D8D4E40CEC8CDA23C2C0B7D5898640101CEC9C6D331CE328CB93CAFBBAC70A642DF70DF95155945B52F08AA973C23469FD69ADEF84F7BB18F983A8F8C90E37F5D35980B2139A1C523540813E824EF83448CF7C72B598CE97D7CEEDDDDD3B6736BFBC771677EF66CE6A7E7139F7A793E9EDF2B2B3A8B624
310
0CDA13AA5F8388264EC4A0129909F3B7F5A16CEDF08128E97D680ACA4B9BE7B7B58BB638F0B00700EF36AE8B32A705658A68F83EE897FC2B41573190D1CCAF0B92D233A47CFEB019D9809933F67DD1A5467F8CF69AD9A5AE859342D45355448C64F968A371DC2D596ADC6E43D93D1B466F877A64E2893E54F23C4B40388995
310
525E5005DA3983ED45412510D3EFCA13737B3863F74BD30F2A12E5B4B5E489A025CE25500DB855B11ACE5BBFA185D35DD48D8DC3CE7DC69F2944DB42AA6F6CF09BCA622ADD08C7A36E7C6AE18000BAB08E040135C2D21C9D75B3A91B77BB746C403F38018DFE6EC939DD92F16B40BC05294B9CDA035AAD6D330AE27FE4786B
310
8E45145EA34A75BE1C263A676A35A8ACC6297337400BF16C54EF515F3F77CB77EB3583889C754FFA29081AA98E2222ADEF05DA3E63D2EDEA8B8756C05A7FB6CABC4A91CBF325398202CC952E70A008A830324BA200D5E5EF8F5F04C75DB4B0EE3340E071C98B823333B83577596BF3849B69F2085AA0FAFA212F26BEFF5877
310
FDE622B28D88A42E49E43326DA82D31E8CB006401E1DA726059ECEC168F97A6599036306A135688F9AD2E61A6EA178F4CD51974A9F2CCB9F36FE5EBD14601068D9C3BF01504B0304140006080000B670623B000000000000000000000000350000006662782F42384135303843342D343331462D343546312D424341352D35
310
32343432364645413344462F76657274696365732E62696E504B0304140006080800B670623BF270F1330600000004000000360000006662782F42384135303843342D343331462D343546312D424341352D3532343432364645413344462F747269616E676C65732E62696E636660600000504B0304140006080000B67062
310
3B000000000000000000000000370000006662782F42384135303843342D343331462D343546312D424341352D3532343432364645413344462F617474726962757465732E62696E504B0304140006080800B670623B08DA0BD19000000041010000360000006662782F42384135303843342D343331462D343546312D4243
310
41352D3532343432364645413344462F6469726563746F72792E786D6C858F410AC3201045AF22B36F53E9A60B35CBEEBAE80D244E44489C6234F4F835464A48035D0DF398FF9F8AF63D0E6CC63039F212F8F9020C7D47C6792B21C5FE7403D62A1188E2E60C98D7234A5830286103A55745067B9D86B8A3CF9C7F90C11DE6
310
07FB144396D7B6A82D282E9A152AD114D5EF2CB866EEE831B8EEA07A7BB5A8D7D61A2BAAEB7FD5F70921FF497D00504B0304140006080800B670623B3B4606F3FE000000A00100003B0000006662782F42384135303843342D343331462D343546312D424341352D3532343432364645413344462F7265736F75726365732F
310
636F72652E786D6C8D504B6E833010BD0A9A6D65B08134808CA354A427E8052C332156828DFCA97AFC9A40A576D7CDCCE87D344F8F9FBEE647F689CE6B6B7A6039850C8DB2A336530F315C4903D94970676DF82583CCC8197B5861107C72362E3BA4AC096842428D1D7107A5F71820538F74F4E0D50D6799CB1892C2DFF345
310
AABB9C306779A2934E701F5C0A906D4FD609C2A1B7D129F4BCD858C163D4E3AED163FAA9AF1A1D88F67CA98E6D35906AA82A52BFB39ABCD5CD915C86331BD86BD3B665CD8BD52C78D0F34F46E550061C419494B6843142CB0F5677F4D0D58717DA7494F26295FF31C565FCA7296A13AA728FBBD93C0896823C09C18BB5AFB4
310
9E65A6BD762BBE01504B010214000A0000080000B670623B3DEE336E79000000790000001B00000000000000000000000000000000006175746F6465736B2D64657369676E2D7061636B6167652E786D6C504B01021400140006080800B670623BD486FD9CA0000000F40000001300000000000000000000000000B2000000
310
5B436F6E74656E745F54797065735D2E786D6C504B01021400140006080800B670623B28ED286BEB0000007C010000080000000000000000000000000083010000636F72652E786D6C504B01021400140006080800B670623B55019EA25F0000007C000000070000000000000000000000000094020000636E782E786D6C50
310
4B01021400140006080800B670623B7BC41AC871010000D40300000C00000000000000000000000000180300006662782F636F72652E786D6C504B01021400140006080800B670623B70102A487D0000009D0000000B00000000000000000000000000B30400006662782F636E782E786D6C504B01021400140006080800B6
310
70623B3610CA3329010000120200003100000000000000000000000000590500006662782F42384135303843342D343331462D343546312D424341352D3532343432364645413344462F636F72652E786D6C504B01021400140006080800B670623B1B8617914E010000330300003000000000000000000000000000D10600
310
006662782F42384135303843342D343331462D343546312D424341352D3532343432364645413344462F636E782E786D6C504B01021400140006080800B670623BBFEF2E3B690500003C10000034000000000000000000000000006D0800006662782F42384135303843342D343331462D343546312D424341352D35323434
310
32364645413344462F6F626A656374732E786D6C504B01021400140006080000B670623B0000000000000000000000003500000000000000000000000000280E00006662782F42384135303843342D343331462D343546312D424341352D3532343432364645413344462F76657274696365732E62696E504B010214001400
310
06080800B670623BF270F133060000000400000036000000000000000000000000007B0E00006662782F42384135303843342D343331462D343546312D424341352D3532343432364645413344462F747269616E676C65732E62696E504B01021400140006080000B670623B00000000000000000000000037000000000000
310
00000000000000D50E00006662782F42384135303843342D343331462D343546312D424341352D3532343432364645413344462F617474726962757465732E62696E504B01021400140006080800B670623B08DA0BD1900000004101000036000000000000000000000000002A0F00006662782F42384135303843342D3433
310
31462D343546312D424341352D3532343432364645413344462F6469726563746F72792E786D6C504B01021400140006080800B670623B3B4606F3FE000000A00100003B000000000000000000000000000E1000006662782F42384135303843342D343331462D343546312D424341352D3532343432364645413344462F72
310
65736F75726365732F636F72652E786D6C504B0506000000000E000E0080040000651100000000
  0
XRECORD
  5
47F
102
{ACAD_REACTORS
330
186
102
}
330
186
100
AcDbXrecord
280
     1
102
MATERIAL
148
0.0
149
0.0
149
0.0
 93
        0
 94
       63
282
     0
 72
     1
 77
     1
171
     1
175
     1
179
     1
273
     0
  0
XRECORD
  5
187
102
{ACAD_REACTORS
330
186
102
}
330
186
100
AcDbXrecord
280
     1
 70
     1
 90
429727718
  1
887D55A9-D0DD-414E-B741-A7DCD4DA2B4C
310
504B03040A0000080000B670623B3DEE336E79000000790000001B0000006175746F6465736B2D64657369676E2D7061636B6167652E786D6C3C3F786D6C2076657273696F6E3D22312E302220656E636F64696E673D227574662D3822203F3E3C666F726D6174733E3C666F726D61743E687474703A2F2F736368656D612E
310
6175746F6465736B2E636F6D2F64657369676E2D7061636B6167652F323030393C2F666F726D61743E3C2F666F726D6174733E504B0304140006080800B670623BD486FD9CA0000000F4000000130000005B436F6E74656E745F54797065735D2E786D6C7D8EC10E82300C865F65E91D8A1E8C310C0EEA1BF002731658846E
310
D98AC1B77784ABF1D8FE5FBFBF75BBCE937A534CCEB38643598122B6FEE978D0B0485F9C41B54DDD7D022595594E1A469170414C76A4D9A4D207E29CF43ECE46F218070CC6BECC4078ACAA135ACF422C856C0E68EA1BF5669944DDD7BCDE7B1F8E415D77AECB980613C2E4AC91FC167A2B244592486606FC29C8FD7F045B9A
310
EF7053A7E60B504B0304140006080800B670623BBC1638F5EC0000007C01000008000000636F72652E786D6C8D90416EC3201045AF82665B61836BE2D8C24471DB9CA01740401C94182C03558F5F9C3852BBEB6A467FFE9B197D7EF89E6EE8CB2CC17AD7032D0820E394D7D68D3DA478C67B4007C117EFE32F1B202727D3C3
310
2A83E0E3E2D3BC49CABB685CCCAAF3DA6CA20CC14440EA969B1E82BA98491632C5EC08D76296EA2A4753D06797E194AC468F2356E77DF66CCD02825543D50CACC62D39ED70FDC68EB8FD68F6F8787A6784342D1DDA1D2F5758F068A7E77DB518198D065111D2624A31A93E69DD11D6D5EC85EC3B4278B9DAFF4069D6FF8492
310
75F1B5DADE7D600104CD8FDC0782976B16B9DC83CA75CD4DFC00504B0304140006080800B670623B55019EA25F0000007C00000007000000636E782E786D6C4DCB3B0E80201045D1AD90E915ED2CF8AC45050C11660C8261F98AB1B07AC9C97D42D718D865D3E909258CFD00CCE24AC6E326A164D74DC0B4128928FF326038
310
472BA13128B1252AC747C6BAB984FC68F0B87FE8960A5C09FE86CFB69FBA01504B0304140006080800B670623B3586FFB671010000D40300000C0000006662782F636F72652E786D6CC553ED6E8320147D15C2DF4541A76D6D90A6DDD627D80B50A4CE54C120983EFEAE1F4DD7A55BBA5FF3879273EEE59E7310B6393735EA
310
95ED2AA3731C851423A5A5292A5DE6D8BB63B0C268C39935C67D29C3488B46E578803167A535BE9D2169B453DA01AA4DA16650749D7218C91A1639EEE4876A4428BC838AEE14B6429E44A9C228041AEA38EB9C0501681A32BC313F1ECE8C4C3867DE57C5CC56054CAB8E95B298A7F12E5EEED224C8E87E11242FE936C8DE96
310
AB60BB7F4D295D66D12E5B30323473E6AAE6A24E5A259C2A308F29CD82280A68FC1E256B9AAE93F489AED694323294DF34F9B678B0C957DA3DC7B3DCA9ADC33C022123F1CD2D44E450277AD04338234388F01913BE0D1A0281909D38D4171F27807A259DB1093085F157AA17B557309586747CD0CF0B46A64E983A6E0EAEEF
310
CE881F9EF1FB8E70D44297604238581EBC1B74B249C31C5AAB6CD0BB33D2C636A27ECCC62F0EFF445DC5DF95244D6DEC7F2922F30191F9F720C37DE49F504B0304140006080800B670623B4220A0FF7D0000009D0000000B0000006662782F636E782E786D6C4DCCD10A83201886E15B91FFDCE542CB0335D0EC3E6259C84A
310
C3E9D8E5AF46073BFAE0E1E315DD675BD1DBA5978F41C2FD4600B9F088930F8B849267CC01754AA418F3DF0D50183727E164506249B1EC174D6E1ECB9A0F5D7D785E68DB8151CD286E5A5363CA6B8A39E90D36D40E96B086F55A43A544F52B1D7B86D517504B0304140006080800B670623B2FA3FEDE290100001202000031
310
0000006662782F45374635344235342D363743322D343832342D383044432D4334454645303536354442422F636F72652E786D6C8D515B6EC32010BC0AE22B55850D2E386E848994D7097A0117488A1283C5A3CAF10BB523B57FF961D1ECCCECC0F2ED7DBC816FED8371B687A4C210682B9D32F6D2C314CFA883602BB8772E
310
FEA141608751F7B0C050F08B77695A20E96CD43666D43AA5177008414708E42D5F7A18E4971E876A483133C2B59A06791D2EBA22556E679EE021FA1C00CC43CA09C5717D6274C7286AD7FB06D1AEA1A8C3873DDAD3E3E98859CB0EBB1DAF67A1E02919B5C88DCA71CCD968FFAC49110B1ECDF8882FBD1EA256503418BF2342
310
106E3E08DD60B6A1EC15771B8C795DE8FF4469524F8A92B1F1AD59E2CEB20005E1F5DC105CB9F4797B84D1F7C9F908CABC55D0F2050A5C61CC1AD2F27A26E6E767C7962E8E213A9FBF7775FDCC5CC266DB960A5E970DE5F2BBBE5CCB36C50F504B0304140006080800B670623B1B8617914E01000033030000300000006662
310
782F45374635344235342D363743322D343832342D383044432D4334454645303536354442422F636E782E786D6CD593C16EC32010447F0571AD6CE3D489D20813A9877E410FBD62D82434182CC055F3F75D1292E692438FBD206B7698593D61BEFD1E2DF982108D773D6D6B460938E5B571FB9ECE6957AD29D90A1EBC4F77
310
364A9C1CA1A759A682EF839FA72269D8C9D92654AD71C72206887E0E0A22CAF926B15E498B01E0AA19451807D01A34B919F16B070157417138917400F2F6FA41FCF0092A45DEE414C19BDC21783E4BD39D891265658C3D8DEA00A3ACE59CBC8678ACB54CB26EEB6BD7839D7E9348BE70AD9C8321B9BCA7F9A4A26C542347DE
310
E050F09802D22BA6749A800A394DD62899107273365E3C82CFC6A55557BC06C10774B7ABE7AEC3B0F34CF06446280E154026D0542C187BA9DAB6628BF7B6DBB0E5A65B3EB1F58631DE64BBE083F7B65CC218087E22CABB042E51D1F2268F1FE12B3EA24D40D63E9CFE00120194D60B9D5BC67FE6D39CDF37E20AF817881F50
310
4B0304140006080800B670623B29652116630500003C100000340000006662782F45374635344235342D363743322D343832342D383044432D4334454645303536354442422F6F626A656374732E786D6CAD575D739B3814FD2B0CFB0C989834C90EA1639B24E3E9A6EDD4D3CE3E64C623834CD8006224913AFDF57B040203
310
B65BEF871F0C12D2FD3CF7E8CA7FBFCB33E3957291B2E2D674ED8969D02262715A24B76625B7D6B569BC0F7CCE98EC2D338D82E4F4D654D366E0279C55A59E8AE99654991CCDDECFFF3444440B6A1A514684B83545F44C7362934AB2988A173B2692D8C97667BB76B3702836E1A47C1E092D09A78584A5982F20C5688C7287
310
C389E904BEA3BE07BEFAD7ABA6A75739B53F43FD69212429A20365233153D70BEF2E2E6FAC4BCF9B5ADEBB0BD79ADFCF43CBBD9A4E16EF168B9BD9DD0D140BC921495BC2E9D60C1E101B9E46BED37CEA2CD6861F3329624541A3DA7F7858DBAC25C6B4A4458C3CA654405BCFEBC970E8AAD8F43E4FD558ABEC4F9FE7557F47
310
4F506B7BFBEC5BCA367FC105710E2AB8A00A554D7CB4A30DFE26FBA86D18CBF4B75418399194A72433B274C3097F33032C554B027F2046A1932B842B0FCCC0DDCBEBDB8AD2F835768F59B9ADB24C41D30C6A64AF817F2A456D59FA83F2E3DA60137255A585BCD60EC9B7929AC18DEFD49381AF1ED30BFDB109A4B1CD488294
310
C3CDE6EBC8D185AABD6568061FEE37BB95AAC7E3CA4BCE4ACAA5820FA0D526AE7DAA2869B5EE5999531BE0CC20E6FBA07C41E43FA27CF7A6206F3CDD793B4F6B919C1462CB788EDCD893FA674CDA17AB7B3B7C019F8D561FAEE966FED562DFE98C1D12C6A9FC015C2A35D7FF3D7FC398F591DA4B5FE0BFA2C0189FEA50AE22
310
92817A1ED3020951A03432862970F976B33383259812CC8E5D240BBA801CBCF8CE2BBEE3BF910DB6AAD5F79E05123AE2DB33981FB1ACCB02B69D00CB014FD68AB573A7627EF9BFD4CC2C5C7D58557C4B22FAA88925A4DBB44825CECE3D78FB060D1231F0E885BE7D673C86A3874958F593906B5502D1563157814FDAC3420D
310
F69A070A22EC4B98E23CFF171A1E5311D12C23056555ABA53B8614563B92D17D02AAB009E8F46284624E5F53D5490C560CCCC2591FF1B45421EB0EBD8EA7ED13BE7C5D7E0428CD60FEF60779EB13E6664FF711CB185F6FDED60D139A001FF60CD1FD6D086F1D51474901E26B2CB794A343BC8ED3EDB612E0DD2351FCB65CF4
310
33D511C9E14B5B40ADC6A6263DB0336A8F700DDF56271A024E70B0B3629DE21847591E55DED73D56206AB927E46FAABC5C939C55853C274C93D69FD6FA4E78BF8B11DF898C9ECD60553FAD39283BA6F18984AA23E8884F83F45C5F5F859797B31B2B9C84A1E5B9DE9D35BFF25C6B76152E422F9C5DCC3D847F5801ED09D5AF
310
41441327A25FF15487F9EB725FB666F048A4701E9A827292E6F97569A32DF61DEC01C0BB8DCBBCCC684E0B49147C1FD54BF685A0AB18C868E6973949E819523E3DAC463660E68C7D9F55A9D1EFA3BD7A76A16AE1A810F95CE59B82A4D968A376DC2E8B44BBDD86B27B368CDE0ED548C7137DA860591A83706223A12CA712B4
310
7306DBF39C0A20A6DF95C7FAF670C6EED7A61F946493D1D6926782963813403548A78AE470DEF80D2D9CEAA26E4D1C76F60BFE74219A06527D6B82DF641A51616F703CAAC6A7160E08A00BEB4810A0274592A1B36E3675E36E978A0DE80727A0D6DF2D39A75BD27E0D8837276589537B40ABB56D5A41F48F1C6FCD3188C4EB
310
A6929D2FFB89CE995A4D00AE813BDD032DC48B56BD437DFDDC2DD7AED70C2272D63DE9A72068A45A92F0A4BE17A8A06B9366E16707AD80B1FC649459952097E74BB23805982B55E0401150A165964402AA8BDF9F3E7386BB686EDCA780C0D382E5392BF460A6EFB2C6EA1937D3F809B440D5F5435C4C5CF7A9EEFAF54564BD
310
2182DA24162F98680B4E7930C21A0079709CEAEB99A372305ABE0C0D7D6078105A83F6A0296DAEE1068A47DD1C55A9F4C9B2FC69E3EFD44B81028E963DF81B504B0304140006080000B670623B000000000000000000000000350000006662782F45374635344235342D363743322D343832342D383044432D433445464530
310
3536354442422F76657274696365732E62696E504B0304140006080800B670623BF270F1330600000004000000360000006662782F45374635344235342D363743322D343832342D383044432D4334454645303536354442422F747269616E676C65732E62696E636660600000504B0304140006080000B670623B00000000
310
0000000000000000370000006662782F45374635344235342D363743322D343832342D383044432D4334454645303536354442422F617474726962757465732E62696E504B0304140006080800B670623B08DA0BD19000000041010000360000006662782F45374635344235342D363743322D343832342D383044432D4334
310
454645303536354442422F6469726563746F72792E786D6C858F410AC3201045AF22B36F53E9A60B35CBEEBAE80D244E44489C6234F4F835464A48035D0DF398FF9F8AF63D0E6CC63039F212F8F9020C7D47C6792B21C5FE7403D62A1188E2E60C98D7234A5830286103A55745067B9D86B8A3CF9C7F90C11DE607FB144396
310
D7B6A82D282E9A152AD114D5EF2CB866EEE831B8EEA07A7BB5A8D7D61A2BAAEB7FD5F70921FF497D00504B0304140006080800B670623B6378F24DFF000000A00100003B0000006662782F45374635344235342D363743322D343832342D383044432D4334454645303536354442422F7265736F75726365732F636F72652E
310
786D6C8D504B6E833010BD0A9A6D65B0094E42641C85B639412F6099496225D8C89FAAC7AF09546A77DDCC8CDE47F3F4C4F16B7C149FE88371B603565228D06A37187BED20C50BD9437194C23B177FC9A0B06AC40E6618A4B87A97A615D2CE46B431A3D60DB8822A048C50E8473E3A08FA86A32A558A5911EEE5A4F45D5DB1
310
6465A6B34E8A107D0E502C4FE609D26370C96B0CA25A58295232C3AA3143FE692E063D485EF7F5AEE71BD2D2F39634AFFC44DAF7DD9E9CCE6F9CD25DCBFA762BAAD92C4534E34F46ED51451C40D694B6843142EB0FD61C283F34FC85EE0F948A6A96FF31A569F8A729191B37F51A77B105902C0779125254735F793DCBCC7B
310
EE567E03504B010214000A0000080000B670623B3DEE336E79000000790000001B00000000000000000000000000000000006175746F6465736B2D64657369676E2D7061636B6167652E786D6C504B01021400140006080800B670623BD486FD9CA0000000F40000001300000000000000000000000000B20000005B436F6E
310
74656E745F54797065735D2E786D6C504B01021400140006080800B670623BBC1638F5EC0000007C010000080000000000000000000000000083010000636F72652E786D6C504B01021400140006080800B670623B55019EA25F0000007C000000070000000000000000000000000095020000636E782E786D6C504B010214
310
00140006080800B670623B3586FFB671010000D40300000C00000000000000000000000000190300006662782F636F72652E786D6C504B01021400140006080800B670623B4220A0FF7D0000009D0000000B00000000000000000000000000B40400006662782F636E782E786D6C504B01021400140006080800B670623B2F
310
A3FEDE290100001202000031000000000000000000000000005A0500006662782F45374635344235342D363743322D343832342D383044432D4334454645303536354442422F636F72652E786D6C504B01021400140006080800B670623B1B8617914E010000330300003000000000000000000000000000D2060000666278
310
2F45374635344235342D363743322D343832342D383044432D4334454645303536354442422F636E782E786D6C504B01021400140006080800B670623B29652116630500003C10000034000000000000000000000000006E0800006662782F45374635344235342D363743322D343832342D383044432D4334454645303536
310
354442422F6F626A656374732E786D6C504B01021400140006080000B670623B0000000000000000000000003500000000000000000000000000230E00006662782F45374635344235342D363743322D343832342D383044432D4334454645303536354442422F76657274696365732E62696E504B01021400140006080800
310
B670623BF270F13306000000040000003600000000000000000000000000760E00006662782F45374635344235342D363743322D343832342D383044432D4334454645303536354442422F747269616E676C65732E62696E504B01021400140006080000B670623B0000000000000000000000003700000000000000000000
310
000000D00E00006662782F45374635344235342D363743322D343832342D383044432D4334454645303536354442422F617474726962757465732E62696E504B01021400140006080800B670623B08DA0BD190000000410100003600000000000000000000000000250F00006662782F45374635344235342D363743322D34
310
3832342D383044432D4334454645303536354442422F6469726563746F72792E786D6C504B01021400140006080800B670623B6378F24DFF000000A00100003B00000000000000000000000000091000006662782F45374635344235342D363743322D343832342D383044432D4334454645303536354442422F7265736F75
310
726365732F636F72652E786D6C504B0506000000000E000E0080040000611100000000
  0
XRECORD
  5
481
102
{ACAD_REACTORS
330
110
102
}
330
110
100
AcDbXrecord
280
     1
102
MATERIAL
148
0.0
149
0.0
149
0.0
 93
        0
 94
       63
282
     0
 72
     1
 77
     1
171
     1
175
     1
179
     1
273
     0
  0
XRECORD
  5
112
102
{ACAD_REACTORS
330
110
102
}
330
110
100
AcDbXrecord
280
     1
270
     1
271
     1
  0
XRECORD
  5
111
102
{ACAD_REACTORS
330
110
102
}
330
110
100
AcDbXrecord
280
     1
270
     1
271
     1
  0
XRECORD
  5
18A
102
{ACAD_REACTORS
330
110
102
}
330
110
100
AcDbXrecord
280
     1
 70
     0
 90
1778669749
  1
9BF507EE-FAF7-4A99-A33D-4EE51894BC40
310
504B03040A0000080000B670623B3DEE336E79000000790000001B0000006175746F6465736B2D64657369676E2D7061636B6167652E786D6C3C3F786D6C2076657273696F6E3D22312E302220656E636F64696E673D227574662D3822203F3E3C666F726D6174733E3C666F726D61743E687474703A2F2F736368656D612E
310
6175746F6465736B2E636F6D2F64657369676E2D7061636B6167652F323030393C2F666F726D61743E3C2F666F726D6174733E504B0304140006080800B670623BD486FD9CA0000000F4000000130000005B436F6E74656E745F54797065735D2E786D6C7D8EC10E82300C865F65E91D8A1E8C310C0EEA1BF002731658846E
310
D98AC1B77784ABF1D8FE5FBFBF75BBCE937A534CCEB38643598122B6FEE978D0B0485F9C41B54DDD7D022595594E1A469170414C76A4D9A4D207E29CF43ECE46F218070CC6BECC4078ACAA135ACF422C856C0E68EA1BF5669944DDD7BCDE7B1F8E415D77AECB980613C2E4AC91FC167A2B244592486606FC29C8FD7F045B9A
310
EF7053A7E60B504B0304140006080800B670623BCA089DFFEC0000007C01000008000000636F72652E786D6C8D90416E83301045AF62CDB632D8402020E32882F604BD80653BC44AB011B6AB1EBF262152BBEB6A467FFE9B197D76FA9EEFE84BAFDE38DB03CD08206DA553C64E3DC470C1474027CE56E7C22F1B202B66DDC3
310
260367D3EAE2B24BD2D9A06D48AA754AEFA2F05E0740F29E9A1EBCBCEA59642286E4F0B76C11F226269DD15797E0188D42CF2346A57DE662F40ABCAEC77628C6120F654571D50C04B7F5B9C1E3997CD4F550BE3745C3F20DE62C98F9755FAE5A04AD801784B498524C8A4F5A75E4D055873772EC0861F966FF03C545FD138A
310
C686B2D8DF7D621E384D8F3C069CE55B16A93C824A75CB8DFF00504B0304140006080800B670623B55019EA25F0000007C00000007000000636E782E786D6C4DCB3B0E80201045D1AD90E915ED2CF8AC45050C11660C8261F98AB1B07AC9C97D42D718D865D3E909258CFD00CCE24AC6E326A164D74DC0B4128928FF326038
310
472BA13128B1252AC747C6BAB984FC68F0B87FE8960A5C09FE86CFB69FBA01504B0304140006080800B670623B68FC0B7272010000D40300000C0000006662782F636F72652E786D6CC5535B6E833010BC8AE5DF0A6C1E8124328E22D29EA01770C0A128602363A31CBFCB234A53A555FA553EC09AD9F5CE8C31DB5DDA060D
310
D2F4B556190E7C8A9154852E6B5565D8D993B7C668C799D1DA7E29C3488956667884316795D1AE5BA0422B2B950554E9522EA0E87B69312A1A5864B82F3E642B7CE12C54F467BF13C55954D20F7CA0A18EB3DE1A1080E621E31BF3D3F1C2C88C73E65C5D2E6C5DC2B4FA544B8379921C36797888BC3C8A032F4E73EA6D927D
310
EA1DF6F42D49F2E8350D5346C666CE6CDD5ED515460A2B4BCC434A375E1078347C0FE22D5D6DE3D50B5D6F2965642CBF6B725DF96493AB958DC245EEDCD6631E809089F8E61622B2A81703E8219C913144F84C09DF070D8140C8561C9BAB8F3340832CAC363130A576376A108D933095FA747AD0CF0B46E64E983A6D0EAE1F
310
CE089F9EF1FB8E70D44255604258581E9D1D75B259C3125A278D37D80B52DAB4A279CEC62F0EFF44DDC43F9454E8469BFF5244960322CBEF41C6FBC83F01504B0304140006080800B670623B0F71DDB67E0000009D0000000B0000006662782F636E782E786D6C4DCCD10A83201886E15B91FFDCA54DB73F502386BB8F5816
310
32D3703976F9ABD1C18E3E78F87855FB990379BBFCF2296AE02706C4C5471A7C9C349475A408A4352AA7B4FEDD80C47E761A7606A3A69CCA72D0E0C6BE8475D3E0E3F3409428EA6B27A84079A782899AA2EC1A7AE3ECCC2FD858CB2D544655BFD2B67BD87C01504B0304140006080800B670623BE134B4FB28010000120200
310
00310000006662782F38353834323741342D343835462D343034322D383541392D4331303331363839454531452F636F72652E786D6C8D515B6EC32010BC0AE22B55850D0EA424C24451959EA0172086A42831583CAA1CBF503B52FB971F16CDCECC0EACD8DFC71BF836215AEF7A481A0C817183D7D65D7A98D3197108F652
310
04EFD31F1A044E8DA6871586525C82CFD3020DDE25E352419DD76601558C264130DCCAA58771F832A36A544E8511AFCDA486ABBA988634A55D7852C4144A00300FA927949C71DABD1D28A29C7D208A6987383B6CD13BC16BB2E1DBE3911C453B0BA5C8D9EA456E758963CFD684674DAA588A64C747FC2118958C86B2C3788B
310
0841B8FB247487D98EB257CC77188BB6D2FF89F2A49F1465EBD2BA5BE2CEB2082511EDDC9042FB7CBA3DC298FBE4430275DE2A9AE1054ADC60CC08E3A29D89E5F9C5714317C7987C28DFBBBA9E0A97B0D97643A568EB864AF95D5FA9759BF207504B0304140006080800B670623B1B8617914E010000330300003000000066
310
62782F38353834323741342D343835462D343034322D383541392D4331303331363839454531452F636E782E786D6CD593C16EC32010447F0571AD6CE3D489D20813A9877E410FBD62D82434182CC055F3F75D1292E692438FBD206B7698593D61BEFD1E2DF982108D773D6D6B460938E5B571FB9ECE6957AD29D90A1EBC4F
310
77364A9C1CA1A759A682EF839FA72269D8C9D92654AD71C72206887E0E0A22CAF926B15E498B01E0AA19451807D01A34B919F16B070157417138917400F2F6FA41FCF0092A45DEE414C19BDC21783E4BD39D891265658C3D8DEA00A3ACE59CBC8678ACB54CB26EEB6BD7839D7E9348BE70AD9C8321B9BCA7F9A4A26C542347
310
DEE050F09802D22BA6749A800A394DD62899107273365E3C82CFC6A55557BC06C10774B7ABE7AEC3B0F34CF06446280E154026D0542C187BA9DAB6628BF7B6DBB0E5A65B3EB1F58631DE64BBE083F7B65CC218087E22CABB042E51D1F2268F1FE12B3EA24D40D63E9CFE00120194D60B9D5BC67FE6D39CDF37E20AF817881F
310
504B0304140006080800B670623B5933D422630500003B100000340000006662782F38353834323741342D343835462D343034322D383541392D4331303331363839454531452F6F626A656374732E786D6CAD575B6FA33814FE2B887D0642934E9B156594264D158D3A534DD4D13E548A0C38942D60649B4EBABF7E3F8321
310
40924EF6928780CDF1B97EE762EFF32E4B8D37CA45C2F21BD3B547A641F39045491EDF98A5DC5AD7A6F1D9F73863B243661A39C9E88DA9B64DDF8B392B0BBD15D12D295339D85DDEFE618890E6D434C2940871638AF08566C426A5641115AF764424B1E3EDCE76ED9AB0CF36E6A47819302D08A7B984A6D8CFC1C5A89572FB
310
CB91E9F89EA3BEFB9EFAD754E3D3544E654F5F7E920B49F2F040D880CDD89D2CEE2E2EA7D6E56432B6269F2E5CEB7679BBB0DCABF168FE693E9FCEEEA6102C240727AD09A75BD3BF876F78127A4EFDA9D5582B7E4CA590E5390D2BFB6161A5B3E618D182E611E2985001691DAB47FDA5AB7CD3F93C566B2DB2BB7D9E55DD13
310
1D468DEECDB3AB290BFE8409E21C54704115AA6AFF68436BFC8DF65E0B184BF5B74418199194272435D224E084BF9B3E481589EFF5D828747285706581E9BB7B7E5D5D911ABFC6EE312DB7659A2A689A7E85EC0DF04FA5A8344BFEA2FCB834E8845895492EAFB541F2BDA0A63FF59C6AD3F7D4637CA13FD68E34B629891172
310
98597F1D183A57B9B75A98FE9765B05BAB7C3C2EBCE0ACA05C2AF8005A4DE09AA7F29216EB9E15397500C6F47CBE77CA7778FE2BD277AF0AE2C693DD6437D1522427B9D8329E2136F6A8FA19A3E6C56ADF0E5F50CF06D48734EDCEBF22F69C56D97EC138153F804B85E6FABFC7AFEFB32E523BE1F3BD372418E363EDCA7548
310
52949E8724474014288D94610BB57C1BEC4C7F854A89CA8E5324F55B871CBC78CE1BBEE3BFE68D6A5589EF3C730474506FCFA8FCF0659516D0ED04580EEA6425581B77CAE797FF4BCECC16EB2FEB926F49481F746159D06D922712BD730FDEAE42BD40F42C7AA5EF3F198F60E86110D6DD20645A9480B795CF95E3E3A659A8
310
C55E724F408873315335CFFB8584874484344D494E59D94869DB90C26A5B64F49C802CAC1D3ABE18A098D3B7444D123D8A9E5AE8F5214F0AE5B2B6E9B575DA3E61CBD3EA2B4009FA940524DD1305FB6A1FB294F14DF0BEA90BA109ECE1481FDC3FFAE8D60E75141700BE82725371B4873751B2DD960265F788137FACE6DD40
310
B575E4F0A5C99F46629D92131467A41EE11ABD8D4CCC039CA0AFB37C93A08B232B8F0AEFCA1E0A1015DF13FC83322B362463652ECF71D3A8B1A7D1BE65DE1D62C44F22C317D35F574FEB16153BA2D13E543D10A80E74C4A65E78A6B7CBCBD1D5DD9DB59C2DAFACC96C3AB566E3F1C29ADCDD5DBAD7D3C9ED7C822ED74F80A6
310
41755310DE4443F44A9E68373FADF6596BFA0F440AE7BECE2727AE9F4F2B1B53B1E7E00CF0DD1E5C65454A339A4BA2D0FBA05ED2EF0443458F47BDBFCA484CCFE0F2ED7E3DD0013B679C7B5499467F0ECEEADDB9CA85A34CE44B99053949D2C1416DB85DE4B136BB7165FBAC0B7AB3542BED4F8CA182A549847A1319316519
310
95A83A67147B9E5101C47487F2485F1ECE38FD568F839204296D3479219888530154036E6528FBFBC66F98E0D4107563A2D7D9AFF8D389681A08F58D89F22693900A3B407754734FC51C10C010D6D640809EE4718AC1BA3ED4AEDB53CA37283F68805A7E4B72CEB0A4EDEAD5DD8C14059A76AFAA56BA6901E13F32BC51C720
310
12AF41295B5BF61BAD3195181FB506E6B40F4C10AF5AF40EF9F5B159AE5DD1F43C72D635E94310D45C2D49785C5D0B94D3B54AB3C5A38349C0587D338AB48C11CBF339599C02CCA54A70A008A8D03C0B2201D5F9EFCF8F9CE12A9A19CB0410789EB32C63B95ECCF455D658BFE0621A3DA32C5075FB101723D77DAE867E7D0F
310
D90444509B44E2151B4DC2290B065803200FBAA9BE9D392A0603F2D5C2D00D6302A615680F66D2FA166E2079D4C551A54AB758161FCEFD4E450A14704CECFEDF504B0304140006080000B670623B000000000000000000000000350000006662782F38353834323741342D343835462D343034322D383541392D4331303331
310
363839454531452F76657274696365732E62696E504B0304140006080800B670623BF270F1330600000004000000360000006662782F38353834323741342D343835462D343034322D383541392D4331303331363839454531452F747269616E676C65732E62696E636660600000504B0304140006080000B670623B000000
310
000000000000000000370000006662782F38353834323741342D343835462D343034322D383541392D4331303331363839454531452F617474726962757465732E62696E504B0304140006080800B670623B08DA0BD19000000041010000360000006662782F38353834323741342D343835462D343034322D383541392D43
310
31303331363839454531452F6469726563746F72792E786D6C858F410AC3201045AF22B36F53E9A60B35CBEEBAE80D244E44489C6234F4F835464A48035D0DF398FF9F8AF63D0E6CC63039F212F8F9020C7D47C6792B21C5FE7403D62A1188E2E60C98D7234A5830286103A55745067B9D86B8A3CF9C7F90C11DE607FB1443
310
96D7B6A82D282E9A152AD114D5EF2CB866EEE831B8EEA07A7BB5A8D7D61A2BAAEB7FD5F70921FF497D00504B0304140006080800B670623BD9A3B367FE000000A00100003B0000006662782F38353834323741342D343835462D343034322D383541392D4331303331363839454531452F7265736F75726365732F636F7265
310
2E786D6C8D504B6E833010BD0A9A6D65B01D0201194711694FD00B586642AD043BF2A7EAF16B122AB5BB6E6646EFA3797AE2F8B5DC8A4FF4C1383B002B291468B59B8C9D0748F1420E501CA5F0CEC55F3228AC5A708015062966EFD27D83B4B3116DCCA875136EA00A012314FA968F0182FEC045952AC5AC08D7F2AEF455CD
310
58B232D3592745883E07289E4FD609D26370C96B0CA27AB252A464A64D63A6FCD35C0C7A904D73EE467EE664DCD58CD4ED4849D79C5A723ED1B7A61977AF2D6F45B59AA58866F9C9A83DAA8813484E6947182394BFB3BAA7FBBEDEBFD0434FA9A856F91F53BA4FFF342563E38E6F719FB60092E5200F428A6AED2BAF479979
310
AFDDCA6F504B010214000A0000080000B670623B3DEE336E79000000790000001B00000000000000000000000000000000006175746F6465736B2D64657369676E2D7061636B6167652E786D6C504B01021400140006080800B670623BD486FD9CA0000000F40000001300000000000000000000000000B20000005B436F6E
310
74656E745F54797065735D2E786D6C504B01021400140006080800B670623BCA089DFFEC0000007C010000080000000000000000000000000083010000636F72652E786D6C504B01021400140006080800B670623B55019EA25F0000007C000000070000000000000000000000000095020000636E782E786D6C504B010214
310
00140006080800B670623B68FC0B7272010000D40300000C00000000000000000000000000190300006662782F636F72652E786D6C504B01021400140006080800B670623B0F71DDB67E0000009D0000000B00000000000000000000000000B50400006662782F636E782E786D6C504B01021400140006080800B670623BE1
310
34B4FB280100001202000031000000000000000000000000005C0500006662782F38353834323741342D343835462D343034322D383541392D4331303331363839454531452F636F72652E786D6C504B01021400140006080800B670623B1B8617914E010000330300003000000000000000000000000000D3060000666278
310
2F38353834323741342D343835462D343034322D383541392D4331303331363839454531452F636E782E786D6C504B01021400140006080800B670623B5933D422630500003B10000034000000000000000000000000006F0800006662782F38353834323741342D343835462D343034322D383541392D4331303331363839
310
454531452F6F626A656374732E786D6C504B01021400140006080000B670623B0000000000000000000000003500000000000000000000000000240E00006662782F38353834323741342D343835462D343034322D383541392D4331303331363839454531452F76657274696365732E62696E504B01021400140006080800
310
B670623BF270F13306000000040000003600000000000000000000000000770E00006662782F38353834323741342D343835462D343034322D383541392D4331303331363839454531452F747269616E676C65732E62696E504B01021400140006080000B670623B0000000000000000000000003700000000000000000000
310
000000D10E00006662782F38353834323741342D343835462D343034322D383541392D4331303331363839454531452F617474726962757465732E62696E504B01021400140006080800B670623B08DA0BD190000000410100003600000000000000000000000000260F00006662782F38353834323741342D343835462D34
310
3034322D383541392D4331303331363839454531452F6469726563746F72792E786D6C504B01021400140006080800B670623BD9A3B367FE000000A00100003B000000000000000000000000000A1000006662782F38353834323741342D343835462D343034322D383541392D4331303331363839454531452F7265736F75
310
726365732F636F72652E786D6C504B0506000000000E000E0080040000611100000000
  0
XRECORD
  5
113
102
{ACAD_REACTORS
330
110
102
}
330
110
100
AcDbXrecord
280
     1
270
     1
271
     1
  0
XRECORD
  5
114
102
{ACAD_REACTORS
330
110
102
}
330
110
100
AcDbXrecord
280
     1
270
     1
271
     1
  0
XRECORD
  5
4B2
102
{ACAD_REACTORS
330
1C4
102
}
330
1C4
100
AcDbXrecord
280
     1
102
DISPLAYNAME
  1
Imperial24
102
FLAGS
 90
        0
  0
CELLSTYLEMAP
  5
474
102
{ACAD_REACTORS
330
104
102
}
330
104
100
AcDbCellStyleMap
 90
        3
300
CELLSTYLE
  1
TABLEFORMAT_BEGIN
 90
        5
170
     1
 91
        0
 92
    32768
 62
   257
 93
        1
300
CONTENTFORMAT
  1
CONTENTFORMAT_BEGIN
 90
        0
 91
        0
 92
      512
 93
        0
300

 40
0.0
140
1.0
 94
        5
 62
     0
340
11
144
0.25
309
CONTENTFORMAT_END
171
     1
301
MARGIN
  1
CELLMARGIN_BEGIN
 40
0.06
 40
0.06
 40
0.06
 40
0.06
 40
0.18
 40
0.18
309
CELLMARGIN_END
 94
        6
 95
        1
302
GRIDFORMAT
  1
GRIDFORMAT_BEGIN
 90
        0
 91
        1
 62
     0
 92
       -2
340
0
 93
        0
 40
0.045
309
GRIDFORMAT_END
 95
        2
302
GRIDFORMAT
  1
GRIDFORMAT_BEGIN
 90
        0
 91
        1
 62
     0
 92
       -2
340
0
 93
        0
 40
0.045
309
GRIDFORMAT_END
 95
        4
302
GRIDFORMAT
  1
GRIDFORMAT_BEGIN
 90
        0
 91
        1
 62
     0
 92
       -2
340
0
 93
        0
 40
0.045
309
GRIDFORMAT_END
 95
        8
302
GRIDFORMAT
  1
GRIDFORMAT_BEGIN
 90
        0
 91
        1
 62
     0
 92
       -2
340
0
 93
        0
 40
0.045
309
GRIDFORMAT_END
 95
       16
302
GRIDFORMAT
  1
GRIDFORMAT_BEGIN
 90
        0
 91
        1
 62
     0
 92
       -2
340
0
 93
        0
 40
0.045
309
GRIDFORMAT_END
 95
       32
302
GRIDFORMAT
  1
GRIDFORMAT_BEGIN
 90
        0
 91
        1
 62
     0
 92
       -2
340
0
 93
        0
 40
0.045
309
GRIDFORMAT_END
309
TABLEFORMAT_END
  1
CELLSTYLE_BEGIN
 90
        1
 91
        1
300
_TITLE
309
CELLSTYLE_END
300
CELLSTYLE
  1
TABLEFORMAT_BEGIN
 90
        5
170
     1
 91
        0
 92
        0
 62
   257
 93
        1
300
CONTENTFORMAT
  1
CONTENTFORMAT_BEGIN
 90
        0
 91
        0
 92
      512
 93
        0
300

 40
0.0
140
1.0
 94
        5
 62
     0
340
11
144
0.18
309
CONTENTFORMAT_END
171
     1
301
MARGIN
  1
CELLMARGIN_BEGIN
 40
0.06
 40
0.06
 40
0.06
 40
0.06
 40
0.18
 40
0.18
309
CELLMARGIN_END
 94
        6
 95
        1
302
GRIDFORMAT
  1
GRIDFORMAT_BEGIN
 90
        0
 91
        1
 62
     0
 92
       -2
340
0
 93
        0
 40
0.045
309
GRIDFORMAT_END
 95
        2
302
GRIDFORMAT
  1
GRIDFORMAT_BEGIN
 90
        0
 91
        1
 62
     0
 92
       -2
340
0
 93
        0
 40
0.045
309
GRIDFORMAT_END
 95
        4
302
GRIDFORMAT
  1
GRIDFORMAT_BEGIN
 90
        0
 91
        1
 62
     0
 92
       -2
340
0
 93
        0
 40
0.045
309
GRIDFORMAT_END
 95
        8
302
GRIDFORMAT
  1
GRIDFORMAT_BEGIN
 90
        0
 91
        1
 62
     0
 92
       -2
340
0
 93
        0
 40
0.045
309
GRIDFORMAT_END
 95
       16
302
GRIDFORMAT
  1
GRIDFORMAT_BEGIN
 90
        0
 91
        1
 62
     0
 92
       -2
340
0
 93
        0
 40
0.045
309
GRIDFORMAT_END
 95
       32
302
GRIDFORMAT
  1
GRIDFORMAT_BEGIN
 90
        0
 91
        1
 62
     0
 92
       -2
340
0
 93
        0
 40
0.045
309
GRIDFORMAT_END
309
TABLEFORMAT_END
  1
CELLSTYLE_BEGIN
 90
        2
 91
        1
300
_HEADER
309
CELLSTYLE_END
300
CELLSTYLE
  1
TABLEFORMAT_BEGIN
 90
        5
170
     1
 91
        0
 92
        0
 62
   257
 93
        1
300
CONTENTFORMAT
  1
CONTENTFORMAT_BEGIN
 90
        0
 91
        0
 92
      512
 93
        0
300

 40
0.0
140
1.0
 94
        2
 62
     0
340
11
144
0.18
309
CONTENTFORMAT_END
171
     1
301
MARGIN
  1
CELLMARGIN_BEGIN
 40
0.06
 40
0.06
 40
0.06
 40
0.06
 40
0.18
 40
0.18
309
CELLMARGIN_END
 94
        6
 95
        1
302
GRIDFORMAT
  1
GRIDFORMAT_BEGIN
 90
        0
 91
        1
 62
     0
 92
       -2
340
0
 93
        0
 40
0.045
309
GRIDFORMAT_END
 95
        2
302
GRIDFORMAT
  1
GRIDFORMAT_BEGIN
 90
        0
 91
        1
 62
     0
 92
       -2
340
0
 93
        0
 40
0.045
309
GRIDFORMAT_END
 95
        4
302
GRIDFORMAT
  1
GRIDFORMAT_BEGIN
 90
        0
 91
        1
 62
     0
 92
       -2
340
0
 93
        0
 40
0.045
309
GRIDFORMAT_END
 95
        8
302
GRIDFORMAT
  1
GRIDFORMAT_BEGIN
 90
        0
 91
        1
 62
     0
 92
       -2
340
0
 93
        0
 40
0.045
309
GRIDFORMAT_END
 95
       16
302
GRIDFORMAT
  1
GRIDFORMAT_BEGIN
 90
        0
 91
        1
 62
     0
 92
       -2
340
0
 93
        0
 40
0.045
309
GRIDFORMAT_END
 95
       32
302
GRIDFORMAT
  1
GRIDFORMAT_BEGIN
 90
        0
 91
        1
 62
     0
 92
       -2
340
0
 93
        0
 40
0.045
309
GRIDFORMAT_END
309
TABLEFORMAT_END
  1
CELLSTYLE_BEGIN
 90
        3
 91
        2
300
_DATA
309
CELLSTYLE_END
  0
XRECORD
  5
47E
102
{ACAD_REACTORS
330
104
102
}
330
104
100
AcDbXrecord
280
     1
102
ACAD_ROUNDTRIP_PRE2007_TABLESTYLE
 90
      512
 91
        0
  1

 92
      512
 93
        0
  2

 94
      512
 95
        0
  3

  0
XRECORD
  5
48D
102
{ACAD_REACTORS
330
48C
102
}
330
48C
100
AcDbXrecord
280
     1
102
RTVSPost2010Prop28
280
     1
102
RTVSPost2010PropOp28
 70
     1
102
RTVSPost2010Prop29
280
     1
102
RTVSPost2010PropOp29
 70
     1
102
RTVSPost2010Prop30
280
     0
102
RTVSPost2010PropOp30
 70
     1
102
RTVSPost2010Prop31
280
     0
102
RTVSPost2010PropOp31
 70
     1
102
RTVSPost2010Prop32
280
     0
102
RTVSPost2010PropOp32
 70
     1
102
RTVSPost2010Prop33
280
     0
102
RTVSPost2010PropOp33
 70
     1
102
RTVSPost2010Prop34
280
     0
102
RTVSPost2010PropOp34
 70
     1
102
RTVSPost2010Prop35
280
     0
102
RTVSPost2010PropOp35
 70
     1
102
RTVSPost2010Prop36
280
     0
102
RTVSPost2010PropOp36
 70
     1
102
RTVSPost2010Prop37
 90
       50
102
RTVSPost2010PropOp37
 70
     1
102
RTVSPost2010Prop38
140
0.0
102
RTVSPost2010PropOp38
 70
     1
102
RTVSPost2010Prop39
140
1.0
102
RTVSPost2010PropOp39
 70
     1
102
RTVSPost2010Prop40
 90
        0
102
RTVSPost2010PropOp40
 70
     1
102
RTVSPost2010Prop41ColorIndex
 90
       18
102
RTVSPost2010Prop41ColorRGB
 90
        0
102
RTVSPost2010PropOp41
 70
     1
102
RTVSPost2010Prop42
 90
       50
102
RTVSPost2010PropOp42
 70
     1
102
RTVSPost2010Prop43
 90
        3
102
RTVSPost2010PropOp43
 70
     1
102
RTVSPost2010Prop44ColorIndex
 90
        5
102
RTVSPost2010Prop44ColorRGB
 90
      255
102
RTVSPost2010PropOp44
 70
     1
102
RTVSPost2010Prop45
280
     0
102
RTVSPost2010PropOp45
 70
     1
102
RTVSPost2010Prop46
 90
       50
102
RTVSPost2010PropOp46
 70
     1
102
RTVSPost2010Prop47
 90
       50
102
RTVSPost2010PropOp47
 70
     1
102
RTVSPost2010Prop48
 90
       50
102
RTVSPost2010PropOp48
 70
     1
102
RTVSPost2010Prop49
280
     0
102
RTVSPost2010PropOp49
 70
     1
102
RTVSPost2010Prop50
 90
       50
102
RTVSPost2010PropOp50
 70
     1
102
RTVSPost2010Prop51ColorIndex
 90
      256
102
RTVSPost2010Prop51ColorRGB
 90
-16777216
102
RTVSPost2010PropOp51
 70
     0
102
RTVSPost2010Prop52
140
1.0
102
RTVSPost2010PropOp52
 70
     0
102
RTVSPost2010Prop53
 90
        2
102
RTVSPost2010PropOp53
 70
     1
102
RTVSPost2010Prop54
  1
strokes_ogs.tif
102
RTVSPost2010PropOp54
 70
     1
102
RTVSPost2010Prop55
280
     0
102
RTVSPost2010PropOp55
 70
     1
102
RTVSPost2010Prop56
140
1.0
102
RTVSPost2010PropOp56
 70
     1
102
RTVSPost2010Prop57
140
1.0
102
RTVSPost2010PropOp57
 70
     1
102
RTVSPropertyOp0
 70
     1
102
RTVSPropertyOp1
 70
     1
102
RTVSPropertyOp2
 70
     1
102
RTVSPropertyOp3
 70
     1
102
RTVSPropertyOp4
 70
     1
102
RTVSPropertyOp5
 70
     1
102
RTVSPropertyOp6
 70
     1
102
RTVSPropertyOp7
 70
     1
102
RTVSPropertyOp8
 70
     1
102
RTVSPropertyOp9
 70
     1
102
RTVSPropertyOp10
 70
     1
102
RTVSPropertyOp11
 70
     1
102
RTVSPropertyOp12
 70
     1
102
RTVSPropertyOp13
 70
     1
102
RTVSPropertyOp14
 70
     1
102
RTVSPropertyOp15
 70
     1
102
RTVSPropertyOp16
 70
     1
102
RTVSPropertyOp17
 70
     1
102
RTVSPropertyOp18
 70
     1
102
RTVSPropertyOp19
 70
     1
102
RTVSPropertyOp20
 70
     1
102
RTVSPropertyOp21
 70
     1
102
RTVSPropertyOp22
 70
     1
102
RTVSPropertyOp23
 70
     1
102
RTVSPropertyOp24
 70
     1
102
RTVSPropertyOp25
 70
     1
102
RTVSPropertyOp26
 70
     1
102
RTVSPropertyOp27
 70
     1
102
RTVSPropertyOp28
 70
     1
102
RTVSPropertyOp29
 70
     1
102
RTVSPropertyOp30
 70
     1
102
RTVSPropertyOp31
 70
     1
102
RTVSPropertyOp32
 70
     1
102
RTVSPropertyOp33
 70
     1
102
RTVSPropertyOp34
 70
     1
102
RTVSPropertyOp35
 70
     1
102
RTVSPropertyOp36
 70
     1
102
RTVSPropertyOp37
 70
     1
102
RTVSPropertyOp38
 70
     1
102
RTVSPropertyOp39
 70
     1
102
RTVSPropertyOp40
 70
     1
102
RTVSPropertyOp41
 70
     1
102
RTVSPropertyOp42
 70
     1
102
RTVSPropertyOp43
 70
     1
102
RTVSPropertyOp44
 70
     1
102
RTVSPropertyOp45
 70
     1
102
RTVSPropertyOp46
 70
     1
102
RTVSPropertyOp47
 70
     1
102
RTVSPropertyOp48
 70
     1
102
RTVSPropertyOp49
 70
     1
102
RTVSPropertyOp50
 70
     1
102
RTVSPropertyOp51
 70
     0
102
RTVSPropertyOp52
 70
     0
102
RTVSPropertyOp53
 70
     1
102
RTVSPropertyOp54
 70
     1
102
RTVSPropertyOp55
 70
     1
102
RTVSPropertyOp56
 70
     1
102
RTVSPropertyOp57
 70
     1
102
RTVSPropertyOp58
 70
     1
102
RTVSPropertyOp59
 70
     1
102
RTVSPropertyOp60
 70
     1
102
RTVSPropertyOp61
 70
     1
102
RTVSPropertyOp62
 70
     1
  0
XRECORD
  5
48B
102
{ACAD_REACTORS
330
48A
102
}
330
48A
100
AcDbXrecord
280
     1
102
RTVSPost2010Prop28
280
     0
102
RTVSPost2010PropOp28
 70
     1
102
RTVSPost2010Prop29
280
     1
102
RTVSPost2010PropOp29
 70
     1
102
RTVSPost2010Prop30
280
     1
102
RTVSPost2010PropOp30
 70
     1
102
RTVSPost2010Prop31
280
     0
102
RTVSPost2010PropOp31
 70
     1
102
RTVSPost2010Prop32
280
     0
102
RTVSPost2010PropOp32
 70
     1
102
RTVSPost2010Prop33
280
     0
102
RTVSPost2010PropOp33
 70
     1
102
RTVSPost2010Prop34
280
     0
102
RTVSPost2010PropOp34
 70
     1
102
RTVSPost2010Prop35
280
     0
102
RTVSPost2010PropOp35
 70
     1
102
RTVSPost2010Prop36
280
     0
102
RTVSPost2010PropOp36
 70
     1
102
RTVSPost2010Prop37
 90
       50
102
RTVSPost2010PropOp37
 70
     1
102
RTVSPost2010Prop38
140
0.0
102
RTVSPost2010PropOp38
 70
     1
102
RTVSPost2010Prop39
140
1.0
102
RTVSPost2010PropOp39
 70
     1
102
RTVSPost2010Prop40
 90
        0
102
RTVSPost2010PropOp40
 70
     1
102
RTVSPost2010Prop41ColorIndex
 90
       18
102
RTVSPost2010Prop41ColorRGB
 90
        0
102
RTVSPost2010PropOp41
 70
     1
102
RTVSPost2010Prop42
 90
       50
102
RTVSPost2010PropOp42
 70
     1
102
RTVSPost2010Prop43
 90
        3
102
RTVSPost2010PropOp43
 70
     1
102
RTVSPost2010Prop44ColorIndex
 90
        5
102
RTVSPost2010Prop44ColorRGB
 90
      255
102
RTVSPost2010PropOp44
 70
     1
102
RTVSPost2010Prop45
280
     0
102
RTVSPost2010PropOp45
 70
     1
102
RTVSPost2010Prop46
 90
       50
102
RTVSPost2010PropOp46
 70
     1
102
RTVSPost2010Prop47
 90
       50
102
RTVSPost2010PropOp47
 70
     1
102
RTVSPost2010Prop48
 90
       50
102
RTVSPost2010PropOp48
 70
     1
102
RTVSPost2010Prop49
280
     0
102
RTVSPost2010PropOp49
 70
     1
102
RTVSPost2010Prop50
 90
       50
102
RTVSPost2010PropOp50
 70
     1
102
RTVSPost2010Prop51ColorIndex
 90
      256
102
RTVSPost2010Prop51ColorRGB
 90
-16777216
102
RTVSPost2010PropOp51
 70
     0
102
RTVSPost2010Prop52
140
1.0
102
RTVSPost2010PropOp52
 70
     0
102
RTVSPost2010Prop53
 90
        2
102
RTVSPost2010PropOp53
 70
     1
102
RTVSPost2010Prop54
  1
strokes_ogs.tif
102
RTVSPost2010PropOp54
 70
     1
102
RTVSPost2010Prop55
280
     0
102
RTVSPost2010PropOp55
 70
     1
102
RTVSPost2010Prop56
140
1.0
102
RTVSPost2010PropOp56
 70
     1
102
RTVSPost2010Prop57
140
1.0
102
RTVSPost2010PropOp57
 70
     1
102
RTVSPropertyOp0
 70
     1
102
RTVSPropertyOp1
 70
     1
102
RTVSPropertyOp2
 70
     1
102
RTVSPropertyOp3
 70
     1
102
RTVSPropertyOp4
 70
     1
102
RTVSPropertyOp5
 70
     1
102
RTVSPropertyOp6
 70
     1
102
RTVSPropertyOp7
 70
     1
102
RTVSPropertyOp8
 70
     1
102
RTVSPropertyOp9
 70
     1
102
RTVSPropertyOp10
 70
     1
102
RTVSPropertyOp11
 70
     1
102
RTVSPropertyOp12
 70
     1
102
RTVSPropertyOp13
 70
     1
102
RTVSPropertyOp14
 70
     1
102
RTVSPropertyOp15
 70
     1
102
RTVSPropertyOp16
 70
     1
102
RTVSPropertyOp17
 70
     1
102
RTVSPropertyOp18
 70
     1
102
RTVSPropertyOp19
 70
     1
102
RTVSPropertyOp20
 70
     1
102
RTVSPropertyOp21
 70
     1
102
RTVSPropertyOp22
 70
     1
102
RTVSPropertyOp23
 70
     1
102
RTVSPropertyOp24
 70
     1
102
RTVSPropertyOp25
 70
     1
102
RTVSPropertyOp26
 70
     1
102
RTVSPropertyOp27
 70
     1
102
RTVSPropertyOp28
 70
     1
102
RTVSPropertyOp29
 70
     1
102
RTVSPropertyOp30
 70
     1
102
RTVSPropertyOp31
 70
     1
102
RTVSPropertyOp32
 70
     1
102
RTVSPropertyOp33
 70
     1
102
RTVSPropertyOp34
 70
     1
102
RTVSPropertyOp35
 70
     1
102
RTVSPropertyOp36
 70
     1
102
RTVSPropertyOp37
 70
     1
102
RTVSPropertyOp38
 70
     1
102
RTVSPropertyOp39
 70
     1
102
RTVSPropertyOp40
 70
     1
102
RTVSPropertyOp41
 70
     1
102
RTVSPropertyOp42
 70
     1
102
RTVSPropertyOp43
 70
     1
102
RTVSPropertyOp44
 70
     1
102
RTVSPropertyOp45
 70
     1
102
RTVSPropertyOp46
 70
     1
102
RTVSPropertyOp47
 70
     1
102
RTVSPropertyOp48
 70
     1
102
RTVSPropertyOp49
 70
     1
102
RTVSPropertyOp50
 70
     1
102
RTVSPropertyOp51
 70
     0
102
RTVSPropertyOp52
 70
     0
102
RTVSPropertyOp53
 70
     1
102
RTVSPropertyOp54
 70
     1
102
RTVSPropertyOp55
 70
     1
102
RTVSPropertyOp56
 70
     1
102
RTVSPropertyOp57
 70
     1
102
RTVSPropertyOp58
 70
     1
102
RTVSPropertyOp59
 70
     1
102
RTVSPropertyOp60
 70
     1
102
RTVSPropertyOp61
 70
     1
102
RTVSPropertyOp62
 70
     1
  0
XRECORD
  5
499
102
{ACAD_REACTORS
330
498
102
}
330
498
100
AcDbXrecord
280
     1
102
RTVSPost2010Prop28
280
     0
102
RTVSPost2010PropOp28
 70
     1
102
RTVSPost2010Prop29
280
     1
102
RTVSPost2010PropOp29
 70
     1
102
RTVSPost2010Prop30
280
     1
102
RTVSPost2010PropOp30
 70
     1
102
RTVSPost2010Prop31
280
     0
102
RTVSPost2010PropOp31
 70
     1
102
RTVSPost2010Prop32
280
     0
102
RTVSPost2010PropOp32
 70
     1
102
RTVSPost2010Prop33
280
     0
102
RTVSPost2010PropOp33
 70
     1
102
RTVSPost2010Prop34
280
     0
102
RTVSPost2010PropOp34
 70
     1
102
RTVSPost2010Prop35
280
     0
102
RTVSPost2010PropOp35
 70
     1
102
RTVSPost2010Prop36
280
     0
102
RTVSPost2010PropOp36
 70
     1
102
RTVSPost2010Prop37
 90
       50
102
RTVSPost2010PropOp37
 70
     1
102
RTVSPost2010Prop38
140
0.0
102
RTVSPost2010PropOp38
 70
     1
102
RTVSPost2010Prop39
140
1.0
102
RTVSPost2010PropOp39
 70
     1
102
RTVSPost2010Prop40
 90
        0
102
RTVSPost2010PropOp40
 70
     1
102
RTVSPost2010Prop41ColorIndex
 90
       18
102
RTVSPost2010Prop41ColorRGB
 90
        0
102
RTVSPost2010PropOp41
 70
     1
102
RTVSPost2010Prop42
 90
       50
102
RTVSPost2010PropOp42
 70
     1
102
RTVSPost2010Prop43
 90
        3
102
RTVSPost2010PropOp43
 70
     1
102
RTVSPost2010Prop44ColorIndex
 90
        5
102
RTVSPost2010Prop44ColorRGB
 90
      255
102
RTVSPost2010PropOp44
 70
     1
102
RTVSPost2010Prop45
280
     0
102
RTVSPost2010PropOp45
 70
     1
102
RTVSPost2010Prop46
 90
       50
102
RTVSPost2010PropOp46
 70
     1
102
RTVSPost2010Prop47
 90
       50
102
RTVSPost2010PropOp47
 70
     1
102
RTVSPost2010Prop48
 90
       50
102
RTVSPost2010PropOp48
 70
     1
102
RTVSPost2010Prop49
280
     0
102
RTVSPost2010PropOp49
 70
     1
102
RTVSPost2010Prop50
 90
       50
102
RTVSPost2010PropOp50
 70
     1
102
RTVSPost2010Prop51ColorIndex
 90
      256
102
RTVSPost2010Prop51ColorRGB
 90
-16777216
102
RTVSPost2010PropOp51
 70
     0
102
RTVSPost2010Prop52
140
1.0
102
RTVSPost2010PropOp52
 70
     0
102
RTVSPost2010Prop53
 90
        2
102
RTVSPost2010PropOp53
 70
     1
102
RTVSPost2010Prop54
  1
strokes_ogs.tif
102
RTVSPost2010PropOp54
 70
     1
102
RTVSPost2010Prop55
280
     0
102
RTVSPost2010PropOp55
 70
     1
102
RTVSPost2010Prop56
140
1.0
102
RTVSPost2010PropOp56
 70
     1
102
RTVSPost2010Prop57
140
1.0
102
RTVSPost2010PropOp57
 70
     1
102
RTVSPropertyOp0
 70
     1
102
RTVSPropertyOp1
 70
     1
102
RTVSPropertyOp2
 70
     1
102
RTVSPropertyOp3
 70
     1
102
RTVSPropertyOp4
 70
     1
102
RTVSPropertyOp5
 70
     1
102
RTVSPropertyOp6
 70
     1
102
RTVSPropertyOp7
 70
     1
102
RTVSPropertyOp8
 70
     1
102
RTVSPropertyOp9
 70
     1
102
RTVSPropertyOp10
 70
     1
102
RTVSPropertyOp11
 70
     1
102
RTVSPropertyOp12
 70
     1
102
RTVSPropertyOp13
 70
     1
102
RTVSPropertyOp14
 70
     1
102
RTVSPropertyOp15
 70
     1
102
RTVSPropertyOp16
 70
     1
102
RTVSPropertyOp17
 70
     1
102
RTVSPropertyOp18
 70
     1
102
RTVSPropertyOp19
 70
     1
102
RTVSPropertyOp20
 70
     1
102
RTVSPropertyOp21
 70
     1
102
RTVSPropertyOp22
 70
     1
102
RTVSPropertyOp23
 70
     1
102
RTVSPropertyOp24
 70
     1
102
RTVSPropertyOp25
 70
     1
102
RTVSPropertyOp26
 70
     1
102
RTVSPropertyOp27
 70
     1
102
RTVSPropertyOp28
 70
     1
102
RTVSPropertyOp29
 70
     1
102
RTVSPropertyOp30
 70
     1
102
RTVSPropertyOp31
 70
     1
102
RTVSPropertyOp32
 70
     1
102
RTVSPropertyOp33
 70
     1
102
RTVSPropertyOp34
 70
     1
102
RTVSPropertyOp35
 70
     1
102
RTVSPropertyOp36
 70
     1
102
RTVSPropertyOp37
 70
     1
102
RTVSPropertyOp38
 70
     1
102
RTVSPropertyOp39
 70
     1
102
RTVSPropertyOp40
 70
     1
102
RTVSPropertyOp41
 70
     1
102
RTVSPropertyOp42
 70
     1
102
RTVSPropertyOp43
 70
     1
102
RTVSPropertyOp44
 70
     1
102
RTVSPropertyOp45
 70
     1
102
RTVSPropertyOp46
 70
     1
102
RTVSPropertyOp47
 70
     1
102
RTVSPropertyOp48
 70
     1
102
RTVSPropertyOp49
 70
     1
102
RTVSPropertyOp50
 70
     1
102
RTVSPropertyOp51
 70
     0
102
RTVSPropertyOp52
 70
     0
102
RTVSPropertyOp53
 70
     1
102
RTVSPropertyOp54
 70
     1
102
RTVSPropertyOp55
 70
     1
102
RTVSPropertyOp56
 70
     1
102
RTVSPropertyOp57
 70
     1
102
RTVSPropertyOp58
 70
     1
102
RTVSPropertyOp59
 70
     1
102
RTVSPropertyOp60
 70
     1
102
RTVSPropertyOp61
 70
     1
102
RTVSPropertyOp62
 70
     1
  0
XRECORD
  5
4A1
102
{ACAD_REACTORS
330
4A0
102
}
330
4A0
100
AcDbXrecord
280
     1
102
RTVSPost2010Prop28
280
     0
102
RTVSPost2010PropOp28
 70
     1
102
RTVSPost2010Prop29
280
     1
102
RTVSPost2010PropOp29
 70
     1
102
RTVSPost2010Prop30
280
     1
102
RTVSPost2010PropOp30
 70
     1
102
RTVSPost2010Prop31
280
     0
102
RTVSPost2010PropOp31
 70
     1
102
RTVSPost2010Prop32
280
     0
102
RTVSPost2010PropOp32
 70
     1
102
RTVSPost2010Prop33
280
     0
102
RTVSPost2010PropOp33
 70
     1
102
RTVSPost2010Prop34
280
     0
102
RTVSPost2010PropOp34
 70
     1
102
RTVSPost2010Prop35
280
     0
102
RTVSPost2010PropOp35
 70
     1
102
RTVSPost2010Prop36
280
     0
102
RTVSPost2010PropOp36
 70
     1
102
RTVSPost2010Prop37
 90
       50
102
RTVSPost2010PropOp37
 70
     1
102
RTVSPost2010Prop38
140
0.0
102
RTVSPost2010PropOp38
 70
     1
102
RTVSPost2010Prop39
140
1.0
102
RTVSPost2010PropOp39
 70
     1
102
RTVSPost2010Prop40
 90
        0
102
RTVSPost2010PropOp40
 70
     1
102
RTVSPost2010Prop41ColorIndex
 90
       18
102
RTVSPost2010Prop41ColorRGB
 90
        0
102
RTVSPost2010PropOp41
 70
     1
102
RTVSPost2010Prop42
 90
       50
102
RTVSPost2010PropOp42
 70
     1
102
RTVSPost2010Prop43
 90
        3
102
RTVSPost2010PropOp43
 70
     1
102
RTVSPost2010Prop44ColorIndex
 90
        5
102
RTVSPost2010Prop44ColorRGB
 90
      255
102
RTVSPost2010PropOp44
 70
     1
102
RTVSPost2010Prop45
280
     0
102
RTVSPost2010PropOp45
 70
     1
102
RTVSPost2010Prop46
 90
       50
102
RTVSPost2010PropOp46
 70
     1
102
RTVSPost2010Prop47
 90
       50
102
RTVSPost2010PropOp47
 70
     1
102
RTVSPost2010Prop48
 90
       50
102
RTVSPost2010PropOp48
 70
     1
102
RTVSPost2010Prop49
280
     0
102
RTVSPost2010PropOp49
 70
     1
102
RTVSPost2010Prop50
 90
       50
102
RTVSPost2010PropOp50
 70
     1
102
RTVSPost2010Prop51ColorIndex
 90
      256
102
RTVSPost2010Prop51ColorRGB
 90
-16777216
102
RTVSPost2010PropOp51
 70
     0
102
RTVSPost2010Prop52
140
1.0
102
RTVSPost2010PropOp52
 70
     0
102
RTVSPost2010Prop53
 90
        2
102
RTVSPost2010PropOp53
 70
     1
102
RTVSPost2010Prop54
  1
strokes_ogs.tif
102
RTVSPost2010PropOp54
 70
     1
102
RTVSPost2010Prop55
280
     0
102
RTVSPost2010PropOp55
 70
     1
102
RTVSPost2010Prop56
140
1.0
102
RTVSPost2010PropOp56
 70
     1
102
RTVSPost2010Prop57
140
1.0
102
RTVSPost2010PropOp57
 70
     1
102
RTVSPropertyOp0
 70
     1
102
RTVSPropertyOp1
 70
     1
102
RTVSPropertyOp2
 70
     1
102
RTVSPropertyOp3
 70
     1
102
RTVSPropertyOp4
 70
     1
102
RTVSPropertyOp5
 70
     1
102
RTVSPropertyOp6
 70
     1
102
RTVSPropertyOp7
 70
     1
102
RTVSPropertyOp8
 70
     1
102
RTVSPropertyOp9
 70
     1
102
RTVSPropertyOp10
 70
     1
102
RTVSPropertyOp11
 70
     1
102
RTVSPropertyOp12
 70
     1
102
RTVSPropertyOp13
 70
     1
102
RTVSPropertyOp14
 70
     1
102
RTVSPropertyOp15
 70
     1
102
RTVSPropertyOp16
 70
     1
102
RTVSPropertyOp17
 70
     1
102
RTVSPropertyOp18
 70
     1
102
RTVSPropertyOp19
 70
     1
102
RTVSPropertyOp20
 70
     1
102
RTVSPropertyOp21
 70
     1
102
RTVSPropertyOp22
 70
     1
102
RTVSPropertyOp23
 70
     1
102
RTVSPropertyOp24
 70
     1
102
RTVSPropertyOp25
 70
     1
102
RTVSPropertyOp26
 70
     1
102
RTVSPropertyOp27
 70
     1
102
RTVSPropertyOp28
 70
     1
102
RTVSPropertyOp29
 70
     1
102
RTVSPropertyOp30
 70
     1
102
RTVSPropertyOp31
 70
     1
102
RTVSPropertyOp32
 70
     1
102
RTVSPropertyOp33
 70
     1
102
RTVSPropertyOp34
 70
     1
102
RTVSPropertyOp35
 70
     1
102
RTVSPropertyOp36
 70
     1
102
RTVSPropertyOp37
 70
     1
102
RTVSPropertyOp38
 70
     1
102
RTVSPropertyOp39
 70
     1
102
RTVSPropertyOp40
 70
     1
102
RTVSPropertyOp41
 70
     1
102
RTVSPropertyOp42
 70
     1
102
RTVSPropertyOp43
 70
     1
102
RTVSPropertyOp44
 70
     1
102
RTVSPropertyOp45
 70
     1
102
RTVSPropertyOp46
 70
     1
102
RTVSPropertyOp47
 70
     1
102
RTVSPropertyOp48
 70
     1
102
RTVSPropertyOp49
 70
     1
102
RTVSPropertyOp50
 70
     1
102
RTVSPropertyOp51
 70
     0
102
RTVSPropertyOp52
 70
     0
102
RTVSPropertyOp53
 70
     1
102
RTVSPropertyOp54
 70
     1
102
RTVSPropertyOp55
 70
     1
102
RTVSPropertyOp56
 70
     1
102
RTVSPropertyOp57
 70
     1
102
RTVSPropertyOp58
 70
     1
102
RTVSPropertyOp59
 70
     1
102
RTVSPropertyOp60
 70
     1
102
RTVSPropertyOp61
 70
     1
102
RTVSPropertyOp62
 70
     1
  0
XRECORD
  5
493
102
{ACAD_REACTORS
330
492
102
}
330
492
100
AcDbXrecord
280
     1
102
RTVSPost2010Prop28
280
     0
102
RTVSPost2010PropOp28
 70
     1
102
RTVSPost2010Prop29
280
     1
102
RTVSPost2010PropOp29
 70
     1
102
RTVSPost2010Prop30
280
     1
102
RTVSPost2010PropOp30
 70
     1
102
RTVSPost2010Prop31
280
     0
102
RTVSPost2010PropOp31
 70
     1
102
RTVSPost2010Prop32
280
     0
102
RTVSPost2010PropOp32
 70
     1
102
RTVSPost2010Prop33
280
     0
102
RTVSPost2010PropOp33
 70
     1
102
RTVSPost2010Prop34
280
     0
102
RTVSPost2010PropOp34
 70
     1
102
RTVSPost2010Prop35
280
     0
102
RTVSPost2010PropOp35
 70
     1
102
RTVSPost2010Prop36
280
     0
102
RTVSPost2010PropOp36
 70
     1
102
RTVSPost2010Prop37
 90
       50
102
RTVSPost2010PropOp37
 70
     1
102
RTVSPost2010Prop38
140
0.0
102
RTVSPost2010PropOp38
 70
     1
102
RTVSPost2010Prop39
140
1.0
102
RTVSPost2010PropOp39
 70
     1
102
RTVSPost2010Prop40
 90
        0
102
RTVSPost2010PropOp40
 70
     1
102
RTVSPost2010Prop41ColorIndex
 90
       18
102
RTVSPost2010Prop41ColorRGB
 90
        0
102
RTVSPost2010PropOp41
 70
     1
102
RTVSPost2010Prop42
 90
       50
102
RTVSPost2010PropOp42
 70
     1
102
RTVSPost2010Prop43
 90
        3
102
RTVSPost2010PropOp43
 70
     1
102
RTVSPost2010Prop44ColorIndex
 90
        5
102
RTVSPost2010Prop44ColorRGB
 90
      255
102
RTVSPost2010PropOp44
 70
     1
102
RTVSPost2010Prop45
280
     0
102
RTVSPost2010PropOp45
 70
     1
102
RTVSPost2010Prop46
 90
       50
102
RTVSPost2010PropOp46
 70
     1
102
RTVSPost2010Prop47
 90
       50
102
RTVSPost2010PropOp47
 70
     1
102
RTVSPost2010Prop48
 90
       50
102
RTVSPost2010PropOp48
 70
     1
102
RTVSPost2010Prop49
280
     0
102
RTVSPost2010PropOp49
 70
     1
102
RTVSPost2010Prop50
 90
       50
102
RTVSPost2010PropOp50
 70
     1
102
RTVSPost2010Prop51ColorIndex
 90
      256
102
RTVSPost2010Prop51ColorRGB
 90
-16777216
102
RTVSPost2010PropOp51
 70
     0
102
RTVSPost2010Prop52
140
1.0
102
RTVSPost2010PropOp52
 70
     0
102
RTVSPost2010Prop53
 90
        2
102
RTVSPost2010PropOp53
 70
     1
102
RTVSPost2010Prop54
  1
strokes_ogs.tif
102
RTVSPost2010PropOp54
 70
     1
102
RTVSPost2010Prop55
280
     0
102
RTVSPost2010PropOp55
 70
     1
102
RTVSPost2010Prop56
140
1.0
102
RTVSPost2010PropOp56
 70
     1
102
RTVSPost2010Prop57
140
1.0
102
RTVSPost2010PropOp57
 70
     1
102
RTVSPropertyOp0
 70
     1
102
RTVSPropertyOp1
 70
     1
102
RTVSPropertyOp2
 70
     1
102
RTVSPropertyOp3
 70
     1
102
RTVSPropertyOp4
 70
     1
102
RTVSPropertyOp5
 70
     1
102
RTVSPropertyOp6
 70
     1
102
RTVSPropertyOp7
 70
     1
102
RTVSPropertyOp8
 70
     1
102
RTVSPropertyOp9
 70
     1
102
RTVSPropertyOp10
 70
     1
102
RTVSPropertyOp11
 70
     1
102
RTVSPropertyOp12
 70
     1
102
RTVSPropertyOp13
 70
     1
102
RTVSPropertyOp14
 70
     1
102
RTVSPropertyOp15
 70
     1
102
RTVSPropertyOp16
 70
     1
102
RTVSPropertyOp17
 70
     1
102
RTVSPropertyOp18
 70
     1
102
RTVSPropertyOp19
 70
     1
102
RTVSPropertyOp20
 70
     1
102
RTVSPropertyOp21
 70
     1
102
RTVSPropertyOp22
 70
     1
102
RTVSPropertyOp23
 70
     1
102
RTVSPropertyOp24
 70
     1
102
RTVSPropertyOp25
 70
     1
102
RTVSPropertyOp26
 70
     1
102
RTVSPropertyOp27
 70
     1
102
RTVSPropertyOp28
 70
     1
102
RTVSPropertyOp29
 70
     1
102
RTVSPropertyOp30
 70
     1
102
RTVSPropertyOp31
 70
     1
102
RTVSPropertyOp32
 70
     1
102
RTVSPropertyOp33
 70
     1
102
RTVSPropertyOp34
 70
     1
102
RTVSPropertyOp35
 70
     1
102
RTVSPropertyOp36
 70
     1
102
RTVSPropertyOp37
 70
     1
102
RTVSPropertyOp38
 70
     1
102
RTVSPropertyOp39
 70
     1
102
RTVSPropertyOp40
 70
     1
102
RTVSPropertyOp41
 70
     1
102
RTVSPropertyOp42
 70
     1
102
RTVSPropertyOp43
 70
     1
102
RTVSPropertyOp44
 70
     1
102
RTVSPropertyOp45
 70
     1
102
RTVSPropertyOp46
 70
     1
102
RTVSPropertyOp47
 70
     1
102
RTVSPropertyOp48
 70
     1
102
RTVSPropertyOp49
 70
     1
102
RTVSPropertyOp50
 70
     1
102
RTVSPropertyOp51
 70
     0
102
RTVSPropertyOp52
 70
     0
102
RTVSPropertyOp53
 70
     1
102
RTVSPropertyOp54
 70
     1
102
RTVSPropertyOp55
 70
     1
102
RTVSPropertyOp56
 70
     1
102
RTVSPropertyOp57
 70
     1
102
RTVSPropertyOp58
 70
     1
102
RTVSPropertyOp59
 70
     1
102
RTVSPropertyOp60
 70
     1
102
RTVSPropertyOp61
 70
     1
102
RTVSPropertyOp62
 70
     1
  0
XRECORD
  5
497
102
{ACAD_REACTORS
330
496
102
}
330
496
100
AcDbXrecord
280
     1
102
RTVSPost2010Prop28
280
     0
102
RTVSPost2010PropOp28
 70
     1
102
RTVSPost2010Prop29
280
     1
102
RTVSPost2010PropOp29
 70
     1
102
RTVSPost2010Prop30
280
     1
102
RTVSPost2010PropOp30
 70
     1
102
RTVSPost2010Prop31
280
     0
102
RTVSPost2010PropOp31
 70
     1
102
RTVSPost2010Prop32
280
     0
102
RTVSPost2010PropOp32
 70
     1
102
RTVSPost2010Prop33
280
     0
102
RTVSPost2010PropOp33
 70
     1
102
RTVSPost2010Prop34
280
     0
102
RTVSPost2010PropOp34
 70
     1
102
RTVSPost2010Prop35
280
     0
102
RTVSPost2010PropOp35
 70
     1
102
RTVSPost2010Prop36
280
     0
102
RTVSPost2010PropOp36
 70
     1
102
RTVSPost2010Prop37
 90
       50
102
RTVSPost2010PropOp37
 70
     1
102
RTVSPost2010Prop38
140
0.0
102
RTVSPost2010PropOp38
 70
     1
102
RTVSPost2010Prop39
140
1.0
102
RTVSPost2010PropOp39
 70
     1
102
RTVSPost2010Prop40
 90
        0
102
RTVSPost2010PropOp40
 70
     1
102
RTVSPost2010Prop41ColorIndex
 90
       18
102
RTVSPost2010Prop41ColorRGB
 90
        0
102
RTVSPost2010PropOp41
 70
     1
102
RTVSPost2010Prop42
 90
       50
102
RTVSPost2010PropOp42
 70
     1
102
RTVSPost2010Prop43
 90
        3
102
RTVSPost2010PropOp43
 70
     1
102
RTVSPost2010Prop44ColorIndex
 90
        5
102
RTVSPost2010Prop44ColorRGB
 90
      255
102
RTVSPost2010PropOp44
 70
     1
102
RTVSPost2010Prop45
280
     0
102
RTVSPost2010PropOp45
 70
     1
102
RTVSPost2010Prop46
 90
       50
102
RTVSPost2010PropOp46
 70
     1
102
RTVSPost2010Prop47
 90
       50
102
RTVSPost2010PropOp47
 70
     1
102
RTVSPost2010Prop48
 90
       50
102
RTVSPost2010PropOp48
 70
     1
102
RTVSPost2010Prop49
280
     0
102
RTVSPost2010PropOp49
 70
     1
102
RTVSPost2010Prop50
 90
       50
102
RTVSPost2010PropOp50
 70
     1
102
RTVSPost2010Prop51ColorIndex
 90
      256
102
RTVSPost2010Prop51ColorRGB
 90
-16777216
102
RTVSPost2010PropOp51
 70
     0
102
RTVSPost2010Prop52
140
1.0
102
RTVSPost2010PropOp52
 70
     0
102
RTVSPost2010Prop53
 90
        2
102
RTVSPost2010PropOp53
 70
     1
102
RTVSPost2010Prop54
  1
strokes_ogs.tif
102
RTVSPost2010PropOp54
 70
     1
102
RTVSPost2010Prop55
280
     0
102
RTVSPost2010PropOp55
 70
     1
102
RTVSPost2010Prop56
140
1.0
102
RTVSPost2010PropOp56
 70
     1
102
RTVSPost2010Prop57
140
1.0
102
RTVSPost2010PropOp57
 70
     1
102
RTVSPropertyOp0
 70
     1
102
RTVSPropertyOp1
 70
     1
102
RTVSPropertyOp2
 70
     1
102
RTVSPropertyOp3
 70
     1
102
RTVSPropertyOp4
 70
     1
102
RTVSPropertyOp5
 70
     1
102
RTVSPropertyOp6
 70
     1
102
RTVSPropertyOp7
 70
     1
102
RTVSPropertyOp8
 70
     1
102
RTVSPropertyOp9
 70
     1
102
RTVSPropertyOp10
 70
     1
102
RTVSPropertyOp11
 70
     1
102
RTVSPropertyOp12
 70
     1
102
RTVSPropertyOp13
 70
     1
102
RTVSPropertyOp14
 70
     1
102
RTVSPropertyOp15
 70
     1
102
RTVSPropertyOp16
 70
     1
102
RTVSPropertyOp17
 70
     1
102
RTVSPropertyOp18
 70
     1
102
RTVSPropertyOp19
 70
     1
102
RTVSPropertyOp20
 70
     1
102
RTVSPropertyOp21
 70
     1
102
RTVSPropertyOp22
 70
     1
102
RTVSPropertyOp23
 70
     1
102
RTVSPropertyOp24
 70
     1
102
RTVSPropertyOp25
 70
     1
102
RTVSPropertyOp26
 70
     1
102
RTVSPropertyOp27
 70
     1
102
RTVSPropertyOp28
 70
     1
102
RTVSPropertyOp29
 70
     1
102
RTVSPropertyOp30
 70
     1
102
RTVSPropertyOp31
 70
     1
102
RTVSPropertyOp32
 70
     1
102
RTVSPropertyOp33
 70
     1
102
RTVSPropertyOp34
 70
     1
102
RTVSPropertyOp35
 70
     1
102
RTVSPropertyOp36
 70
     1
102
RTVSPropertyOp37
 70
     1
102
RTVSPropertyOp38
 70
     1
102
RTVSPropertyOp39
 70
     1
102
RTVSPropertyOp40
 70
     1
102
RTVSPropertyOp41
 70
     1
102
RTVSPropertyOp42
 70
     1
102
RTVSPropertyOp43
 70
     1
102
RTVSPropertyOp44
 70
     1
102
RTVSPropertyOp45
 70
     1
102
RTVSPropertyOp46
 70
     1
102
RTVSPropertyOp47
 70
     1
102
RTVSPropertyOp48
 70
     1
102
RTVSPropertyOp49
 70
     1
102
RTVSPropertyOp50
 70
     1
102
RTVSPropertyOp51
 70
     0
102
RTVSPropertyOp52
 70
     0
102
RTVSPropertyOp53
 70
     1
102
RTVSPropertyOp54
 70
     1
102
RTVSPropertyOp55
 70
     1
102
RTVSPropertyOp56
 70
     1
102
RTVSPropertyOp57
 70
     1
102
RTVSPropertyOp58
 70
     1
102
RTVSPropertyOp59
 70
     1
102
RTVSPropertyOp60
 70
     1
102
RTVSPropertyOp61
 70
     1
102
RTVSPropertyOp62
 70
     1
  0
XRECORD
  5
4A7
102
{ACAD_REACTORS
330
4A6
102
}
330
4A6
100
AcDbXrecord
280
     1
102
RTVSPost2010Prop28
280
     0
102
RTVSPost2010PropOp28
 70
     1
102
RTVSPost2010Prop29
280
     1
102
RTVSPost2010PropOp29
 70
     1
102
RTVSPost2010Prop30
280
     1
102
RTVSPost2010PropOp30
 70
     1
102
RTVSPost2010Prop31
280
     0
102
RTVSPost2010PropOp31
 70
     1
102
RTVSPost2010Prop32
280
     0
102
RTVSPost2010PropOp32
 70
     1
102
RTVSPost2010Prop33
280
     0
102
RTVSPost2010PropOp33
 70
     1
102
RTVSPost2010Prop34
280
     0
102
RTVSPost2010PropOp34
 70
     1
102
RTVSPost2010Prop35
280
     0
102
RTVSPost2010PropOp35
 70
     1
102
RTVSPost2010Prop36
280
     0
102
RTVSPost2010PropOp36
 70
     1
102
RTVSPost2010Prop37
 90
       50
102
RTVSPost2010PropOp37
 70
     1
102
RTVSPost2010Prop38
140
0.0
102
RTVSPost2010PropOp38
 70
     1
102
RTVSPost2010Prop39
140
1.0
102
RTVSPost2010PropOp39
 70
     1
102
RTVSPost2010Prop40
 90
        0
102
RTVSPost2010PropOp40
 70
     1
102
RTVSPost2010Prop41ColorIndex
 90
       18
102
RTVSPost2010Prop41ColorRGB
 90
        0
102
RTVSPost2010PropOp41
 70
     1
102
RTVSPost2010Prop42
 90
       50
102
RTVSPost2010PropOp42
 70
     1
102
RTVSPost2010Prop43
 90
        3
102
RTVSPost2010PropOp43
 70
     1
102
RTVSPost2010Prop44ColorIndex
 90
        5
102
RTVSPost2010Prop44ColorRGB
 90
      255
102
RTVSPost2010PropOp44
 70
     1
102
RTVSPost2010Prop45
280
     0
102
RTVSPost2010PropOp45
 70
     1
102
RTVSPost2010Prop46
 90
       50
102
RTVSPost2010PropOp46
 70
     1
102
RTVSPost2010Prop47
 90
       50
102
RTVSPost2010PropOp47
 70
     1
102
RTVSPost2010Prop48
 90
       50
102
RTVSPost2010PropOp48
 70
     1
102
RTVSPost2010Prop49
280
     0
102
RTVSPost2010PropOp49
 70
     1
102
RTVSPost2010Prop50
 90
       50
102
RTVSPost2010PropOp50
 70
     1
102
RTVSPost2010Prop51ColorIndex
 90
      256
102
RTVSPost2010Prop51ColorRGB
 90
-16777216
102
RTVSPost2010PropOp51
 70
     0
102
RTVSPost2010Prop52
140
1.0
102
RTVSPost2010PropOp52
 70
     0
102
RTVSPost2010Prop53
 90
        2
102
RTVSPost2010PropOp53
 70
     1
102
RTVSPost2010Prop54
  1
strokes_ogs.tif
102
RTVSPost2010PropOp54
 70
     1
102
RTVSPost2010Prop55
280
     0
102
RTVSPost2010PropOp55
 70
     1
102
RTVSPost2010Prop56
140
1.0
102
RTVSPost2010PropOp56
 70
     1
102
RTVSPost2010Prop57
140
1.0
102
RTVSPost2010PropOp57
 70
     1
102
RTVSPropertyOp0
 70
     0
102
RTVSPropertyOp1
 70
     0
102
RTVSPropertyOp2
 70
     0
102
RTVSPropertyOp3
 70
     0
102
RTVSPropertyOp4
 70
     0
102
RTVSPropertyOp5
 70
     0
102
RTVSPropertyOp6
 70
     0
102
RTVSPropertyOp7
 70
     0
102
RTVSPropertyOp8
 70
     0
102
RTVSPropertyOp9
 70
     0
102
RTVSPropertyOp10
 70
     0
102
RTVSPropertyOp11
 70
     0
102
RTVSPropertyOp12
 70
     0
102
RTVSPropertyOp13
 70
     0
102
RTVSPropertyOp14
 70
     2
102
RTVSPropertyOp15
 70
     0
102
RTVSPropertyOp16
 70
     0
102
RTVSPropertyOp17
 70
     0
102
RTVSPropertyOp18
 70
     0
102
RTVSPropertyOp19
 70
     0
102
RTVSPropertyOp20
 70
     0
102
RTVSPropertyOp21
 70
     0
102
RTVSPropertyOp22
 70
     0
102
RTVSPropertyOp23
 70
     0
102
RTVSPropertyOp24
 70
     0
102
RTVSPropertyOp25
 70
     0
102
RTVSPropertyOp26
 70
     0
102
RTVSPropertyOp27
 70
     0
102
RTVSPropertyOp28
 70
     1
102
RTVSPropertyOp29
 70
     1
102
RTVSPropertyOp30
 70
     1
102
RTVSPropertyOp31
 70
     1
102
RTVSPropertyOp32
 70
     1
102
RTVSPropertyOp33
 70
     1
102
RTVSPropertyOp34
 70
     1
102
RTVSPropertyOp35
 70
     1
102
RTVSPropertyOp36
 70
     1
102
RTVSPropertyOp37
 70
     1
102
RTVSPropertyOp38
 70
     1
102
RTVSPropertyOp39
 70
     1
102
RTVSPropertyOp40
 70
     1
102
RTVSPropertyOp41
 70
     1
102
RTVSPropertyOp42
 70
     1
102
RTVSPropertyOp43
 70
     1
102
RTVSPropertyOp44
 70
     1
102
RTVSPropertyOp45
 70
     1
102
RTVSPropertyOp46
 70
     1
102
RTVSPropertyOp47
 70
     1
102
RTVSPropertyOp48
 70
     1
102
RTVSPropertyOp49
 70
     1
102
RTVSPropertyOp50
 70
     1
102
RTVSPropertyOp51
 70
     0
102
RTVSPropertyOp52
 70
     0
102
RTVSPropertyOp53
 70
     1
102
RTVSPropertyOp54
 70
     1
102
RTVSPropertyOp55
 70
     1
102
RTVSPropertyOp56
 70
     1
102
RTVSPropertyOp57
 70
     1
102
RTVSPropertyOp58
 70
     1
102
RTVSPropertyOp59
 70
     1
102
RTVSPropertyOp60
 70
     1
102
RTVSPropertyOp61
 70
     1
102
RTVSPropertyOp62
 70
     1
  0
XRECORD
  5
49F
102
{ACAD_REACTORS
330
49E
102
}
330
49E
100
AcDbXrecord
280
     1
102
RTVSPost2010Prop28
280
     0
102
RTVSPost2010PropOp28
 70
     1
102
RTVSPost2010Prop29
280
     1
102
RTVSPost2010PropOp29
 70
     1
102
RTVSPost2010Prop30
280
     1
102
RTVSPost2010PropOp30
 70
     1
102
RTVSPost2010Prop31
280
     0
102
RTVSPost2010PropOp31
 70
     1
102
RTVSPost2010Prop32
280
     0
102
RTVSPost2010PropOp32
 70
     1
102
RTVSPost2010Prop33
280
     0
102
RTVSPost2010PropOp33
 70
     1
102
RTVSPost2010Prop34
280
     0
102
RTVSPost2010PropOp34
 70
     1
102
RTVSPost2010Prop35
280
     0
102
RTVSPost2010PropOp35
 70
     1
102
RTVSPost2010Prop36
280
     0
102
RTVSPost2010PropOp36
 70
     1
102
RTVSPost2010Prop37
 90
       50
102
RTVSPost2010PropOp37
 70
     1
102
RTVSPost2010Prop38
140
0.0
102
RTVSPost2010PropOp38
 70
     1
102
RTVSPost2010Prop39
140
1.0
102
RTVSPost2010PropOp39
 70
     1
102
RTVSPost2010Prop40
 90
        0
102
RTVSPost2010PropOp40
 70
     1
102
RTVSPost2010Prop41ColorIndex
 90
       18
102
RTVSPost2010Prop41ColorRGB
 90
        0
102
RTVSPost2010PropOp41
 70
     1
102
RTVSPost2010Prop42
 90
       50
102
RTVSPost2010PropOp42
 70
     1
102
RTVSPost2010Prop43
 90
        3
102
RTVSPost2010PropOp43
 70
     1
102
RTVSPost2010Prop44ColorIndex
 90
        5
102
RTVSPost2010Prop44ColorRGB
 90
      255
102
RTVSPost2010PropOp44
 70
     1
102
RTVSPost2010Prop45
280
     0
102
RTVSPost2010PropOp45
 70
     1
102
RTVSPost2010Prop46
 90
       50
102
RTVSPost2010PropOp46
 70
     1
102
RTVSPost2010Prop47
 90
       50
102
RTVSPost2010PropOp47
 70
     1
102
RTVSPost2010Prop48
 90
       50
102
RTVSPost2010PropOp48
 70
     1
102
RTVSPost2010Prop49
280
     0
102
RTVSPost2010PropOp49
 70
     1
102
RTVSPost2010Prop50
 90
       50
102
RTVSPost2010PropOp50
 70
     1
102
RTVSPost2010Prop51ColorIndex
 90
      256
102
RTVSPost2010Prop51ColorRGB
 90
-16777216
102
RTVSPost2010PropOp51
 70
     0
102
RTVSPost2010Prop52
140
1.0
102
RTVSPost2010PropOp52
 70
     0
102
RTVSPost2010Prop53
 90
        2
102
RTVSPost2010PropOp53
 70
     1
102
RTVSPost2010Prop54
  1
strokes_ogs.tif
102
RTVSPost2010PropOp54
 70
     1
102
RTVSPost2010Prop55
280
     0
102
RTVSPost2010PropOp55
 70
     1
102
RTVSPost2010Prop56
140
1.0
102
RTVSPost2010PropOp56
 70
     1
102
RTVSPost2010Prop57
140
1.0
102
RTVSPost2010PropOp57
 70
     1
102
RTVSPropertyOp0
 70
     1
102
RTVSPropertyOp1
 70
     1
102
RTVSPropertyOp2
 70
     1
102
RTVSPropertyOp3
 70
     1
102
RTVSPropertyOp4
 70
     1
102
RTVSPropertyOp5
 70
     1
102
RTVSPropertyOp6
 70
     1
102
RTVSPropertyOp7
 70
     1
102
RTVSPropertyOp8
 70
     1
102
RTVSPropertyOp9
 70
     1
102
RTVSPropertyOp10
 70
     1
102
RTVSPropertyOp11
 70
     1
102
RTVSPropertyOp12
 70
     1
102
RTVSPropertyOp13
 70
     1
102
RTVSPropertyOp14
 70
     1
102
RTVSPropertyOp15
 70
     1
102
RTVSPropertyOp16
 70
     1
102
RTVSPropertyOp17
 70
     1
102
RTVSPropertyOp18
 70
     1
102
RTVSPropertyOp19
 70
     1
102
RTVSPropertyOp20
 70
     1
102
RTVSPropertyOp21
 70
     1
102
RTVSPropertyOp22
 70
     1
102
RTVSPropertyOp23
 70
     1
102
RTVSPropertyOp24
 70
     1
102
RTVSPropertyOp25
 70
     1
102
RTVSPropertyOp26
 70
     1
102
RTVSPropertyOp27
 70
     1
102
RTVSPropertyOp28
 70
     1
102
RTVSPropertyOp29
 70
     1
102
RTVSPropertyOp30
 70
     1
102
RTVSPropertyOp31
 70
     1
102
RTVSPropertyOp32
 70
     1
102
RTVSPropertyOp33
 70
     1
102
RTVSPropertyOp34
 70
     1
102
RTVSPropertyOp35
 70
     1
102
RTVSPropertyOp36
 70
     1
102
RTVSPropertyOp37
 70
     1
102
RTVSPropertyOp38
 70
     1
102
RTVSPropertyOp39
 70
     1
102
RTVSPropertyOp40
 70
     1
102
RTVSPropertyOp41
 70
     1
102
RTVSPropertyOp42
 70
     1
102
RTVSPropertyOp43
 70
     1
102
RTVSPropertyOp44
 70
     1
102
RTVSPropertyOp45
 70
     1
102
RTVSPropertyOp46
 70
     1
102
RTVSPropertyOp47
 70
     1
102
RTVSPropertyOp48
 70
     1
102
RTVSPropertyOp49
 70
     1
102
RTVSPropertyOp50
 70
     1
102
RTVSPropertyOp51
 70
     0
102
RTVSPropertyOp52
 70
     0
102
RTVSPropertyOp53
 70
     1
102
RTVSPropertyOp54
 70
     1
102
RTVSPropertyOp55
 70
     1
102
RTVSPropertyOp56
 70
     1
102
RTVSPropertyOp57
 70
     1
102
RTVSPropertyOp58
 70
     1
102
RTVSPropertyOp59
 70
     1
102
RTVSPropertyOp60
 70
     1
102
RTVSPropertyOp61
 70
     1
102
RTVSPropertyOp62
 70
     1
  0
XRECORD
  5
483
102
{ACAD_REACTORS
330
482
102
}
330
482
100
AcDbXrecord
280
     1
102
RTVSPost2010Prop28
280
     0
102
RTVSPost2010PropOp28
 70
     1
102
RTVSPost2010Prop29
280
     1
102
RTVSPost2010PropOp29
 70
     1
102
RTVSPost2010Prop30
280
     1
102
RTVSPost2010PropOp30
 70
     1
102
RTVSPost2010Prop31
280
     0
102
RTVSPost2010PropOp31
 70
     1
102
RTVSPost2010Prop32
280
     0
102
RTVSPost2010PropOp32
 70
     1
102
RTVSPost2010Prop33
280
     0
102
RTVSPost2010PropOp33
 70
     1
102
RTVSPost2010Prop34
280
     0
102
RTVSPost2010PropOp34
 70
     1
102
RTVSPost2010Prop35
280
     0
102
RTVSPost2010PropOp35
 70
     1
102
RTVSPost2010Prop36
280
     0
102
RTVSPost2010PropOp36
 70
     1
102
RTVSPost2010Prop37
 90
       50
102
RTVSPost2010PropOp37
 70
     1
102
RTVSPost2010Prop38
140
0.0
102
RTVSPost2010PropOp38
 70
     1
102
RTVSPost2010Prop39
140
1.0
102
RTVSPost2010PropOp39
 70
     1
102
RTVSPost2010Prop40
 90
        0
102
RTVSPost2010PropOp40
 70
     1
102
RTVSPost2010Prop41ColorIndex
 90
       18
102
RTVSPost2010Prop41ColorRGB
 90
        0
102
RTVSPost2010PropOp41
 70
     1
102
RTVSPost2010Prop42
 90
       50
102
RTVSPost2010PropOp42
 70
     1
102
RTVSPost2010Prop43
 90
        3
102
RTVSPost2010PropOp43
 70
     1
102
RTVSPost2010Prop44ColorIndex
 90
        5
102
RTVSPost2010Prop44ColorRGB
 90
      255
102
RTVSPost2010PropOp44
 70
     1
102
RTVSPost2010Prop45
280
     0
102
RTVSPost2010PropOp45
 70
     1
102
RTVSPost2010Prop46
 90
       50
102
RTVSPost2010PropOp46
 70
     1
102
RTVSPost2010Prop47
 90
       50
102
RTVSPost2010PropOp47
 70
     1
102
RTVSPost2010Prop48
 90
       50
102
RTVSPost2010PropOp48
 70
     1
102
RTVSPost2010Prop49
280
     0
102
RTVSPost2010PropOp49
 70
     1
102
RTVSPost2010Prop50
 90
       50
102
RTVSPost2010PropOp50
 70
     1
102
RTVSPost2010Prop51ColorIndex
 90
      256
102
RTVSPost2010Prop51ColorRGB
 90
-16777216
102
RTVSPost2010PropOp51
 70
     0
102
RTVSPost2010Prop52
140
1.0
102
RTVSPost2010PropOp52
 70
     0
102
RTVSPost2010Prop53
 90
        2
102
RTVSPost2010PropOp53
 70
     1
102
RTVSPost2010Prop54
  1
strokes_ogs.tif
102
RTVSPost2010PropOp54
 70
     1
102
RTVSPost2010Prop55
280
     0
102
RTVSPost2010PropOp55
 70
     1
102
RTVSPost2010Prop56
140
1.0
102
RTVSPost2010PropOp56
 70
     1
102
RTVSPost2010Prop57
140
1.0
102
RTVSPost2010PropOp57
 70
     1
102
RTVSPropertyOp0
 70
     1
102
RTVSPropertyOp1
 70
     1
102
RTVSPropertyOp2
 70
     1
102
RTVSPropertyOp3
 70
     1
102
RTVSPropertyOp4
 70
     1
102
RTVSPropertyOp5
 70
     1
102
RTVSPropertyOp6
 70
     1
102
RTVSPropertyOp7
 70
     1
102
RTVSPropertyOp8
 70
     1
102
RTVSPropertyOp9
 70
     1
102
RTVSPropertyOp10
 70
     1
102
RTVSPropertyOp11
 70
     1
102
RTVSPropertyOp12
 70
     1
102
RTVSPropertyOp13
 70
     1
102
RTVSPropertyOp14
 70
     1
102
RTVSPropertyOp15
 70
     1
102
RTVSPropertyOp16
 70
     1
102
RTVSPropertyOp17
 70
     1
102
RTVSPropertyOp18
 70
     1
102
RTVSPropertyOp19
 70
     1
102
RTVSPropertyOp20
 70
     1
102
RTVSPropertyOp21
 70
     1
102
RTVSPropertyOp22
 70
     1
102
RTVSPropertyOp23
 70
     1
102
RTVSPropertyOp24
 70
     1
102
RTVSPropertyOp25
 70
     1
102
RTVSPropertyOp26
 70
     1
102
RTVSPropertyOp27
 70
     1
102
RTVSPropertyOp28
 70
     1
102
RTVSPropertyOp29
 70
     1
102
RTVSPropertyOp30
 70
     1
102
RTVSPropertyOp31
 70
     1
102
RTVSPropertyOp32
 70
     1
102
RTVSPropertyOp33
 70
     1
102
RTVSPropertyOp34
 70
     1
102
RTVSPropertyOp35
 70
     1
102
RTVSPropertyOp36
 70
     1
102
RTVSPropertyOp37
 70
     1
102
RTVSPropertyOp38
 70
     1
102
RTVSPropertyOp39
 70
     1
102
RTVSPropertyOp40
 70
     1
102
RTVSPropertyOp41
 70
     1
102
RTVSPropertyOp42
 70
     1
102
RTVSPropertyOp43
 70
     1
102
RTVSPropertyOp44
 70
     1
102
RTVSPropertyOp45
 70
     1
102
RTVSPropertyOp46
 70
     1
102
RTVSPropertyOp47
 70
     1
102
RTVSPropertyOp48
 70
     1
102
RTVSPropertyOp49
 70
     1
102
RTVSPropertyOp50
 70
     1
102
RTVSPropertyOp51
 70
     0
102
RTVSPropertyOp52
 70
     0
102
RTVSPropertyOp53
 70
     1
102
RTVSPropertyOp54
 70
     1
102
RTVSPropertyOp55
 70
     1
102
RTVSPropertyOp56
 70
     1
102
RTVSPropertyOp57
 70
     1
102
RTVSPropertyOp58
 70
     1
102
RTVSPropertyOp59
 70
     1
102
RTVSPropertyOp60
 70
     1
102
RTVSPropertyOp61
 70
     1
102
RTVSPropertyOp62
 70
     1
  0
XRECORD
  5
485
102
{ACAD_REACTORS
330
484
102
}
330
484
100
AcDbXrecord
280
     1
102
RTVSPost2010Prop28
280
     0
102
RTVSPost2010PropOp28
 70
     1
102
RTVSPost2010Prop29
280
     1
102
RTVSPost2010PropOp29
 70
     1
102
RTVSPost2010Prop30
280
     1
102
RTVSPost2010PropOp30
 70
     1
102
RTVSPost2010Prop31
280
     0
102
RTVSPost2010PropOp31
 70
     1
102
RTVSPost2010Prop32
280
     0
102
RTVSPost2010PropOp32
 70
     1
102
RTVSPost2010Prop33
280
     0
102
RTVSPost2010PropOp33
 70
     1
102
RTVSPost2010Prop34
280
     0
102
RTVSPost2010PropOp34
 70
     1
102
RTVSPost2010Prop35
280
     0
102
RTVSPost2010PropOp35
 70
     1
102
RTVSPost2010Prop36
280
     0
102
RTVSPost2010PropOp36
 70
     1
102
RTVSPost2010Prop37
 90
       50
102
RTVSPost2010PropOp37
 70
     1
102
RTVSPost2010Prop38
140
0.0
102
RTVSPost2010PropOp38
 70
     1
102
RTVSPost2010Prop39
140
1.0
102
RTVSPost2010PropOp39
 70
     1
102
RTVSPost2010Prop40
 90
        0
102
RTVSPost2010PropOp40
 70
     1
102
RTVSPost2010Prop41ColorIndex
 90
       18
102
RTVSPost2010Prop41ColorRGB
 90
        0
102
RTVSPost2010PropOp41
 70
     1
102
RTVSPost2010Prop42
 90
       50
102
RTVSPost2010PropOp42
 70
     1
102
RTVSPost2010Prop43
 90
        3
102
RTVSPost2010PropOp43
 70
     1
102
RTVSPost2010Prop44ColorIndex
 90
        5
102
RTVSPost2010Prop44ColorRGB
 90
      255
102
RTVSPost2010PropOp44
 70
     1
102
RTVSPost2010Prop45
280
     0
102
RTVSPost2010PropOp45
 70
     1
102
RTVSPost2010Prop46
 90
       50
102
RTVSPost2010PropOp46
 70
     1
102
RTVSPost2010Prop47
 90
       50
102
RTVSPost2010PropOp47
 70
     1
102
RTVSPost2010Prop48
 90
       50
102
RTVSPost2010PropOp48
 70
     1
102
RTVSPost2010Prop49
280
     0
102
RTVSPost2010PropOp49
 70
     1
102
RTVSPost2010Prop50
 90
       50
102
RTVSPost2010PropOp50
 70
     1
102
RTVSPost2010Prop51ColorIndex
 90
      256
102
RTVSPost2010Prop51ColorRGB
 90
-16777216
102
RTVSPost2010PropOp51
 70
     0
102
RTVSPost2010Prop52
140
1.0
102
RTVSPost2010PropOp52
 70
     0
102
RTVSPost2010Prop53
 90
        2
102
RTVSPost2010PropOp53
 70
     1
102
RTVSPost2010Prop54
  1
strokes_ogs.tif
102
RTVSPost2010PropOp54
 70
     1
102
RTVSPost2010Prop55
280
     0
102
RTVSPost2010PropOp55
 70
     1
102
RTVSPost2010Prop56
140
1.0
102
RTVSPost2010PropOp56
 70
     1
102
RTVSPost2010Prop57
140
1.0
102
RTVSPost2010PropOp57
 70
     1
102
RTVSPropertyOp0
 70
     1
102
RTVSPropertyOp1
 70
     1
102
RTVSPropertyOp2
 70
     1
102
RTVSPropertyOp3
 70
     1
102
RTVSPropertyOp4
 70
     1
102
RTVSPropertyOp5
 70
     1
102
RTVSPropertyOp6
 70
     1
102
RTVSPropertyOp7
 70
     1
102
RTVSPropertyOp8
 70
     1
102
RTVSPropertyOp9
 70
     1
102
RTVSPropertyOp10
 70
     1
102
RTVSPropertyOp11
 70
     1
102
RTVSPropertyOp12
 70
     1
102
RTVSPropertyOp13
 70
     1
102
RTVSPropertyOp14
 70
     1
102
RTVSPropertyOp15
 70
     1
102
RTVSPropertyOp16
 70
     1
102
RTVSPropertyOp17
 70
     1
102
RTVSPropertyOp18
 70
     1
102
RTVSPropertyOp19
 70
     1
102
RTVSPropertyOp20
 70
     1
102
RTVSPropertyOp21
 70
     1
102
RTVSPropertyOp22
 70
     1
102
RTVSPropertyOp23
 70
     1
102
RTVSPropertyOp24
 70
     1
102
RTVSPropertyOp25
 70
     1
102
RTVSPropertyOp26
 70
     1
102
RTVSPropertyOp27
 70
     1
102
RTVSPropertyOp28
 70
     1
102
RTVSPropertyOp29
 70
     1
102
RTVSPropertyOp30
 70
     1
102
RTVSPropertyOp31
 70
     1
102
RTVSPropertyOp32
 70
     1
102
RTVSPropertyOp33
 70
     1
102
RTVSPropertyOp34
 70
     1
102
RTVSPropertyOp35
 70
     1
102
RTVSPropertyOp36
 70
     1
102
RTVSPropertyOp37
 70
     1
102
RTVSPropertyOp38
 70
     1
102
RTVSPropertyOp39
 70
     1
102
RTVSPropertyOp40
 70
     1
102
RTVSPropertyOp41
 70
     1
102
RTVSPropertyOp42
 70
     1
102
RTVSPropertyOp43
 70
     1
102
RTVSPropertyOp44
 70
     1
102
RTVSPropertyOp45
 70
     1
102
RTVSPropertyOp46
 70
     1
102
RTVSPropertyOp47
 70
     1
102
RTVSPropertyOp48
 70
     1
102
RTVSPropertyOp49
 70
     1
102
RTVSPropertyOp50
 70
     1
102
RTVSPropertyOp51
 70
     0
102
RTVSPropertyOp52
 70
     0
102
RTVSPropertyOp53
 70
     1
102
RTVSPropertyOp54
 70
     1
102
RTVSPropertyOp55
 70
     1
102
RTVSPropertyOp56
 70
     1
102
RTVSPropertyOp57
 70
     1
102
RTVSPropertyOp58
 70
     1
102
RTVSPropertyOp59
 70
     1
102
RTVSPropertyOp60
 70
     1
102
RTVSPropertyOp61
 70
     1
102
RTVSPropertyOp62
 70
     1
  0
XRECORD
  5
487
102
{ACAD_REACTORS
330
486
102
}
330
486
100
AcDbXrecord
280
     1
102
RTVSPost2010Prop28
280
     0
102
RTVSPost2010PropOp28
 70
     1
102
RTVSPost2010Prop29
280
     1
102
RTVSPost2010PropOp29
 70
     1
102
RTVSPost2010Prop30
280
     1
102
RTVSPost2010PropOp30
 70
     1
102
RTVSPost2010Prop31
280
     0
102
RTVSPost2010PropOp31
 70
     1
102
RTVSPost2010Prop32
280
     0
102
RTVSPost2010PropOp32
 70
     1
102
RTVSPost2010Prop33
280
     0
102
RTVSPost2010PropOp33
 70
     1
102
RTVSPost2010Prop34
280
     0
102
RTVSPost2010PropOp34
 70
     1
102
RTVSPost2010Prop35
280
     0
102
RTVSPost2010PropOp35
 70
     1
102
RTVSPost2010Prop36
280
     0
102
RTVSPost2010PropOp36
 70
     1
102
RTVSPost2010Prop37
 90
       50
102
RTVSPost2010PropOp37
 70
     1
102
RTVSPost2010Prop38
140
0.0
102
RTVSPost2010PropOp38
 70
     1
102
RTVSPost2010Prop39
140
1.0
102
RTVSPost2010PropOp39
 70
     1
102
RTVSPost2010Prop40
 90
        0
102
RTVSPost2010PropOp40
 70
     1
102
RTVSPost2010Prop41ColorIndex
 90
       18
102
RTVSPost2010Prop41ColorRGB
 90
        0
102
RTVSPost2010PropOp41
 70
     1
102
RTVSPost2010Prop42
 90
       50
102
RTVSPost2010PropOp42
 70
     1
102
RTVSPost2010Prop43
 90
        3
102
RTVSPost2010PropOp43
 70
     1
102
RTVSPost2010Prop44ColorIndex
 90
        5
102
RTVSPost2010Prop44ColorRGB
 90
      255
102
RTVSPost2010PropOp44
 70
     1
102
RTVSPost2010Prop45
280
     0
102
RTVSPost2010PropOp45
 70
     1
102
RTVSPost2010Prop46
 90
       50
102
RTVSPost2010PropOp46
 70
     1
102
RTVSPost2010Prop47
 90
       50
102
RTVSPost2010PropOp47
 70
     1
102
RTVSPost2010Prop48
 90
       50
102
RTVSPost2010PropOp48
 70
     1
102
RTVSPost2010Prop49
280
     0
102
RTVSPost2010PropOp49
 70
     1
102
RTVSPost2010Prop50
 90
       50
102
RTVSPost2010PropOp50
 70
     1
102
RTVSPost2010Prop51ColorIndex
 90
      256
102
RTVSPost2010Prop51ColorRGB
 90
-16777216
102
RTVSPost2010PropOp51
 70
     0
102
RTVSPost2010Prop52
140
1.0
102
RTVSPost2010PropOp52
 70
     0
102
RTVSPost2010Prop53
 90
        2
102
RTVSPost2010PropOp53
 70
     1
102
RTVSPost2010Prop54
  1
strokes_ogs.tif
102
RTVSPost2010PropOp54
 70
     1
102
RTVSPost2010Prop55
280
     0
102
RTVSPost2010PropOp55
 70
     1
102
RTVSPost2010Prop56
140
1.0
102
RTVSPost2010PropOp56
 70
     1
102
RTVSPost2010Prop57
140
1.0
102
RTVSPost2010PropOp57
 70
     1
102
RTVSPropertyOp0
 70
     1
102
RTVSPropertyOp1
 70
     1
102
RTVSPropertyOp2
 70
     1
102
RTVSPropertyOp3
 70
     1
102
RTVSPropertyOp4
 70
     1
102
RTVSPropertyOp5
 70
     1
102
RTVSPropertyOp6
 70
     1
102
RTVSPropertyOp7
 70
     1
102
RTVSPropertyOp8
 70
     1
102
RTVSPropertyOp9
 70
     1
102
RTVSPropertyOp10
 70
     1
102
RTVSPropertyOp11
 70
     1
102
RTVSPropertyOp12
 70
     1
102
RTVSPropertyOp13
 70
     1
102
RTVSPropertyOp14
 70
     1
102
RTVSPropertyOp15
 70
     1
102
RTVSPropertyOp16
 70
     1
102
RTVSPropertyOp17
 70
     1
102
RTVSPropertyOp18
 70
     1
102
RTVSPropertyOp19
 70
     1
102
RTVSPropertyOp20
 70
     1
102
RTVSPropertyOp21
 70
     1
102
RTVSPropertyOp22
 70
     1
102
RTVSPropertyOp23
 70
     1
102
RTVSPropertyOp24
 70
     1
102
RTVSPropertyOp25
 70
     1
102
RTVSPropertyOp26
 70
     1
102
RTVSPropertyOp27
 70
     1
102
RTVSPropertyOp28
 70
     1
102
RTVSPropertyOp29
 70
     1
102
RTVSPropertyOp30
 70
     1
102
RTVSPropertyOp31
 70
     1
102
RTVSPropertyOp32
 70
     1
102
RTVSPropertyOp33
 70
     1
102
RTVSPropertyOp34
 70
     1
102
RTVSPropertyOp35
 70
     1
102
RTVSPropertyOp36
 70
     1
102
RTVSPropertyOp37
 70
     1
102
RTVSPropertyOp38
 70
     1
102
RTVSPropertyOp39
 70
     1
102
RTVSPropertyOp40
 70
     1
102
RTVSPropertyOp41
 70
     1
102
RTVSPropertyOp42
 70
     1
102
RTVSPropertyOp43
 70
     1
102
RTVSPropertyOp44
 70
     1
102
RTVSPropertyOp45
 70
     1
102
RTVSPropertyOp46
 70
     1
102
RTVSPropertyOp47
 70
     1
102
RTVSPropertyOp48
 70
     1
102
RTVSPropertyOp49
 70
     1
102
RTVSPropertyOp50
 70
     1
102
RTVSPropertyOp51
 70
     0
102
RTVSPropertyOp52
 70
     0
102
RTVSPropertyOp53
 70
     1
102
RTVSPropertyOp54
 70
     1
102
RTVSPropertyOp55
 70
     1
102
RTVSPropertyOp56
 70
     1
102
RTVSPropertyOp57
 70
     1
102
RTVSPropertyOp58
 70
     1
102
RTVSPropertyOp59
 70
     1
102
RTVSPropertyOp60
 70
     1
102
RTVSPropertyOp61
 70
     1
102
RTVSPropertyOp62
 70
     1
  0
XRECORD
  5
489
102
{ACAD_REACTORS
330
488
102
}
330
488
100
AcDbXrecord
280
     1
102
RTVSPost2010Prop28
280
     0
102
RTVSPost2010PropOp28
 70
     1
102
RTVSPost2010Prop29
280
     1
102
RTVSPost2010PropOp29
 70
     1
102
RTVSPost2010Prop30
280
     1
102
RTVSPost2010PropOp30
 70
     1
102
RTVSPost2010Prop31
280
     0
102
RTVSPost2010PropOp31
 70
     1
102
RTVSPost2010Prop32
280
     0
102
RTVSPost2010PropOp32
 70
     1
102
RTVSPost2010Prop33
280
     0
102
RTVSPost2010PropOp33
 70
     1
102
RTVSPost2010Prop34
280
     0
102
RTVSPost2010PropOp34
 70
     1
102
RTVSPost2010Prop35
280
     0
102
RTVSPost2010PropOp35
 70
     1
102
RTVSPost2010Prop36
280
     0
102
RTVSPost2010PropOp36
 70
     1
102
RTVSPost2010Prop37
 90
       50
102
RTVSPost2010PropOp37
 70
     1
102
RTVSPost2010Prop38
140
0.0
102
RTVSPost2010PropOp38
 70
     1
102
RTVSPost2010Prop39
140
1.0
102
RTVSPost2010PropOp39
 70
     1
102
RTVSPost2010Prop40
 90
        0
102
RTVSPost2010PropOp40
 70
     1
102
RTVSPost2010Prop41ColorIndex
 90
       18
102
RTVSPost2010Prop41ColorRGB
 90
        0
102
RTVSPost2010PropOp41
 70
     1
102
RTVSPost2010Prop42
 90
       50
102
RTVSPost2010PropOp42
 70
     1
102
RTVSPost2010Prop43
 90
        3
102
RTVSPost2010PropOp43
 70
     1
102
RTVSPost2010Prop44ColorIndex
 90
        5
102
RTVSPost2010Prop44ColorRGB
 90
      255
102
RTVSPost2010PropOp44
 70
     1
102
RTVSPost2010Prop45
280
     0
102
RTVSPost2010PropOp45
 70
     1
102
RTVSPost2010Prop46
 90
       50
102
RTVSPost2010PropOp46
 70
     1
102
RTVSPost2010Prop47
 90
       50
102
RTVSPost2010PropOp47
 70
     1
102
RTVSPost2010Prop48
 90
       50
102
RTVSPost2010PropOp48
 70
     1
102
RTVSPost2010Prop49
280
     0
102
RTVSPost2010PropOp49
 70
     1
102
RTVSPost2010Prop50
 90
       50
102
RTVSPost2010PropOp50
 70
     1
102
RTVSPost2010Prop51ColorIndex
 90
      256
102
RTVSPost2010Prop51ColorRGB
 90
-16777216
102
RTVSPost2010PropOp51
 70
     0
102
RTVSPost2010Prop52
140
1.0
102
RTVSPost2010PropOp52
 70
     0
102
RTVSPost2010Prop53
 90
        2
102
RTVSPost2010PropOp53
 70
     1
102
RTVSPost2010Prop54
  1
strokes_ogs.tif
102
RTVSPost2010PropOp54
 70
     1
102
RTVSPost2010Prop55
280
     0
102
RTVSPost2010PropOp55
 70
     1
102
RTVSPost2010Prop56
140
1.0
102
RTVSPost2010PropOp56
 70
     1
102
RTVSPost2010Prop57
140
1.0
102
RTVSPost2010PropOp57
 70
     1
102
RTVSPropertyOp0
 70
     1
102
RTVSPropertyOp1
 70
     1
102
RTVSPropertyOp2
 70
     1
102
RTVSPropertyOp3
 70
     1
102
RTVSPropertyOp4
 70
     1
102
RTVSPropertyOp5
 70
     1
102
RTVSPropertyOp6
 70
     1
102
RTVSPropertyOp7
 70
     1
102
RTVSPropertyOp8
 70
     1
102
RTVSPropertyOp9
 70
     1
102
RTVSPropertyOp10
 70
     1
102
RTVSPropertyOp11
 70
     1
102
RTVSPropertyOp12
 70
     1
102
RTVSPropertyOp13
 70
     1
102
RTVSPropertyOp14
 70
     1
102
RTVSPropertyOp15
 70
     1
102
RTVSPropertyOp16
 70
     1
102
RTVSPropertyOp17
 70
     1
102
RTVSPropertyOp18
 70
     1
102
RTVSPropertyOp19
 70
     1
102
RTVSPropertyOp20
 70
     1
102
RTVSPropertyOp21
 70
     1
102
RTVSPropertyOp22
 70
     1
102
RTVSPropertyOp23
 70
     1
102
RTVSPropertyOp24
 70
     1
102
RTVSPropertyOp25
 70
     1
102
RTVSPropertyOp26
 70
     1
102
RTVSPropertyOp27
 70
     1
102
RTVSPropertyOp28
 70
     1
102
RTVSPropertyOp29
 70
     1
102
RTVSPropertyOp30
 70
     1
102
RTVSPropertyOp31
 70
     1
102
RTVSPropertyOp32
 70
     1
102
RTVSPropertyOp33
 70
     1
102
RTVSPropertyOp34
 70
     1
102
RTVSPropertyOp35
 70
     1
102
RTVSPropertyOp36
 70
     1
102
RTVSPropertyOp37
 70
     1
102
RTVSPropertyOp38
 70
     1
102
RTVSPropertyOp39
 70
     1
102
RTVSPropertyOp40
 70
     1
102
RTVSPropertyOp41
 70
     1
102
RTVSPropertyOp42
 70
     1
102
RTVSPropertyOp43
 70
     1
102
RTVSPropertyOp44
 70
     1
102
RTVSPropertyOp45
 70
     1
102
RTVSPropertyOp46
 70
     1
102
RTVSPropertyOp47
 70
     1
102
RTVSPropertyOp48
 70
     1
102
RTVSPropertyOp49
 70
     1
102
RTVSPropertyOp50
 70
     1
102
RTVSPropertyOp51
 70
     0
102
RTVSPropertyOp52
 70
     0
102
RTVSPropertyOp53
 70
     1
102
RTVSPropertyOp54
 70
     1
102
RTVSPropertyOp55
 70
     1
102
RTVSPropertyOp56
 70
     1
102
RTVSPropertyOp57
 70
     1
102
RTVSPropertyOp58
 70
     1
102
RTVSPropertyOp59
 70
     1
102
RTVSPropertyOp60
 70
     1
102
RTVSPropertyOp61
 70
     1
102
RTVSPropertyOp62
 70
     1
  0
XRECORD
  5
491
102
{ACAD_REACTORS
330
490
102
}
330
490
100
AcDbXrecord
280
     1
102
RTVSPost2010Prop28
280
     0
102
RTVSPost2010PropOp28
 70
     1
102
RTVSPost2010Prop29
280
     1
102
RTVSPost2010PropOp29
 70
     1
102
RTVSPost2010Prop30
280
     1
102
RTVSPost2010PropOp30
 70
     1
102
RTVSPost2010Prop31
280
     0
102
RTVSPost2010PropOp31
 70
     1
102
RTVSPost2010Prop32
280
     0
102
RTVSPost2010PropOp32
 70
     1
102
RTVSPost2010Prop33
280
     0
102
RTVSPost2010PropOp33
 70
     1
102
RTVSPost2010Prop34
280
     0
102
RTVSPost2010PropOp34
 70
     1
102
RTVSPost2010Prop35
280
     0
102
RTVSPost2010PropOp35
 70
     1
102
RTVSPost2010Prop36
280
     0
102
RTVSPost2010PropOp36
 70
     1
102
RTVSPost2010Prop37
 90
       50
102
RTVSPost2010PropOp37
 70
     1
102
RTVSPost2010Prop38
140
0.0
102
RTVSPost2010PropOp38
 70
     1
102
RTVSPost2010Prop39
140
1.0
102
RTVSPost2010PropOp39
 70
     1
102
RTVSPost2010Prop40
 90
        0
102
RTVSPost2010PropOp40
 70
     1
102
RTVSPost2010Prop41ColorIndex
 90
       18
102
RTVSPost2010Prop41ColorRGB
 90
        0
102
RTVSPost2010PropOp41
 70
     1
102
RTVSPost2010Prop42
 90
       50
102
RTVSPost2010PropOp42
 70
     1
102
RTVSPost2010Prop43
 90
        3
102
RTVSPost2010PropOp43
 70
     1
102
RTVSPost2010Prop44ColorIndex
 90
        5
102
RTVSPost2010Prop44ColorRGB
 90
      255
102
RTVSPost2010PropOp44
 70
     1
102
RTVSPost2010Prop45
280
     0
102
RTVSPost2010PropOp45
 70
     1
102
RTVSPost2010Prop46
 90
       50
102
RTVSPost2010PropOp46
 70
     1
102
RTVSPost2010Prop47
 90
       50
102
RTVSPost2010PropOp47
 70
     1
102
RTVSPost2010Prop48
 90
       50
102
RTVSPost2010PropOp48
 70
     1
102
RTVSPost2010Prop49
280
     0
102
RTVSPost2010PropOp49
 70
     1
102
RTVSPost2010Prop50
 90
       50
102
RTVSPost2010PropOp50
 70
     1
102
RTVSPost2010Prop51ColorIndex
 90
      256
102
RTVSPost2010Prop51ColorRGB
 90
-16777216
102
RTVSPost2010PropOp51
 70
     0
102
RTVSPost2010Prop52
140
1.0
102
RTVSPost2010PropOp52
 70
     0
102
RTVSPost2010Prop53
 90
        2
102
RTVSPost2010PropOp53
 70
     1
102
RTVSPost2010Prop54
  1
strokes_ogs.tif
102
RTVSPost2010PropOp54
 70
     1
102
RTVSPost2010Prop55
280
     0
102
RTVSPost2010PropOp55
 70
     1
102
RTVSPost2010Prop56
140
1.0
102
RTVSPost2010PropOp56
 70
     1
102
RTVSPost2010Prop57
140
1.0
102
RTVSPost2010PropOp57
 70
     1
102
RTVSPropertyOp0
 70
     1
102
RTVSPropertyOp1
 70
     1
102
RTVSPropertyOp2
 70
     1
102
RTVSPropertyOp3
 70
     1
102
RTVSPropertyOp4
 70
     1
102
RTVSPropertyOp5
 70
     1
102
RTVSPropertyOp6
 70
     1
102
RTVSPropertyOp7
 70
     1
102
RTVSPropertyOp8
 70
     1
102
RTVSPropertyOp9
 70
     1
102
RTVSPropertyOp10
 70
     1
102
RTVSPropertyOp11
 70
     1
102
RTVSPropertyOp12
 70
     1
102
RTVSPropertyOp13
 70
     1
102
RTVSPropertyOp14
 70
     1
102
RTVSPropertyOp15
 70
     1
102
RTVSPropertyOp16
 70
     1
102
RTVSPropertyOp17
 70
     1
102
RTVSPropertyOp18
 70
     1
102
RTVSPropertyOp19
 70
     1
102
RTVSPropertyOp20
 70
     1
102
RTVSPropertyOp21
 70
     1
102
RTVSPropertyOp22
 70
     1
102
RTVSPropertyOp23
 70
     1
102
RTVSPropertyOp24
 70
     1
102
RTVSPropertyOp25
 70
     1
102
RTVSPropertyOp26
 70
     1
102
RTVSPropertyOp27
 70
     1
102
RTVSPropertyOp28
 70
     1
102
RTVSPropertyOp29
 70
     1
102
RTVSPropertyOp30
 70
     1
102
RTVSPropertyOp31
 70
     1
102
RTVSPropertyOp32
 70
     1
102
RTVSPropertyOp33
 70
     1
102
RTVSPropertyOp34
 70
     1
102
RTVSPropertyOp35
 70
     1
102
RTVSPropertyOp36
 70
     1
102
RTVSPropertyOp37
 70
     1
102
RTVSPropertyOp38
 70
     1
102
RTVSPropertyOp39
 70
     1
102
RTVSPropertyOp40
 70
     1
102
RTVSPropertyOp41
 70
     1
102
RTVSPropertyOp42
 70
     1
102
RTVSPropertyOp43
 70
     1
102
RTVSPropertyOp44
 70
     1
102
RTVSPropertyOp45
 70
     1
102
RTVSPropertyOp46
 70
     1
102
RTVSPropertyOp47
 70
     1
102
RTVSPropertyOp48
 70
     1
102
RTVSPropertyOp49
 70
     1
102
RTVSPropertyOp50
 70
     1
102
RTVSPropertyOp51
 70
     0
102
RTVSPropertyOp52
 70
     0
102
RTVSPropertyOp53
 70
     1
102
RTVSPropertyOp54
 70
     1
102
RTVSPropertyOp55
 70
     1
102
RTVSPropertyOp56
 70
     1
102
RTVSPropertyOp57
 70
     1
102
RTVSPropertyOp58
 70
     1
102
RTVSPropertyOp59
 70
     1
102
RTVSPropertyOp60
 70
     1
102
RTVSPropertyOp61
 70
     1
102
RTVSPropertyOp62
 70
     1
  0
XRECORD
  5
4A3
102
{ACAD_REACTORS
330
4A2
102
}
330
4A2
100
AcDbXrecord
280
     1
102
RTVSPost2010Prop28
280
     0
102
RTVSPost2010PropOp28
 70
     1
102
RTVSPost2010Prop29
280
     1
102
RTVSPost2010PropOp29
 70
     1
102
RTVSPost2010Prop30
280
     1
102
RTVSPost2010PropOp30
 70
     1
102
RTVSPost2010Prop31
280
     0
102
RTVSPost2010PropOp31
 70
     1
102
RTVSPost2010Prop32
280
     0
102
RTVSPost2010PropOp32
 70
     1
102
RTVSPost2010Prop33
280
     0
102
RTVSPost2010PropOp33
 70
     1
102
RTVSPost2010Prop34
280
     0
102
RTVSPost2010PropOp34
 70
     1
102
RTVSPost2010Prop35
280
     0
102
RTVSPost2010PropOp35
 70
     1
102
RTVSPost2010Prop36
280
     0
102
RTVSPost2010PropOp36
 70
     1
102
RTVSPost2010Prop37
 90
       50
102
RTVSPost2010PropOp37
 70
     1
102
RTVSPost2010Prop38
140
0.0
102
RTVSPost2010PropOp38
 70
     1
102
RTVSPost2010Prop39
140
1.0
102
RTVSPost2010PropOp39
 70
     1
102
RTVSPost2010Prop40
 90
        0
102
RTVSPost2010PropOp40
 70
     1
102
RTVSPost2010Prop41ColorIndex
 90
       18
102
RTVSPost2010Prop41ColorRGB
 90
        0
102
RTVSPost2010PropOp41
 70
     1
102
RTVSPost2010Prop42
 90
       50
102
RTVSPost2010PropOp42
 70
     1
102
RTVSPost2010Prop43
 90
        3
102
RTVSPost2010PropOp43
 70
     1
102
RTVSPost2010Prop44ColorIndex
 90
        5
102
RTVSPost2010Prop44ColorRGB
 90
      255
102
RTVSPost2010PropOp44
 70
     1
102
RTVSPost2010Prop45
280
     0
102
RTVSPost2010PropOp45
 70
     1
102
RTVSPost2010Prop46
 90
       50
102
RTVSPost2010PropOp46
 70
     1
102
RTVSPost2010Prop47
 90
       50
102
RTVSPost2010PropOp47
 70
     1
102
RTVSPost2010Prop48
 90
       50
102
RTVSPost2010PropOp48
 70
     1
102
RTVSPost2010Prop49
280
     0
102
RTVSPost2010PropOp49
 70
     1
102
RTVSPost2010Prop50
 90
       50
102
RTVSPost2010PropOp50
 70
     1
102
RTVSPost2010Prop51ColorIndex
 90
      256
102
RTVSPost2010Prop51ColorRGB
 90
-16777216
102
RTVSPost2010PropOp51
 70
     0
102
RTVSPost2010Prop52
140
1.0
102
RTVSPost2010PropOp52
 70
     0
102
RTVSPost2010Prop53
 90
        2
102
RTVSPost2010PropOp53
 70
     1
102
RTVSPost2010Prop54
  1
strokes_ogs.tif
102
RTVSPost2010PropOp54
 70
     1
102
RTVSPost2010Prop55
280
     0
102
RTVSPost2010PropOp55
 70
     1
102
RTVSPost2010Prop56
140
1.0
102
RTVSPost2010PropOp56
 70
     1
102
RTVSPost2010Prop57
140
1.0
102
RTVSPost2010PropOp57
 70
     1
102
RTVSPropertyOp0
 70
     0
102
RTVSPropertyOp1
 70
     0
102
RTVSPropertyOp2
 70
     0
102
RTVSPropertyOp3
 70
     0
102
RTVSPropertyOp4
 70
     0
102
RTVSPropertyOp5
 70
     0
102
RTVSPropertyOp6
 70
     0
102
RTVSPropertyOp7
 70
     0
102
RTVSPropertyOp8
 70
     0
102
RTVSPropertyOp9
 70
     0
102
RTVSPropertyOp10
 70
     0
102
RTVSPropertyOp11
 70
     0
102
RTVSPropertyOp12
 70
     0
102
RTVSPropertyOp13
 70
     0
102
RTVSPropertyOp14
 70
     2
102
RTVSPropertyOp15
 70
     0
102
RTVSPropertyOp16
 70
     0
102
RTVSPropertyOp17
 70
     0
102
RTVSPropertyOp18
 70
     0
102
RTVSPropertyOp19
 70
     0
102
RTVSPropertyOp20
 70
     0
102
RTVSPropertyOp21
 70
     0
102
RTVSPropertyOp22
 70
     0
102
RTVSPropertyOp23
 70
     0
102
RTVSPropertyOp24
 70
     0
102
RTVSPropertyOp25
 70
     0
102
RTVSPropertyOp26
 70
     0
102
RTVSPropertyOp27
 70
     0
102
RTVSPropertyOp28
 70
     1
102
RTVSPropertyOp29
 70
     1
102
RTVSPropertyOp30
 70
     1
102
RTVSPropertyOp31
 70
     1
102
RTVSPropertyOp32
 70
     1
102
RTVSPropertyOp33
 70
     1
102
RTVSPropertyOp34
 70
     1
102
RTVSPropertyOp35
 70
     1
102
RTVSPropertyOp36
 70
     1
102
RTVSPropertyOp37
 70
     1
102
RTVSPropertyOp38
 70
     1
102
RTVSPropertyOp39
 70
     1
102
RTVSPropertyOp40
 70
     1
102
RTVSPropertyOp41
 70
     1
102
RTVSPropertyOp42
 70
     1
102
RTVSPropertyOp43
 70
     1
102
RTVSPropertyOp44
 70
     1
102
RTVSPropertyOp45
 70
     1
102
RTVSPropertyOp46
 70
     1
102
RTVSPropertyOp47
 70
     1
102
RTVSPropertyOp48
 70
     1
102
RTVSPropertyOp49
 70
     1
102
RTVSPropertyOp50
 70
     1
102
RTVSPropertyOp51
 70
     0
102
RTVSPropertyOp52
 70
     0
102
RTVSPropertyOp53
 70
     1
102
RTVSPropertyOp54
 70
     1
102
RTVSPropertyOp55
 70
     1
102
RTVSPropertyOp56
 70
     1
102
RTVSPropertyOp57
 70
     1
102
RTVSPropertyOp58
 70
     1
102
RTVSPropertyOp59
 70
     1
102
RTVSPropertyOp60
 70
     1
102
RTVSPropertyOp61
 70
     1
102
RTVSPropertyOp62
 70
     1
  0
XRECORD
  5
49D
102
{ACAD_REACTORS
330
49C
102
}
330
49C
100
AcDbXrecord
280
     1
102
RTVSPost2010Prop28
280
     0
102
RTVSPost2010PropOp28
 70
     1
102
RTVSPost2010Prop29
280
     1
102
RTVSPost2010PropOp29
 70
     1
102
RTVSPost2010Prop30
280
     1
102
RTVSPost2010PropOp30
 70
     1
102
RTVSPost2010Prop31
280
     0
102
RTVSPost2010PropOp31
 70
     1
102
RTVSPost2010Prop32
280
     0
102
RTVSPost2010PropOp32
 70
     1
102
RTVSPost2010Prop33
280
     0
102
RTVSPost2010PropOp33
 70
     1
102
RTVSPost2010Prop34
280
     0
102
RTVSPost2010PropOp34
 70
     1
102
RTVSPost2010Prop35
280
     0
102
RTVSPost2010PropOp35
 70
     1
102
RTVSPost2010Prop36
280
     0
102
RTVSPost2010PropOp36
 70
     1
102
RTVSPost2010Prop37
 90
       50
102
RTVSPost2010PropOp37
 70
     1
102
RTVSPost2010Prop38
140
0.0
102
RTVSPost2010PropOp38
 70
     1
102
RTVSPost2010Prop39
140
1.0
102
RTVSPost2010PropOp39
 70
     1
102
RTVSPost2010Prop40
 90
        0
102
RTVSPost2010PropOp40
 70
     1
102
RTVSPost2010Prop41ColorIndex
 90
       18
102
RTVSPost2010Prop41ColorRGB
 90
        0
102
RTVSPost2010PropOp41
 70
     1
102
RTVSPost2010Prop42
 90
       50
102
RTVSPost2010PropOp42
 70
     1
102
RTVSPost2010Prop43
 90
        3
102
RTVSPost2010PropOp43
 70
     1
102
RTVSPost2010Prop44ColorIndex
 90
        5
102
RTVSPost2010Prop44ColorRGB
 90
      255
102
RTVSPost2010PropOp44
 70
     1
102
RTVSPost2010Prop45
280
     0
102
RTVSPost2010PropOp45
 70
     1
102
RTVSPost2010Prop46
 90
       50
102
RTVSPost2010PropOp46
 70
     1
102
RTVSPost2010Prop47
 90
       50
102
RTVSPost2010PropOp47
 70
     1
102
RTVSPost2010Prop48
 90
       50
102
RTVSPost2010PropOp48
 70
     1
102
RTVSPost2010Prop49
280
     0
102
RTVSPost2010PropOp49
 70
     1
102
RTVSPost2010Prop50
 90
       50
102
RTVSPost2010PropOp50
 70
     1
102
RTVSPost2010Prop51ColorIndex
 90
      256
102
RTVSPost2010Prop51ColorRGB
 90
-16777216
102
RTVSPost2010PropOp51
 70
     0
102
RTVSPost2010Prop52
140
1.0
102
RTVSPost2010PropOp52
 70
     0
102
RTVSPost2010Prop53
 90
        2
102
RTVSPost2010PropOp53
 70
     1
102
RTVSPost2010Prop54
  1
strokes_ogs.tif
102
RTVSPost2010PropOp54
 70
     1
102
RTVSPost2010Prop55
280
     0
102
RTVSPost2010PropOp55
 70
     1
102
RTVSPost2010Prop56
140
1.0
102
RTVSPost2010PropOp56
 70
     1
102
RTVSPost2010Prop57
140
1.0
102
RTVSPost2010PropOp57
 70
     1
102
RTVSPropertyOp0
 70
     1
102
RTVSPropertyOp1
 70
     1
102
RTVSPropertyOp2
 70
     1
102
RTVSPropertyOp3
 70
     1
102
RTVSPropertyOp4
 70
     1
102
RTVSPropertyOp5
 70
     1
102
RTVSPropertyOp6
 70
     1
102
RTVSPropertyOp7
 70
     1
102
RTVSPropertyOp8
 70
     1
102
RTVSPropertyOp9
 70
     1
102
RTVSPropertyOp10
 70
     1
102
RTVSPropertyOp11
 70
     1
102
RTVSPropertyOp12
 70
     1
102
RTVSPropertyOp13
 70
     1
102
RTVSPropertyOp14
 70
     1
102
RTVSPropertyOp15
 70
     1
102
RTVSPropertyOp16
 70
     1
102
RTVSPropertyOp17
 70
     1
102
RTVSPropertyOp18
 70
     1
102
RTVSPropertyOp19
 70
     1
102
RTVSPropertyOp20
 70
     1
102
RTVSPropertyOp21
 70
     1
102
RTVSPropertyOp22
 70
     1
102
RTVSPropertyOp23
 70
     1
102
RTVSPropertyOp24
 70
     1
102
RTVSPropertyOp25
 70
     1
102
RTVSPropertyOp26
 70
     1
102
RTVSPropertyOp27
 70
     1
102
RTVSPropertyOp28
 70
     1
102
RTVSPropertyOp29
 70
     1
102
RTVSPropertyOp30
 70
     1
102
RTVSPropertyOp31
 70
     1
102
RTVSPropertyOp32
 70
     1
102
RTVSPropertyOp33
 70
     1
102
RTVSPropertyOp34
 70
     1
102
RTVSPropertyOp35
 70
     1
102
RTVSPropertyOp36
 70
     1
102
RTVSPropertyOp37
 70
     1
102
RTVSPropertyOp38
 70
     1
102
RTVSPropertyOp39
 70
     1
102
RTVSPropertyOp40
 70
     1
102
RTVSPropertyOp41
 70
     1
102
RTVSPropertyOp42
 70
     1
102
RTVSPropertyOp43
 70
     1
102
RTVSPropertyOp44
 70
     1
102
RTVSPropertyOp45
 70
     1
102
RTVSPropertyOp46
 70
     1
102
RTVSPropertyOp47
 70
     1
102
RTVSPropertyOp48
 70
     1
102
RTVSPropertyOp49
 70
     1
102
RTVSPropertyOp50
 70
     1
102
RTVSPropertyOp51
 70
     0
102
RTVSPropertyOp52
 70
     0
102
RTVSPropertyOp53
 70
     1
102
RTVSPropertyOp54
 70
     1
102
RTVSPropertyOp55
 70
     1
102
RTVSPropertyOp56
 70
     1
102
RTVSPropertyOp57
 70
     1
102
RTVSPropertyOp58
 70
     1
102
RTVSPropertyOp59
 70
     1
102
RTVSPropertyOp60
 70
     1
102
RTVSPropertyOp61
 70
     1
102
RTVSPropertyOp62
 70
     1
  0
XRECORD
  5
4A5
102
{ACAD_REACTORS
330
4A4
102
}
330
4A4
100
AcDbXrecord
280
     1
102
RTVSPost2010Prop28
280
     0
102
RTVSPost2010PropOp28
 70
     1
102
RTVSPost2010Prop29
280
     1
102
RTVSPost2010PropOp29
 70
     1
102
RTVSPost2010Prop30
280
     1
102
RTVSPost2010PropOp30
 70
     1
102
RTVSPost2010Prop31
280
     0
102
RTVSPost2010PropOp31
 70
     1
102
RTVSPost2010Prop32
280
     0
102
RTVSPost2010PropOp32
 70
     1
102
RTVSPost2010Prop33
280
     0
102
RTVSPost2010PropOp33
 70
     1
102
RTVSPost2010Prop34
280
     0
102
RTVSPost2010PropOp34
 70
     1
102
RTVSPost2010Prop35
280
     0
102
RTVSPost2010PropOp35
 70
     1
102
RTVSPost2010Prop36
280
     0
102
RTVSPost2010PropOp36
 70
     1
102
RTVSPost2010Prop37
 90
       50
102
RTVSPost2010PropOp37
 70
     1
102
RTVSPost2010Prop38
140
0.0
102
RTVSPost2010PropOp38
 70
     1
102
RTVSPost2010Prop39
140
1.0
102
RTVSPost2010PropOp39
 70
     1
102
RTVSPost2010Prop40
 90
        0
102
RTVSPost2010PropOp40
 70
     1
102
RTVSPost2010Prop41ColorIndex
 90
       18
102
RTVSPost2010Prop41ColorRGB
 90
        0
102
RTVSPost2010PropOp41
 70
     1
102
RTVSPost2010Prop42
 90
       50
102
RTVSPost2010PropOp42
 70
     1
102
RTVSPost2010Prop43
 90
        3
102
RTVSPost2010PropOp43
 70
     1
102
RTVSPost2010Prop44ColorIndex
 90
        5
102
RTVSPost2010Prop44ColorRGB
 90
      255
102
RTVSPost2010PropOp44
 70
     1
102
RTVSPost2010Prop45
280
     0
102
RTVSPost2010PropOp45
 70
     1
102
RTVSPost2010Prop46
 90
       50
102
RTVSPost2010PropOp46
 70
     1
102
RTVSPost2010Prop47
 90
       50
102
RTVSPost2010PropOp47
 70
     1
102
RTVSPost2010Prop48
 90
       50
102
RTVSPost2010PropOp48
 70
     1
102
RTVSPost2010Prop49
280
     0
102
RTVSPost2010PropOp49
 70
     1
102
RTVSPost2010Prop50
 90
       50
102
RTVSPost2010PropOp50
 70
     1
102
RTVSPost2010Prop51ColorIndex
 90
      256
102
RTVSPost2010Prop51ColorRGB
 90
-16777216
102
RTVSPost2010PropOp51
 70
     0
102
RTVSPost2010Prop52
140
1.0
102
RTVSPost2010PropOp52
 70
     0
102
RTVSPost2010Prop53
 90
        2
102
RTVSPost2010PropOp53
 70
     1
102
RTVSPost2010Prop54
  1
strokes_ogs.tif
102
RTVSPost2010PropOp54
 70
     1
102
RTVSPost2010Prop55
280
     0
102
RTVSPost2010PropOp55
 70
     1
102
RTVSPost2010Prop56
140
1.0
102
RTVSPost2010PropOp56
 70
     1
102
RTVSPost2010Prop57
140
1.0
102
RTVSPost2010PropOp57
 70
     1
102
RTVSPropertyOp0
 70
     0
102
RTVSPropertyOp1
 70
     0
102
RTVSPropertyOp2
 70
     0
102
RTVSPropertyOp3
 70
     0
102
RTVSPropertyOp4
 70
     0
102
RTVSPropertyOp5
 70
     0
102
RTVSPropertyOp6
 70
     0
102
RTVSPropertyOp7
 70
     0
102
RTVSPropertyOp8
 70
     0
102
RTVSPropertyOp9
 70
     0
102
RTVSPropertyOp10
 70
     0
102
RTVSPropertyOp11
 70
     0
102
RTVSPropertyOp12
 70
     0
102
RTVSPropertyOp13
 70
     0
102
RTVSPropertyOp14
 70
     2
102
RTVSPropertyOp15
 70
     0
102
RTVSPropertyOp16
 70
     0
102
RTVSPropertyOp17
 70
     0
102
RTVSPropertyOp18
 70
     0
102
RTVSPropertyOp19
 70
     0
102
RTVSPropertyOp20
 70
     0
102
RTVSPropertyOp21
 70
     0
102
RTVSPropertyOp22
 70
     0
102
RTVSPropertyOp23
 70
     0
102
RTVSPropertyOp24
 70
     0
102
RTVSPropertyOp25
 70
     0
102
RTVSPropertyOp26
 70
     0
102
RTVSPropertyOp27
 70
     0
102
RTVSPropertyOp28
 70
     1
102
RTVSPropertyOp29
 70
     1
102
RTVSPropertyOp30
 70
     1
102
RTVSPropertyOp31
 70
     1
102
RTVSPropertyOp32
 70
     1
102
RTVSPropertyOp33
 70
     1
102
RTVSPropertyOp34
 70
     1
102
RTVSPropertyOp35
 70
     1
102
RTVSPropertyOp36
 70
     1
102
RTVSPropertyOp37
 70
     1
102
RTVSPropertyOp38
 70
     1
102
RTVSPropertyOp39
 70
     1
102
RTVSPropertyOp40
 70
     1
102
RTVSPropertyOp41
 70
     1
102
RTVSPropertyOp42
 70
     1
102
RTVSPropertyOp43
 70
     1
102
RTVSPropertyOp44
 70
     1
102
RTVSPropertyOp45
 70
     1
102
RTVSPropertyOp46
 70
     1
102
RTVSPropertyOp47
 70
     1
102
RTVSPropertyOp48
 70
     1
102
RTVSPropertyOp49
 70
     1
102
RTVSPropertyOp50
 70
     1
102
RTVSPropertyOp51
 70
     0
102
RTVSPropertyOp52
 70
     0
102
RTVSPropertyOp53
 70
     1
102
RTVSPropertyOp54
 70
     1
102
RTVSPropertyOp55
 70
     1
102
RTVSPropertyOp56
 70
     1
102
RTVSPropertyOp57
 70
     1
102
RTVSPropertyOp58
 70
     1
102
RTVSPropertyOp59
 70
     1
102
RTVSPropertyOp60
 70
     1
102
RTVSPropertyOp61
 70
     1
102
RTVSPropertyOp62
 70
     1
  0
XRECORD
  5
495
102
{ACAD_REACTORS
330
494
102
}
330
494
100
AcDbXrecord
280
     1
102
RTVSPost2010Prop28
280
     0
102
RTVSPost2010PropOp28
 70
     1
102
RTVSPost2010Prop29
280
     1
102
RTVSPost2010PropOp29
 70
     1
102
RTVSPost2010Prop30
280
     1
102
RTVSPost2010PropOp30
 70
     1
102
RTVSPost2010Prop31
280
     0
102
RTVSPost2010PropOp31
 70
     1
102
RTVSPost2010Prop32
280
     0
102
RTVSPost2010PropOp32
 70
     1
102
RTVSPost2010Prop33
280
     0
102
RTVSPost2010PropOp33
 70
     1
102
RTVSPost2010Prop34
280
     0
102
RTVSPost2010PropOp34
 70
     1
102
RTVSPost2010Prop35
280
     0
102
RTVSPost2010PropOp35
 70
     1
102
RTVSPost2010Prop36
280
     0
102
RTVSPost2010PropOp36
 70
     1
102
RTVSPost2010Prop37
 90
       50
102
RTVSPost2010PropOp37
 70
     1
102
RTVSPost2010Prop38
140
0.0
102
RTVSPost2010PropOp38
 70
     1
102
RTVSPost2010Prop39
140
1.0
102
RTVSPost2010PropOp39
 70
     1
102
RTVSPost2010Prop40
 90
        0
102
RTVSPost2010PropOp40
 70
     1
102
RTVSPost2010Prop41ColorIndex
 90
       18
102
RTVSPost2010Prop41ColorRGB
 90
        0
102
RTVSPost2010PropOp41
 70
     1
102
RTVSPost2010Prop42
 90
       50
102
RTVSPost2010PropOp42
 70
     1
102
RTVSPost2010Prop43
 90
        3
102
RTVSPost2010PropOp43
 70
     1
102
RTVSPost2010Prop44ColorIndex
 90
        5
102
RTVSPost2010Prop44ColorRGB
 90
      255
102
RTVSPost2010PropOp44
 70
     1
102
RTVSPost2010Prop45
280
     0
102
RTVSPost2010PropOp45
 70
     1
102
RTVSPost2010Prop46
 90
       50
102
RTVSPost2010PropOp46
 70
     1
102
RTVSPost2010Prop47
 90
       50
102
RTVSPost2010PropOp47
 70
     1
102
RTVSPost2010Prop48
 90
       50
102
RTVSPost2010PropOp48
 70
     1
102
RTVSPost2010Prop49
280
     0
102
RTVSPost2010PropOp49
 70
     1
102
RTVSPost2010Prop50
 90
       50
102
RTVSPost2010PropOp50
 70
     1
102
RTVSPost2010Prop51ColorIndex
 90
      256
102
RTVSPost2010Prop51ColorRGB
 90
-16777216
102
RTVSPost2010PropOp51
 70
     0
102
RTVSPost2010Prop52
140
1.0
102
RTVSPost2010PropOp52
 70
     0
102
RTVSPost2010Prop53
 90
        2
102
RTVSPost2010PropOp53
 70
     1
102
RTVSPost2010Prop54
  1
strokes_ogs.tif
102
RTVSPost2010PropOp54
 70
     1
102
RTVSPost2010Prop55
280
     0
102
RTVSPost2010PropOp55
 70
     1
102
RTVSPost2010Prop56
140
1.0
102
RTVSPost2010PropOp56
 70
     1
102
RTVSPost2010Prop57
140
1.0
102
RTVSPost2010PropOp57
 70
     1
102
RTVSPropertyOp0
 70
     1
102
RTVSPropertyOp1
 70
     1
102
RTVSPropertyOp2
 70
     1
102
RTVSPropertyOp3
 70
     1
102
RTVSPropertyOp4
 70
     1
102
RTVSPropertyOp5
 70
     1
102
RTVSPropertyOp6
 70
     1
102
RTVSPropertyOp7
 70
     1
102
RTVSPropertyOp8
 70
     1
102
RTVSPropertyOp9
 70
     1
102
RTVSPropertyOp10
 70
     1
102
RTVSPropertyOp11
 70
     1
102
RTVSPropertyOp12
 70
     1
102
RTVSPropertyOp13
 70
     1
102
RTVSPropertyOp14
 70
     1
102
RTVSPropertyOp15
 70
     1
102
RTVSPropertyOp16
 70
     1
102
RTVSPropertyOp17
 70
     1
102
RTVSPropertyOp18
 70
     1
102
RTVSPropertyOp19
 70
     1
102
RTVSPropertyOp20
 70
     1
102
RTVSPropertyOp21
 70
     1
102
RTVSPropertyOp22
 70
     1
102
RTVSPropertyOp23
 70
     1
102
RTVSPropertyOp24
 70
     1
102
RTVSPropertyOp25
 70
     1
102
RTVSPropertyOp26
 70
     1
102
RTVSPropertyOp27
 70
     1
102
RTVSPropertyOp28
 70
     1
102
RTVSPropertyOp29
 70
     1
102
RTVSPropertyOp30
 70
     1
102
RTVSPropertyOp31
 70
     1
102
RTVSPropertyOp32
 70
     1
102
RTVSPropertyOp33
 70
     1
102
RTVSPropertyOp34
 70
     1
102
RTVSPropertyOp35
 70
     1
102
RTVSPropertyOp36
 70
     1
102
RTVSPropertyOp37
 70
     1
102
RTVSPropertyOp38
 70
     1
102
RTVSPropertyOp39
 70
     1
102
RTVSPropertyOp40
 70
     1
102
RTVSPropertyOp41
 70
     1
102
RTVSPropertyOp42
 70
     1
102
RTVSPropertyOp43
 70
     1
102
RTVSPropertyOp44
 70
     1
102
RTVSPropertyOp45
 70
     1
102
RTVSPropertyOp46
 70
     1
102
RTVSPropertyOp47
 70
     1
102
RTVSPropertyOp48
 70
     1
102
RTVSPropertyOp49
 70
     1
102
RTVSPropertyOp50
 70
     1
102
RTVSPropertyOp51
 70
     0
102
RTVSPropertyOp52
 70
     0
102
RTVSPropertyOp53
 70
     1
102
RTVSPropertyOp54
 70
     1
102
RTVSPropertyOp55
 70
     1
102
RTVSPropertyOp56
 70
     1
102
RTVSPropertyOp57
 70
     1
102
RTVSPropertyOp58
 70
     1
102
RTVSPropertyOp59
 70
     1
102
RTVSPropertyOp60
 70
     1
102
RTVSPropertyOp61
 70
     1
102
RTVSPropertyOp62
 70
     1
  0
XRECORD
  5
4B1
102
{ACAD_REACTORS
330
4B0
102
}
330
4B0
100
AcDbXrecord
280
     1
102
RTVSPost2010Prop28
280
     0
102
RTVSPost2010PropOp28
 70
     1
102
RTVSPost2010Prop29
280
     1
102
RTVSPost2010PropOp29
 70
     1
102
RTVSPost2010Prop30
280
     1
102
RTVSPost2010PropOp30
 70
     1
102
RTVSPost2010Prop31
280
     0
102
RTVSPost2010PropOp31
 70
     1
102
RTVSPost2010Prop32
280
     0
102
RTVSPost2010PropOp32
 70
     1
102
RTVSPost2010Prop33
280
     0
102
RTVSPost2010PropOp33
 70
     1
102
RTVSPost2010Prop34
280
     0
102
RTVSPost2010PropOp34
 70
     1
102
RTVSPost2010Prop35
280
     0
102
RTVSPost2010PropOp35
 70
     1
102
RTVSPost2010Prop36
280
     0
102
RTVSPost2010PropOp36
 70
     1
102
RTVSPost2010Prop37
 90
       50
102
RTVSPost2010PropOp37
 70
     1
102
RTVSPost2010Prop38
140
0.0
102
RTVSPost2010PropOp38
 70
     1
102
RTVSPost2010Prop39
140
1.0
102
RTVSPost2010PropOp39
 70
     1
102
RTVSPost2010Prop40
 90
        0
102
RTVSPost2010PropOp40
 70
     1
102
RTVSPost2010Prop41ColorIndex
 90
       18
102
RTVSPost2010Prop41ColorRGB
 90
        0
102
RTVSPost2010PropOp41
 70
     1
102
RTVSPost2010Prop42
 90
       50
102
RTVSPost2010PropOp42
 70
     1
102
RTVSPost2010Prop43
 90
        3
102
RTVSPost2010PropOp43
 70
     1
102
RTVSPost2010Prop44ColorIndex
 90
        5
102
RTVSPost2010Prop44ColorRGB
 90
      255
102
RTVSPost2010PropOp44
 70
     1
102
RTVSPost2010Prop45
280
     0
102
RTVSPost2010PropOp45
 70
     1
102
RTVSPost2010Prop46
 90
       50
102
RTVSPost2010PropOp46
 70
     1
102
RTVSPost2010Prop47
 90
       50
102
RTVSPost2010PropOp47
 70
     1
102
RTVSPost2010Prop48
 90
       50
102
RTVSPost2010PropOp48
 70
     1
102
RTVSPost2010Prop49
280
     0
102
RTVSPost2010PropOp49
 70
     1
102
RTVSPost2010Prop50
 90
       50
102
RTVSPost2010PropOp50
 70
     1
102
RTVSPost2010Prop51ColorIndex
 90
      256
102
RTVSPost2010Prop51ColorRGB
 90
-16777216
102
RTVSPost2010PropOp51
 70
     0
102
RTVSPost2010Prop52
140
1.0
102
RTVSPost2010PropOp52
 70
     0
102
RTVSPost2010Prop53
 90
        2
102
RTVSPost2010PropOp53
 70
     1
102
RTVSPost2010Prop54
  1
strokes_ogs.tif
102
RTVSPost2010PropOp54
 70
     1
102
RTVSPost2010Prop55
280
     0
102
RTVSPost2010PropOp55
 70
     1
102
RTVSPost2010Prop56
140
1.0
102
RTVSPost2010PropOp56
 70
     1
102
RTVSPost2010Prop57
140
1.0
102
RTVSPost2010PropOp57
 70
     1
102
RTVSPropertyOp0
 70
     1
102
RTVSPropertyOp1
 70
     1
102
RTVSPropertyOp2
 70
     1
102
RTVSPropertyOp3
 70
     1
102
RTVSPropertyOp4
 70
     1
102
RTVSPropertyOp5
 70
     1
102
RTVSPropertyOp6
 70
     1
102
RTVSPropertyOp7
 70
     1
102
RTVSPropertyOp8
 70
     1
102
RTVSPropertyOp9
 70
     1
102
RTVSPropertyOp10
 70
     1
102
RTVSPropertyOp11
 70
     1
102
RTVSPropertyOp12
 70
     1
102
RTVSPropertyOp13
 70
     1
102
RTVSPropertyOp14
 70
     1
102
RTVSPropertyOp15
 70
     1
102
RTVSPropertyOp16
 70
     1
102
RTVSPropertyOp17
 70
     1
102
RTVSPropertyOp18
 70
     1
102
RTVSPropertyOp19
 70
     1
102
RTVSPropertyOp20
 70
     1
102
RTVSPropertyOp21
 70
     1
102
RTVSPropertyOp22
 70
     1
102
RTVSPropertyOp23
 70
     1
102
RTVSPropertyOp24
 70
     1
102
RTVSPropertyOp25
 70
     1
102
RTVSPropertyOp26
 70
     1
102
RTVSPropertyOp27
 70
     1
102
RTVSPropertyOp28
 70
     1
102
RTVSPropertyOp29
 70
     1
102
RTVSPropertyOp30
 70
     1
102
RTVSPropertyOp31
 70
     1
102
RTVSPropertyOp32
 70
     1
102
RTVSPropertyOp33
 70
     1
102
RTVSPropertyOp34
 70
     1
102
RTVSPropertyOp35
 70
     1
102
RTVSPropertyOp36
 70
     1
102
RTVSPropertyOp37
 70
     1
102
RTVSPropertyOp38
 70
     1
102
RTVSPropertyOp39
 70
     1
102
RTVSPropertyOp40
 70
     1
102
RTVSPropertyOp41
 70
     1
102
RTVSPropertyOp42
 70
     1
102
RTVSPropertyOp43
 70
     1
102
RTVSPropertyOp44
 70
     1
102
RTVSPropertyOp45
 70
     1
102
RTVSPropertyOp46
 70
     1
102
RTVSPropertyOp47
 70
     1
102
RTVSPropertyOp48
 70
     1
102
RTVSPropertyOp49
 70
     1
102
RTVSPropertyOp50
 70
     1
102
RTVSPropertyOp51
 70
     0
102
RTVSPropertyOp52
 70
     0
102
RTVSPropertyOp53
 70
     1
102
RTVSPropertyOp54
 70
     1
102
RTVSPropertyOp55
 70
     1
102
RTVSPropertyOp56
 70
     1
102
RTVSPropertyOp57
 70
     1
102
RTVSPropertyOp58
 70
     1
102
RTVSPropertyOp59
 70
     1
102
RTVSPropertyOp60
 70
     1
102
RTVSPropertyOp61
 70
     1
102
RTVSPropertyOp62
 70
     1
  0
XRECORD
  5
4AF
102
{ACAD_REACTORS
330
4AE
102
}
330
4AE
100
AcDbXrecord
280
     1
102
RTVSPost2010Prop28
280
     0
102
RTVSPost2010PropOp28
 70
     1
102
RTVSPost2010Prop29
280
     1
102
RTVSPost2010PropOp29
 70
     1
102
RTVSPost2010Prop30
280
     1
102
RTVSPost2010PropOp30
 70
     1
102
RTVSPost2010Prop31
280
     0
102
RTVSPost2010PropOp31
 70
     1
102
RTVSPost2010Prop32
280
     0
102
RTVSPost2010PropOp32
 70
     1
102
RTVSPost2010Prop33
280
     0
102
RTVSPost2010PropOp33
 70
     1
102
RTVSPost2010Prop34
280
     0
102
RTVSPost2010PropOp34
 70
     1
102
RTVSPost2010Prop35
280
     0
102
RTVSPost2010PropOp35
 70
     1
102
RTVSPost2010Prop36
280
     0
102
RTVSPost2010PropOp36
 70
     1
102
RTVSPost2010Prop37
 90
       50
102
RTVSPost2010PropOp37
 70
     1
102
RTVSPost2010Prop38
140
0.0
102
RTVSPost2010PropOp38
 70
     1
102
RTVSPost2010Prop39
140
1.0
102
RTVSPost2010PropOp39
 70
     1
102
RTVSPost2010Prop40
 90
        0
102
RTVSPost2010PropOp40
 70
     1
102
RTVSPost2010Prop41ColorIndex
 90
       18
102
RTVSPost2010Prop41ColorRGB
 90
        0
102
RTVSPost2010PropOp41
 70
     1
102
RTVSPost2010Prop42
 90
       50
102
RTVSPost2010PropOp42
 70
     1
102
RTVSPost2010Prop43
 90
        3
102
RTVSPost2010PropOp43
 70
     1
102
RTVSPost2010Prop44ColorIndex
 90
        5
102
RTVSPost2010Prop44ColorRGB
 90
      255
102
RTVSPost2010PropOp44
 70
     1
102
RTVSPost2010Prop45
280
     0
102
RTVSPost2010PropOp45
 70
     1
102
RTVSPost2010Prop46
 90
       50
102
RTVSPost2010PropOp46
 70
     1
102
RTVSPost2010Prop47
 90
       50
102
RTVSPost2010PropOp47
 70
     1
102
RTVSPost2010Prop48
 90
       50
102
RTVSPost2010PropOp48
 70
     1
102
RTVSPost2010Prop49
280
     0
102
RTVSPost2010PropOp49
 70
     1
102
RTVSPost2010Prop50
 90
       50
102
RTVSPost2010PropOp50
 70
     1
102
RTVSPost2010Prop51ColorIndex
 90
      256
102
RTVSPost2010Prop51ColorRGB
 90
-16777216
102
RTVSPost2010PropOp51
 70
     0
102
RTVSPost2010Prop52
140
1.0
102
RTVSPost2010PropOp52
 70
     0
102
RTVSPost2010Prop53
 90
        2
102
RTVSPost2010PropOp53
 70
     1
102
RTVSPost2010Prop54
  1
strokes_ogs.tif
102
RTVSPost2010PropOp54
 70
     1
102
RTVSPost2010Prop55
280
     0
102
RTVSPost2010PropOp55
 70
     1
102
RTVSPost2010Prop56
140
1.0
102
RTVSPost2010PropOp56
 70
     1
102
RTVSPost2010Prop57
140
1.0
102
RTVSPost2010PropOp57
 70
     1
102
RTVSPropertyOp0
 70
     1
102
RTVSPropertyOp1
 70
     1
102
RTVSPropertyOp2
 70
     1
102
RTVSPropertyOp3
 70
     1
102
RTVSPropertyOp4
 70
     1
102
RTVSPropertyOp5
 70
     1
102
RTVSPropertyOp6
 70
     1
102
RTVSPropertyOp7
 70
     1
102
RTVSPropertyOp8
 70
     1
102
RTVSPropertyOp9
 70
     1
102
RTVSPropertyOp10
 70
     1
102
RTVSPropertyOp11
 70
     1
102
RTVSPropertyOp12
 70
     1
102
RTVSPropertyOp13
 70
     1
102
RTVSPropertyOp14
 70
     1
102
RTVSPropertyOp15
 70
     1
102
RTVSPropertyOp16
 70
     1
102
RTVSPropertyOp17
 70
     1
102
RTVSPropertyOp18
 70
     1
102
RTVSPropertyOp19
 70
     1
102
RTVSPropertyOp20
 70
     1
102
RTVSPropertyOp21
 70
     1
102
RTVSPropertyOp22
 70
     1
102
RTVSPropertyOp23
 70
     1
102
RTVSPropertyOp24
 70
     1
102
RTVSPropertyOp25
 70
     1
102
RTVSPropertyOp26
 70
     1
102
RTVSPropertyOp27
 70
     1
102
RTVSPropertyOp28
 70
     1
102
RTVSPropertyOp29
 70
     1
102
RTVSPropertyOp30
 70
     1
102
RTVSPropertyOp31
 70
     1
102
RTVSPropertyOp32
 70
     1
102
RTVSPropertyOp33
 70
     1
102
RTVSPropertyOp34
 70
     1
102
RTVSPropertyOp35
 70
     1
102
RTVSPropertyOp36
 70
     1
102
RTVSPropertyOp37
 70
     1
102
RTVSPropertyOp38
 70
     1
102
RTVSPropertyOp39
 70
     1
102
RTVSPropertyOp40
 70
     1
102
RTVSPropertyOp41
 70
     1
102
RTVSPropertyOp42
 70
     1
102
RTVSPropertyOp43
 70
     1
102
RTVSPropertyOp44
 70
     1
102
RTVSPropertyOp45
 70
     1
102
RTVSPropertyOp46
 70
     1
102
RTVSPropertyOp47
 70
     1
102
RTVSPropertyOp48
 70
     1
102
RTVSPropertyOp49
 70
     1
102
RTVSPropertyOp50
 70
     1
102
RTVSPropertyOp51
 70
     0
102
RTVSPropertyOp52
 70
     0
102
RTVSPropertyOp53
 70
     1
102
RTVSPropertyOp54
 70
     1
102
RTVSPropertyOp55
 70
     1
102
RTVSPropertyOp56
 70
     1
102
RTVSPropertyOp57
 70
     1
102
RTVSPropertyOp58
 70
     1
102
RTVSPropertyOp59
 70
     1
102
RTVSPropertyOp60
 70
     1
102
RTVSPropertyOp61
 70
     1
102
RTVSPropertyOp62
 70
     1
  0
XRECORD
  5
4A9
102
{ACAD_REACTORS
330
4A8
102
}
330
4A8
100
AcDbXrecord
280
     1
102
RTVSPost2010Prop28
280
     0
102
RTVSPost2010PropOp28
 70
     1
102
RTVSPost2010Prop29
280
     1
102
RTVSPost2010PropOp29
 70
     1
102
RTVSPost2010Prop30
280
     1
102
RTVSPost2010PropOp30
 70
     1
102
RTVSPost2010Prop31
280
     0
102
RTVSPost2010PropOp31
 70
     1
102
RTVSPost2010Prop32
280
     0
102
RTVSPost2010PropOp32
 70
     1
102
RTVSPost2010Prop33
280
     0
102
RTVSPost2010PropOp33
 70
     1
102
RTVSPost2010Prop34
280
     0
102
RTVSPost2010PropOp34
 70
     1
102
RTVSPost2010Prop35
280
     0
102
RTVSPost2010PropOp35
 70
     1
102
RTVSPost2010Prop36
280
     0
102
RTVSPost2010PropOp36
 70
     1
102
RTVSPost2010Prop37
 90
       50
102
RTVSPost2010PropOp37
 70
     1
102
RTVSPost2010Prop38
140
0.0
102
RTVSPost2010PropOp38
 70
     1
102
RTVSPost2010Prop39
140
1.0
102
RTVSPost2010PropOp39
 70
     1
102
RTVSPost2010Prop40
 90
        0
102
RTVSPost2010PropOp40
 70
     1
102
RTVSPost2010Prop41ColorIndex
 90
       18
102
RTVSPost2010Prop41ColorRGB
 90
        0
102
RTVSPost2010PropOp41
 70
     1
102
RTVSPost2010Prop42
 90
       50
102
RTVSPost2010PropOp42
 70
     1
102
RTVSPost2010Prop43
 90
        3
102
RTVSPost2010PropOp43
 70
     1
102
RTVSPost2010Prop44ColorIndex
 90
        5
102
RTVSPost2010Prop44ColorRGB
 90
      255
102
RTVSPost2010PropOp44
 70
     1
102
RTVSPost2010Prop45
280
     0
102
RTVSPost2010PropOp45
 70
     1
102
RTVSPost2010Prop46
 90
       50
102
RTVSPost2010PropOp46
 70
     1
102
RTVSPost2010Prop47
 90
       50
102
RTVSPost2010PropOp47
 70
     1
102
RTVSPost2010Prop48
 90
       50
102
RTVSPost2010PropOp48
 70
     1
102
RTVSPost2010Prop49
280
     0
102
RTVSPost2010PropOp49
 70
     1
102
RTVSPost2010Prop50
 90
       50
102
RTVSPost2010PropOp50
 70
     1
102
RTVSPost2010Prop51ColorIndex
 90
      256
102
RTVSPost2010Prop51ColorRGB
 90
-16777216
102
RTVSPost2010PropOp51
 70
     0
102
RTVSPost2010Prop52
140
1.0
102
RTVSPost2010PropOp52
 70
     0
102
RTVSPost2010Prop53
 90
        2
102
RTVSPost2010PropOp53
 70
     1
102
RTVSPost2010Prop54
  1
strokes_ogs.tif
102
RTVSPost2010PropOp54
 70
     1
102
RTVSPost2010Prop55
280
     0
102
RTVSPost2010PropOp55
 70
     1
102
RTVSPost2010Prop56
140
1.0
102
RTVSPost2010PropOp56
 70
     1
102
RTVSPost2010Prop57
140
1.0
102
RTVSPost2010PropOp57
 70
     1
102
RTVSPropertyOp0
 70
     1
102
RTVSPropertyOp1
 70
     1
102
RTVSPropertyOp2
 70
     1
102
RTVSPropertyOp3
 70
     1
102
RTVSPropertyOp4
 70
     1
102
RTVSPropertyOp5
 70
     1
102
RTVSPropertyOp6
 70
     1
102
RTVSPropertyOp7
 70
     1
102
RTVSPropertyOp8
 70
     1
102
RTVSPropertyOp9
 70
     1
102
RTVSPropertyOp10
 70
     1
102
RTVSPropertyOp11
 70
     1
102
RTVSPropertyOp12
 70
     1
102
RTVSPropertyOp13
 70
     1
102
RTVSPropertyOp14
 70
     1
102
RTVSPropertyOp15
 70
     1
102
RTVSPropertyOp16
 70
     1
102
RTVSPropertyOp17
 70
     1
102
RTVSPropertyOp18
 70
     1
102
RTVSPropertyOp19
 70
     1
102
RTVSPropertyOp20
 70
     1
102
RTVSPropertyOp21
 70
     1
102
RTVSPropertyOp22
 70
     1
102
RTVSPropertyOp23
 70
     1
102
RTVSPropertyOp24
 70
     1
102
RTVSPropertyOp25
 70
     1
102
RTVSPropertyOp26
 70
     1
102
RTVSPropertyOp27
 70
     1
102
RTVSPropertyOp28
 70
     1
102
RTVSPropertyOp29
 70
     1
102
RTVSPropertyOp30
 70
     1
102
RTVSPropertyOp31
 70
     1
102
RTVSPropertyOp32
 70
     1
102
RTVSPropertyOp33
 70
     1
102
RTVSPropertyOp34
 70
     1
102
RTVSPropertyOp35
 70
     1
102
RTVSPropertyOp36
 70
     1
102
RTVSPropertyOp37
 70
     1
102
RTVSPropertyOp38
 70
     1
102
RTVSPropertyOp39
 70
     1
102
RTVSPropertyOp40
 70
     1
102
RTVSPropertyOp41
 70
     1
102
RTVSPropertyOp42
 70
     1
102
RTVSPropertyOp43
 70
     1
102
RTVSPropertyOp44
 70
     1
102
RTVSPropertyOp45
 70
     1
102
RTVSPropertyOp46
 70
     1
102
RTVSPropertyOp47
 70
     1
102
RTVSPropertyOp48
 70
     1
102
RTVSPropertyOp49
 70
     1
102
RTVSPropertyOp50
 70
     1
102
RTVSPropertyOp51
 70
     0
102
RTVSPropertyOp52
 70
     0
102
RTVSPropertyOp53
 70
     1
102
RTVSPropertyOp54
 70
     1
102
RTVSPropertyOp55
 70
     1
102
RTVSPropertyOp56
 70
     1
102
RTVSPropertyOp57
 70
     1
102
RTVSPropertyOp58
 70
     1
102
RTVSPropertyOp59
 70
     1
102
RTVSPropertyOp60
 70
     1
102
RTVSPropertyOp61
 70
     1
102
RTVSPropertyOp62
 70
     1
  0
XRECORD
  5
4AB
102
{ACAD_REACTORS
330
4AA
102
}
330
4AA
100
AcDbXrecord
280
     1
102
RTVSPost2010Prop28
280
     0
102
RTVSPost2010PropOp28
 70
     1
102
RTVSPost2010Prop29
280
     1
102
RTVSPost2010PropOp29
 70
     1
102
RTVSPost2010Prop30
280
     1
102
RTVSPost2010PropOp30
 70
     1
102
RTVSPost2010Prop31
280
     0
102
RTVSPost2010PropOp31
 70
     1
102
RTVSPost2010Prop32
280
     0
102
RTVSPost2010PropOp32
 70
     1
102
RTVSPost2010Prop33
280
     0
102
RTVSPost2010PropOp33
 70
     1
102
RTVSPost2010Prop34
280
     0
102
RTVSPost2010PropOp34
 70
     1
102
RTVSPost2010Prop35
280
     0
102
RTVSPost2010PropOp35
 70
     1
102
RTVSPost2010Prop36
280
     0
102
RTVSPost2010PropOp36
 70
     1
102
RTVSPost2010Prop37
 90
       50
102
RTVSPost2010PropOp37
 70
     1
102
RTVSPost2010Prop38
140
0.0
102
RTVSPost2010PropOp38
 70
     1
102
RTVSPost2010Prop39
140
1.0
102
RTVSPost2010PropOp39
 70
     1
102
RTVSPost2010Prop40
 90
        0
102
RTVSPost2010PropOp40
 70
     1
102
RTVSPost2010Prop41ColorIndex
 90
       18
102
RTVSPost2010Prop41ColorRGB
 90
        0
102
RTVSPost2010PropOp41
 70
     1
102
RTVSPost2010Prop42
 90
       50
102
RTVSPost2010PropOp42
 70
     1
102
RTVSPost2010Prop43
 90
        3
102
RTVSPost2010PropOp43
 70
     1
102
RTVSPost2010Prop44ColorIndex
 90
        5
102
RTVSPost2010Prop44ColorRGB
 90
      255
102
RTVSPost2010PropOp44
 70
     1
102
RTVSPost2010Prop45
280
     0
102
RTVSPost2010PropOp45
 70
     1
102
RTVSPost2010Prop46
 90
       50
102
RTVSPost2010PropOp46
 70
     1
102
RTVSPost2010Prop47
 90
       50
102
RTVSPost2010PropOp47
 70
     1
102
RTVSPost2010Prop48
 90
       50
102
RTVSPost2010PropOp48
 70
     1
102
RTVSPost2010Prop49
280
     0
102
RTVSPost2010PropOp49
 70
     1
102
RTVSPost2010Prop50
 90
       50
102
RTVSPost2010PropOp50
 70
     1
102
RTVSPost2010Prop51ColorIndex
 90
      256
102
RTVSPost2010Prop51ColorRGB
 90
-16777216
102
RTVSPost2010PropOp51
 70
     0
102
RTVSPost2010Prop52
140
1.0
102
RTVSPost2010PropOp52
 70
     0
102
RTVSPost2010Prop53
 90
        2
102
RTVSPost2010PropOp53
 70
     1
102
RTVSPost2010Prop54
  1
strokes_ogs.tif
102
RTVSPost2010PropOp54
 70
     1
102
RTVSPost2010Prop55
280
     0
102
RTVSPost2010PropOp55
 70
     1
102
RTVSPost2010Prop56
140
1.0
102
RTVSPost2010PropOp56
 70
     1
102
RTVSPost2010Prop57
140
1.0
102
RTVSPost2010PropOp57
 70
     1
102
RTVSPropertyOp0
 70
     1
102
RTVSPropertyOp1
 70
     1
102
RTVSPropertyOp2
 70
     1
102
RTVSPropertyOp3
 70
     1
102
RTVSPropertyOp4
 70
     1
102
RTVSPropertyOp5
 70
     1
102
RTVSPropertyOp6
 70
     1
102
RTVSPropertyOp7
 70
     1
102
RTVSPropertyOp8
 70
     1
102
RTVSPropertyOp9
 70
     1
102
RTVSPropertyOp10
 70
     1
102
RTVSPropertyOp11
 70
     1
102
RTVSPropertyOp12
 70
     1
102
RTVSPropertyOp13
 70
     1
102
RTVSPropertyOp14
 70
     1
102
RTVSPropertyOp15
 70
     1
102
RTVSPropertyOp16
 70
     1
102
RTVSPropertyOp17
 70
     1
102
RTVSPropertyOp18
 70
     1
102
RTVSPropertyOp19
 70
     1
102
RTVSPropertyOp20
 70
     1
102
RTVSPropertyOp21
 70
     1
102
RTVSPropertyOp22
 70
     1
102
RTVSPropertyOp23
 70
     1
102
RTVSPropertyOp24
 70
     1
102
RTVSPropertyOp25
 70
     1
102
RTVSPropertyOp26
 70
     1
102
RTVSPropertyOp27
 70
     1
102
RTVSPropertyOp28
 70
     1
102
RTVSPropertyOp29
 70
     1
102
RTVSPropertyOp30
 70
     1
102
RTVSPropertyOp31
 70
     1
102
RTVSPropertyOp32
 70
     1
102
RTVSPropertyOp33
 70
     1
102
RTVSPropertyOp34
 70
     1
102
RTVSPropertyOp35
 70
     1
102
RTVSPropertyOp36
 70
     1
102
RTVSPropertyOp37
 70
     1
102
RTVSPropertyOp38
 70
     1
102
RTVSPropertyOp39
 70
     1
102
RTVSPropertyOp40
 70
     1
102
RTVSPropertyOp41
 70
     1
102
RTVSPropertyOp42
 70
     1
102
RTVSPropertyOp43
 70
     1
102
RTVSPropertyOp44
 70
     1
102
RTVSPropertyOp45
 70
     1
102
RTVSPropertyOp46
 70
     1
102
RTVSPropertyOp47
 70
     1
102
RTVSPropertyOp48
 70
     1
102
RTVSPropertyOp49
 70
     1
102
RTVSPropertyOp50
 70
     1
102
RTVSPropertyOp51
 70
     0
102
RTVSPropertyOp52
 70
     0
102
RTVSPropertyOp53
 70
     1
102
RTVSPropertyOp54
 70
     1
102
RTVSPropertyOp55
 70
     1
102
RTVSPropertyOp56
 70
     1
102
RTVSPropertyOp57
 70
     1
102
RTVSPropertyOp58
 70
     1
102
RTVSPropertyOp59
 70
     1
102
RTVSPropertyOp60
 70
     1
102
RTVSPropertyOp61
 70
     1
102
RTVSPropertyOp62
 70
     1
  0
XRECORD
  5
49B
102
{ACAD_REACTORS
330
49A
102
}
330
49A
100
AcDbXrecord
280
     1
102
RTVSPost2010Prop28
280
     0
102
RTVSPost2010PropOp28
 70
     1
102
RTVSPost2010Prop29
280
     1
102
RTVSPost2010PropOp29
 70
     1
102
RTVSPost2010Prop30
280
     1
102
RTVSPost2010PropOp30
 70
     1
102
RTVSPost2010Prop31
280
     0
102
RTVSPost2010PropOp31
 70
     1
102
RTVSPost2010Prop32
280
     0
102
RTVSPost2010PropOp32
 70
     1
102
RTVSPost2010Prop33
280
     0
102
RTVSPost2010PropOp33
 70
     1
102
RTVSPost2010Prop34
280
     0
102
RTVSPost2010PropOp34
 70
     1
102
RTVSPost2010Prop35
280
     0
102
RTVSPost2010PropOp35
 70
     1
102
RTVSPost2010Prop36
280
     0
102
RTVSPost2010PropOp36
 70
     1
102
RTVSPost2010Prop37
 90
       50
102
RTVSPost2010PropOp37
 70
     1
102
RTVSPost2010Prop38
140
0.0
102
RTVSPost2010PropOp38
 70
     1
102
RTVSPost2010Prop39
140
1.0
102
RTVSPost2010PropOp39
 70
     1
102
RTVSPost2010Prop40
 90
        0
102
RTVSPost2010PropOp40
 70
     1
102
RTVSPost2010Prop41ColorIndex
 90
       18
102
RTVSPost2010Prop41ColorRGB
 90
        0
102
RTVSPost2010PropOp41
 70
     1
102
RTVSPost2010Prop42
 90
       50
102
RTVSPost2010PropOp42
 70
     1
102
RTVSPost2010Prop43
 90
        3
102
RTVSPost2010PropOp43
 70
     1
102
RTVSPost2010Prop44ColorIndex
 90
        5
102
RTVSPost2010Prop44ColorRGB
 90
      255
102
RTVSPost2010PropOp44
 70
     1
102
RTVSPost2010Prop45
280
     0
102
RTVSPost2010PropOp45
 70
     1
102
RTVSPost2010Prop46
 90
       50
102
RTVSPost2010PropOp46
 70
     1
102
RTVSPost2010Prop47
 90
       50
102
RTVSPost2010PropOp47
 70
     1
102
RTVSPost2010Prop48
 90
       50
102
RTVSPost2010PropOp48
 70
     1
102
RTVSPost2010Prop49
280
     0
102
RTVSPost2010PropOp49
 70
     1
102
RTVSPost2010Prop50
 90
       50
102
RTVSPost2010PropOp50
 70
     1
102
RTVSPost2010Prop51ColorIndex
 90
      256
102
RTVSPost2010Prop51ColorRGB
 90
-16777216
102
RTVSPost2010PropOp51
 70
     0
102
RTVSPost2010Prop52
140
1.0
102
RTVSPost2010PropOp52
 70
     0
102
RTVSPost2010Prop53
 90
        2
102
RTVSPost2010PropOp53
 70
     1
102
RTVSPost2010Prop54
  1
strokes_ogs.tif
102
RTVSPost2010PropOp54
 70
     1
102
RTVSPost2010Prop55
280
     0
102
RTVSPost2010PropOp55
 70
     1
102
RTVSPost2010Prop56
140
1.0
102
RTVSPost2010PropOp56
 70
     1
102
RTVSPost2010Prop57
140
1.0
102
RTVSPost2010PropOp57
 70
     1
102
RTVSPropertyOp0
 70
     1
102
RTVSPropertyOp1
 70
     1
102
RTVSPropertyOp2
 70
     1
102
RTVSPropertyOp3
 70
     1
102
RTVSPropertyOp4
 70
     1
102
RTVSPropertyOp5
 70
     1
102
RTVSPropertyOp6
 70
     1
102
RTVSPropertyOp7
 70
     1
102
RTVSPropertyOp8
 70
     1
102
RTVSPropertyOp9
 70
     1
102
RTVSPropertyOp10
 70
     1
102
RTVSPropertyOp11
 70
     1
102
RTVSPropertyOp12
 70
     1
102
RTVSPropertyOp13
 70
     1
102
RTVSPropertyOp14
 70
     1
102
RTVSPropertyOp15
 70
     1
102
RTVSPropertyOp16
 70
     1
102
RTVSPropertyOp17
 70
     1
102
RTVSPropertyOp18
 70
     1
102
RTVSPropertyOp19
 70
     1
102
RTVSPropertyOp20
 70
     1
102
RTVSPropertyOp21
 70
     1
102
RTVSPropertyOp22
 70
     1
102
RTVSPropertyOp23
 70
     1
102
RTVSPropertyOp24
 70
     1
102
RTVSPropertyOp25
 70
     1
102
RTVSPropertyOp26
 70
     1
102
RTVSPropertyOp27
 70
     1
102
RTVSPropertyOp28
 70
     1
102
RTVSPropertyOp29
 70
     1
102
RTVSPropertyOp30
 70
     1
102
RTVSPropertyOp31
 70
     1
102
RTVSPropertyOp32
 70
     1
102
RTVSPropertyOp33
 70
     1
102
RTVSPropertyOp34
 70
     1
102
RTVSPropertyOp35
 70
     1
102
RTVSPropertyOp36
 70
     1
102
RTVSPropertyOp37
 70
     1
102
RTVSPropertyOp38
 70
     1
102
RTVSPropertyOp39
 70
     1
102
RTVSPropertyOp40
 70
     1
102
RTVSPropertyOp41
 70
     1
102
RTVSPropertyOp42
 70
     1
102
RTVSPropertyOp43
 70
     1
102
RTVSPropertyOp44
 70
     1
102
RTVSPropertyOp45
 70
     1
102
RTVSPropertyOp46
 70
     1
102
RTVSPropertyOp47
 70
     1
102
RTVSPropertyOp48
 70
     1
102
RTVSPropertyOp49
 70
     1
102
RTVSPropertyOp50
 70
     1
102
RTVSPropertyOp51
 70
     0
102
RTVSPropertyOp52
 70
     0
102
RTVSPropertyOp53
 70
     1
102
RTVSPropertyOp54
 70
     1
102
RTVSPropertyOp55
 70
     1
102
RTVSPropertyOp56
 70
     1
102
RTVSPropertyOp57
 70
     1
102
RTVSPropertyOp58
 70
     1
102
RTVSPropertyOp59
 70
     1
102
RTVSPropertyOp60
 70
     1
102
RTVSPropertyOp61
 70
     1
102
RTVSPropertyOp62
 70
     1
  0
XRECORD
  5
48F
102
{ACAD_REACTORS
330
48E
102
}
330
48E
100
AcDbXrecord
280
     1
102
RTVSPost2010Prop28
280
     0
102
RTVSPost2010PropOp28
 70
     1
102
RTVSPost2010Prop29
280
     1
102
RTVSPost2010PropOp29
 70
     1
102
RTVSPost2010Prop30
280
     1
102
RTVSPost2010PropOp30
 70
     1
102
RTVSPost2010Prop31
280
     0
102
RTVSPost2010PropOp31
 70
     1
102
RTVSPost2010Prop32
280
     0
102
RTVSPost2010PropOp32
 70
     1
102
RTVSPost2010Prop33
280
     0
102
RTVSPost2010PropOp33
 70
     1
102
RTVSPost2010Prop34
280
     0
102
RTVSPost2010PropOp34
 70
     1
102
RTVSPost2010Prop35
280
     0
102
RTVSPost2010PropOp35
 70
     1
102
RTVSPost2010Prop36
280
     0
102
RTVSPost2010PropOp36
 70
     1
102
RTVSPost2010Prop37
 90
       50
102
RTVSPost2010PropOp37
 70
     1
102
RTVSPost2010Prop38
140
0.0
102
RTVSPost2010PropOp38
 70
     1
102
RTVSPost2010Prop39
140
1.0
102
RTVSPost2010PropOp39
 70
     1
102
RTVSPost2010Prop40
 90
        0
102
RTVSPost2010PropOp40
 70
     1
102
RTVSPost2010Prop41ColorIndex
 90
       18
102
RTVSPost2010Prop41ColorRGB
 90
        0
102
RTVSPost2010PropOp41
 70
     1
102
RTVSPost2010Prop42
 90
       50
102
RTVSPost2010PropOp42
 70
     1
102
RTVSPost2010Prop43
 90
        3
102
RTVSPost2010PropOp43
 70
     1
102
RTVSPost2010Prop44ColorIndex
 90
        5
102
RTVSPost2010Prop44ColorRGB
 90
      255
102
RTVSPost2010PropOp44
 70
     1
102
RTVSPost2010Prop45
280
     0
102
RTVSPost2010PropOp45
 70
     1
102
RTVSPost2010Prop46
 90
       50
102
RTVSPost2010PropOp46
 70
     1
102
RTVSPost2010Prop47
 90
       50
102
RTVSPost2010PropOp47
 70
     1
102
RTVSPost2010Prop48
 90
       50
102
RTVSPost2010PropOp48
 70
     1
102
RTVSPost2010Prop49
280
     0
102
RTVSPost2010PropOp49
 70
     1
102
RTVSPost2010Prop50
 90
       50
102
RTVSPost2010PropOp50
 70
     1
102
RTVSPost2010Prop51ColorIndex
 90
      256
102
RTVSPost2010Prop51ColorRGB
 90
-16777216
102
RTVSPost2010PropOp51
 70
     0
102
RTVSPost2010Prop52
140
1.0
102
RTVSPost2010PropOp52
 70
     0
102
RTVSPost2010Prop53
 90
        2
102
RTVSPost2010PropOp53
 70
     1
102
RTVSPost2010Prop54
  1
strokes_ogs.tif
102
RTVSPost2010PropOp54
 70
     1
102
RTVSPost2010Prop55
280
     0
102
RTVSPost2010PropOp55
 70
     1
102
RTVSPost2010Prop56
140
1.0
102
RTVSPost2010PropOp56
 70
     1
102
RTVSPost2010Prop57
140
1.0
102
RTVSPost2010PropOp57
 70
     1
102
RTVSPropertyOp0
 70
     1
102
RTVSPropertyOp1
 70
     1
102
RTVSPropertyOp2
 70
     1
102
RTVSPropertyOp3
 70
     1
102
RTVSPropertyOp4
 70
     1
102
RTVSPropertyOp5
 70
     1
102
RTVSPropertyOp6
 70
     1
102
RTVSPropertyOp7
 70
     1
102
RTVSPropertyOp8
 70
     1
102
RTVSPropertyOp9
 70
     1
102
RTVSPropertyOp10
 70
     1
102
RTVSPropertyOp11
 70
     1
102
RTVSPropertyOp12
 70
     1
102
RTVSPropertyOp13
 70
     1
102
RTVSPropertyOp14
 70
     1
102
RTVSPropertyOp15
 70
     1
102
RTVSPropertyOp16
 70
     1
102
RTVSPropertyOp17
 70
     1
102
RTVSPropertyOp18
 70
     1
102
RTVSPropertyOp19
 70
     1
102
RTVSPropertyOp20
 70
     1
102
RTVSPropertyOp21
 70
     1
102
RTVSPropertyOp22
 70
     1
102
RTVSPropertyOp23
 70
     1
102
RTVSPropertyOp24
 70
     1
102
RTVSPropertyOp25
 70
     1
102
RTVSPropertyOp26
 70
     1
102
RTVSPropertyOp27
 70
     1
102
RTVSPropertyOp28
 70
     1
102
RTVSPropertyOp29
 70
     1
102
RTVSPropertyOp30
 70
     1
102
RTVSPropertyOp31
 70
     1
102
RTVSPropertyOp32
 70
     1
102
RTVSPropertyOp33
 70
     1
102
RTVSPropertyOp34
 70
     1
102
RTVSPropertyOp35
 70
     1
102
RTVSPropertyOp36
 70
     1
102
RTVSPropertyOp37
 70
     1
102
RTVSPropertyOp38
 70
     1
102
RTVSPropertyOp39
 70
     1
102
RTVSPropertyOp40
 70
     1
102
RTVSPropertyOp41
 70
     1
102
RTVSPropertyOp42
 70
     1
102
RTVSPropertyOp43
 70
     1
102
RTVSPropertyOp44
 70
     1
102
RTVSPropertyOp45
 70
     1
102
RTVSPropertyOp46
 70
     1
102
RTVSPropertyOp47
 70
     1
102
RTVSPropertyOp48
 70
     1
102
RTVSPropertyOp49
 70
     1
102
RTVSPropertyOp50
 70
     1
102
RTVSPropertyOp51
 70
     0
102
RTVSPropertyOp52
 70
     0
102
RTVSPropertyOp53
 70
     1
102
RTVSPropertyOp54
 70
     1
102
RTVSPropertyOp55
 70
     1
102
RTVSPropertyOp56
 70
     1
102
RTVSPropertyOp57
 70
     1
102
RTVSPropertyOp58
 70
     1
102
RTVSPropertyOp59
 70
     1
102
RTVSPropertyOp60
 70
     1
102
RTVSPropertyOp61
 70
     1
102
RTVSPropertyOp62
 70
     1
  0
XRECORD
  5
4AD
102
{ACAD_REACTORS
330
4AC
102
}
330
4AC
100
AcDbXrecord
280
     1
102
RTVSPost2010Prop28
280
     0
102
RTVSPost2010PropOp28
 70
     1
102
RTVSPost2010Prop29
280
     1
102
RTVSPost2010PropOp29
 70
     1
102
RTVSPost2010Prop30
280
     1
102
RTVSPost2010PropOp30
 70
     1
102
RTVSPost2010Prop31
280
     0
102
RTVSPost2010PropOp31
 70
     1
102
RTVSPost2010Prop32
280
     0
102
RTVSPost2010PropOp32
 70
     1
102
RTVSPost2010Prop33
280
     0
102
RTVSPost2010PropOp33
 70
     1
102
RTVSPost2010Prop34
280
     0
102
RTVSPost2010PropOp34
 70
     1
102
RTVSPost2010Prop35
280
     0
102
RTVSPost2010PropOp35
 70
     1
102
RTVSPost2010Prop36
280
     0
102
RTVSPost2010PropOp36
 70
     1
102
RTVSPost2010Prop37
 90
       50
102
RTVSPost2010PropOp37
 70
     1
102
RTVSPost2010Prop38
140
0.0
102
RTVSPost2010PropOp38
 70
     1
102
RTVSPost2010Prop39
140
1.0
102
RTVSPost2010PropOp39
 70
     1
102
RTVSPost2010Prop40
 90
        0
102
RTVSPost2010PropOp40
 70
     1
102
RTVSPost2010Prop41ColorIndex
 90
       18
102
RTVSPost2010Prop41ColorRGB
 90
        0
102
RTVSPost2010PropOp41
 70
     1
102
RTVSPost2010Prop42
 90
       50
102
RTVSPost2010PropOp42
 70
     1
102
RTVSPost2010Prop43
 90
        3
102
RTVSPost2010PropOp43
 70
     1
102
RTVSPost2010Prop44ColorIndex
 90
        5
102
RTVSPost2010Prop44ColorRGB
 90
      255
102
RTVSPost2010PropOp44
 70
     1
102
RTVSPost2010Prop45
280
     0
102
RTVSPost2010PropOp45
 70
     1
102
RTVSPost2010Prop46
 90
       50
102
RTVSPost2010PropOp46
 70
     1
102
RTVSPost2010Prop47
 90
       50
102
RTVSPost2010PropOp47
 70
     1
102
RTVSPost2010Prop48
 90
       50
102
RTVSPost2010PropOp48
 70
     1
102
RTVSPost2010Prop49
280
     0
102
RTVSPost2010PropOp49
 70
     1
102
RTVSPost2010Prop50
 90
       50
102
RTVSPost2010PropOp50
 70
     1
102
RTVSPost2010Prop51ColorIndex
 90
      256
102
RTVSPost2010Prop51ColorRGB
 90
-16777216
102
RTVSPost2010PropOp51
 70
     0
102
RTVSPost2010Prop52
140
1.0
102
RTVSPost2010PropOp52
 70
     0
102
RTVSPost2010Prop53
 90
        2
102
RTVSPost2010PropOp53
 70
     1
102
RTVSPost2010Prop54
  1
strokes_ogs.tif
102
RTVSPost2010PropOp54
 70
     1
102
RTVSPost2010Prop55
280
     0
102
RTVSPost2010PropOp55
 70
     1
102
RTVSPost2010Prop56
140
1.0
102
RTVSPost2010PropOp56
 70
     1
102
RTVSPost2010Prop57
140
1.0
102
RTVSPost2010PropOp57
 70
     1
102
RTVSPropertyOp0
 70
     1
102
RTVSPropertyOp1
 70
     1
102
RTVSPropertyOp2
 70
     1
102
RTVSPropertyOp3
 70
     1
102
RTVSPropertyOp4
 70
     1
102
RTVSPropertyOp5
 70
     1
102
RTVSPropertyOp6
 70
     1
102
RTVSPropertyOp7
 70
     1
102
RTVSPropertyOp8
 70
     1
102
RTVSPropertyOp9
 70
     1
102
RTVSPropertyOp10
 70
     1
102
RTVSPropertyOp11
 70
     1
102
RTVSPropertyOp12
 70
     1
102
RTVSPropertyOp13
 70
     1
102
RTVSPropertyOp14
 70
     1
102
RTVSPropertyOp15
 70
     1
102
RTVSPropertyOp16
 70
     1
102
RTVSPropertyOp17
 70
     1
102
RTVSPropertyOp18
 70
     1
102
RTVSPropertyOp19
 70
     1
102
RTVSPropertyOp20
 70
     1
102
RTVSPropertyOp21
 70
     1
102
RTVSPropertyOp22
 70
     1
102
RTVSPropertyOp23
 70
     1
102
RTVSPropertyOp24
 70
     1
102
RTVSPropertyOp25
 70
     1
102
RTVSPropertyOp26
 70
     1
102
RTVSPropertyOp27
 70
     1
102
RTVSPropertyOp28
 70
     1
102
RTVSPropertyOp29
 70
     1
102
RTVSPropertyOp30
 70
     1
102
RTVSPropertyOp31
 70
     1
102
RTVSPropertyOp32
 70
     1
102
RTVSPropertyOp33
 70
     1
102
RTVSPropertyOp34
 70
     1
102
RTVSPropertyOp35
 70
     1
102
RTVSPropertyOp36
 70
     1
102
RTVSPropertyOp37
 70
     1
102
RTVSPropertyOp38
 70
     1
102
RTVSPropertyOp39
 70
     1
102
RTVSPropertyOp40
 70
     1
102
RTVSPropertyOp41
 70
     1
102
RTVSPropertyOp42
 70
     1
102
RTVSPropertyOp43
 70
     1
102
RTVSPropertyOp44
 70
     1
102
RTVSPropertyOp45
 70
     1
102
RTVSPropertyOp46
 70
     1
102
RTVSPropertyOp47
 70
     1
102
RTVSPropertyOp48
 70
     1
102
RTVSPropertyOp49
 70
     1
102
RTVSPropertyOp50
 70
     1
102
RTVSPropertyOp51
 70
     0
102
RTVSPropertyOp52
 70
     0
102
RTVSPropertyOp53
 70
     1
102
RTVSPropertyOp54
 70
     1
102
RTVSPropertyOp55
 70
     1
102
RTVSPropertyOp56
 70
     1
102
RTVSPropertyOp57
 70
     1
102
RTVSPropertyOp58
 70
     1
102
RTVSPropertyOp59
 70
     1
102
RTVSPropertyOp60
 70
     1
102
RTVSPropertyOp61
 70
     1
102
RTVSPropertyOp62
 70
     1
  0
XRECORD
  5
342
102
{ACAD_REACTORS
330
341
102
}
330
341
100
AcDbXrecord
280
     1
1071
135625452
1071
184556386
 70
    25
 70
   104
 10
0.0
 20
0.0
 30
0.0
  1
CA7-12
  0
XRECORD
  5
349
102
{ACAD_REACTORS
330
348
102
}
330
348
100
AcDbXrecord
280
     1
1071
135625452
1071
184556386
 70
    25
 70
   104
 10
0.0
 20
0.0
 30
0.0
  1
Terminals Off
  0
XRECORD
  5
3E1
102
{ACAD_REACTORS
330
3E0
102
}
330
3E0
100
AcDbXrecord
280
     1
1071
135625452
1071
184556386
 70
    25
 70
   104
 10
0.0
 20
0.0
 30
0.0
  1
CA7-12
  0
ENDSEC
  0
EOF
