  0
SECTION
  2
HEADER
  9
$ACADVER
  1
AC1018
  9
$ACADMAINTVER
 70
   104
  9
$DWGCODEPAGE
  3
ANSI_1252
  9
$LASTSAVEDBY
  1
cgardiner
  9
$INSBASE
 10
0.0
 20
0.0
 30
0.0
  9
$EXTMIN
 10
-0.1917113980647542
 20
-2.894485456047679
 30
-0.0015258207003583
  9
$EXTMAX
 10
1.567932144701401
 20
2.856857313607886
 30
0.0000000349246037
  9
$LIMMIN
 10
0.0
 20
0.0
  9
$LIMMAX
 10
12.0
 20
9.0
  9
$ORTHOMODE
 70
     1
  9
$REGENMODE
 70
     1
  9
$FILLMODE
 70
     1
  9
$QTEXTMODE
 70
     0
  9
$MIRRTEXT
 70
     0
  9
$LTSCALE
 40
1.0
  9
$ATTMODE
 70
     1
  9
$TEXTSIZE
 40
1.0
  9
$TRACEWID
 40
0.05
  9
$TEXTSTYLE
  7
STANDARD
  9
$CLAYER
  8
TEXT
  9
$CELTYPE
  6
Continuous
  9
$CECOLOR
 62
     1
  9
$CELTSCALE
 40
1.0
  9
$DISPSILH
 70
     0
  9
$DIMSCALE
 40
1.0
  9
$DIMASZ
 40
0.125
  9
$DIMEXO
 40
0.0625
  9
$DIMDLI
 40
0.25
  9
$DIMRND
 40
0.0
  9
$DIMDLE
 40
0.0
  9
$DIMEXE
 40
0.125
  9
$DIMTP
 40
0.005
  9
$DIMTM
 40
-0.005
  9
$DIMTXT
 40
0.125
  9
$DIMCEN
 40
0.09
  9
$DIMTSZ
 40
0.0
  9
$DIMTOL
 70
     0
  9
$DIMLIM
 70
     0
  9
$DIMTIH
 70
     1
  9
$DIMTOH
 70
     1
  9
$DIMSE1
 70
     0
  9
$DIMSE2
 70
     0
  9
$DIMTAD
 70
     0
  9
$DIMZIN
 70
     0
  9
$DIMBLK
  1

  9
$DIMASO
 70
     1
  9
$DIMSHO
 70
     1
  9
$DIMPOST
  1

  9
$DIMAPOST
  1

  9
$DIMALT
 70
     0
  9
$DIMALTD
 70
     0
  9
$DIMALTF
 40
25.4
  9
$DIMLFAC
 40
1.0
  9
$DIMTOFL
 70
     1
  9
$DIMTVP
 40
0.0
  9
$DIMTIX
 70
     0
  9
$DIMSOXD
 70
     0
  9
$DIMSAH
 70
     0
  9
$DIMBLK1
  1

  9
$DIMBLK2
  1

  9
$DIMSTYLE
  2
Standard
  9
$DIMCLRD
 70
     0
  9
$DIMCLRE
 70
     0
  9
$DIMCLRT
 70
     0
  9
$DIMTFAC
 40
1.0
  9
$DIMGAP
 40
0.0625
  9
$DIMJUST
 70
     0
  9
$DIMSD1
 70
     0
  9
$DIMSD2
 70
     0
  9
$DIMTOLJ
 70
     1
  9
$DIMTZIN
 70
     0
  9
$DIMALTZ
 70
     0
  9
$DIMALTTZ
 70
     0
  9
$DIMUPT
 70
     0
  9
$DIMDEC
 70
     4
  9
$DIMTDEC
 70
     4
  9
$DIMALTU
 70
     2
  9
$DIMALTTD
 70
     2
  9
$DIMTXSTY
  7
STANDARD
  9
$DIMAUNIT
 70
     0
  9
$DIMADEC
 70
     0
  9
$DIMALTRND
 40
0.0
  9
$DIMAZIN
 70
     0
  9
$DIMDSEP
 70
    46
  9
$DIMATFIT
 70
     3
  9
$DIMFRAC
 70
     0
  9
$DIMLDRBLK
  1

  9
$DIMLUNIT
 70
     2
  9
$DIMLWD
 70
    -2
  9
$DIMLWE
 70
    -2
  9
$DIMTMOVE
 70
     0
  9
$LUNITS
 70
     2
  9
$LUPREC
 70
     3
  9
$SKETCHINC
 40
0.1
  9
$FILLETRAD
 40
0.25
  9
$AUNITS
 70
     0
  9
$AUPREC
 70
     1
  9
$MENU
  1
.
  9
$ELEVATION
 40
0.0
  9
$PELEVATION
 40
0.0
  9
$THICKNESS
 40
0.0
  9
$LIMCHECK
 70
     0
  9
$CHAMFERA
 40
0.25
  9
$CHAMFERB
 40
0.25
  9
$CHAMFERC
 40
0.0
  9
$CHAMFERD
 40
0.0
  9
$SKPOLY
 70
     0
  9
$TDCREATE
 40
2454215.521605718
  9
$TDUCREATE
 40
2454215.771605718
  9
$TDUPDATE
 40
2457002.597899966
  9
$TDUUPDATE
 40
2457002.847899966
  9
$TDINDWG
 40
0.2984544213
  9
$TDUSRTIMER
 40
0.2984544213
  9
$USRTIMER
 70
     1
  9
$ANGBASE
 50
0.0
  9
$ANGDIR
 70
     0
  9
$PDMODE
 70
     2
  9
$PDSIZE
 40
-0.01
  9
$PLINEWID
 40
0.0
  9
$SPLFRAME
 70
     0
  9
$SPLINETYPE
 70
     6
  9
$SPLINESEGS
 70
     8
  9
$HANDSEED
  5
2E8
  9
$SURFTAB1
 70
     6
  9
$SURFTAB2
 70
     6
  9
$SURFTYPE
 70
     6
  9
$SURFU
 70
     6
  9
$SURFV
 70
     6
  9
$UCSBASE
  2

  9
$UCSNAME
  2

  9
$UCSORG
 10
0.0
 20
0.0
 30
0.0
  9
$UCSXDIR
 10
1.0
 20
0.0
 30
0.0
  9
$UCSYDIR
 10
0.0
 20
1.0
 30
0.0
  9
$UCSORTHOREF
  2

  9
$UCSORTHOVIEW
 70
     0
  9
$UCSORGTOP
 10
0.0
 20
0.0
 30
0.0
  9
$UCSORGBOTTOM
 10
0.0
 20
0.0
 30
0.0
  9
$UCSORGLEFT
 10
0.0
 20
0.0
 30
0.0
  9
$UCSORGRIGHT
 10
0.0
 20
0.0
 30
0.0
  9
$UCSORGFRONT
 10
0.0
 20
0.0
 30
0.0
  9
$UCSORGBACK
 10
0.0
 20
0.0
 30
0.0
  9
$PUCSBASE
  2

  9
$PUCSNAME
  2

  9
$PUCSORG
 10
0.0
 20
0.0
 30
0.0
  9
$PUCSXDIR
 10
1.0
 20
0.0
 30
0.0
  9
$PUCSYDIR
 10
0.0
 20
1.0
 30
0.0
  9
$PUCSORTHOREF
  2

  9
$PUCSORTHOVIEW
 70
     0
  9
$PUCSORGTOP
 10
0.0
 20
0.0
 30
0.0
  9
$PUCSORGBOTTOM
 10
0.0
 20
0.0
 30
0.0
  9
$PUCSORGLEFT
 10
0.0
 20
0.0
 30
0.0
  9
$PUCSORGRIGHT
 10
0.0
 20
0.0
 30
0.0
  9
$PUCSORGFRONT
 10
0.0
 20
0.0
 30
0.0
  9
$PUCSORGBACK
 10
0.0
 20
0.0
 30
0.0
  9
$USERI1
 70
     0
  9
$USERI2
 70
     0
  9
$USERI3
 70
     0
  9
$USERI4
 70
     0
  9
$USERI5
 70
     0
  9
$USERR1
 40
0.0
  9
$USERR2
 40
0.0
  9
$USERR3
 40
0.0
  9
$USERR4
 40
0.0
  9
$USERR5
 40
0.0
  9
$WORLDVIEW
 70
     1
  9
$SHADEDGE
 70
     3
  9
$SHADEDIF
 70
    70
  9
$TILEMODE
 70
     1
  9
$MAXACTVP
 70
    64
  9
$PINSBASE
 10
0.0
 20
0.0
 30
0.0
  9
$PLIMCHECK
 70
     0
  9
$PEXTMIN
 10
1.000000000000000E+20
 20
1.000000000000000E+20
 30
1.000000000000000E+20
  9
$PEXTMAX
 10
-1.000000000000000E+20
 20
-1.000000000000000E+20
 30
-1.000000000000000E+20
  9
$PLIMMIN
 10
0.0
 20
0.0
  9
$PLIMMAX
 10
12.0
 20
9.0
  9
$UNITMODE
 70
     0
  9
$VISRETAIN
 70
     1
  9
$PLINEGEN
 70
     0
  9
$PSLTSCALE
 70
     1
  9
$TREEDEPTH
 70
  3020
  9
$CMLSTYLE
  2
Standard
  9
$CMLJUST
 70
     0
  9
$CMLSCALE
 40
1.0
  9
$PROXYGRAPHICS
 70
     1
  9
$MEASUREMENT
 70
     0
  9
$CELWEIGHT
370
    -1
  9
$ENDCAPS
280
     0
  9
$JOINSTYLE
280
     0
  9
$LWDISPLAY
290
     0
  9
$INSUNITS
 70
     1
  9
$HYPERLINKBASE
  1

  9
$STYLESHEET
  1

  9
$XEDIT
290
     1
  9
$CEPSNTYPE
380
     0
  9
$PSTYLEMODE
290
     1
  9
$FINGERPRINTGUID
  2
{809ACED6-7062-4DBB-AB90-7D8CDC49D828}
  9
$VERSIONGUID
  2
{44186762-2770-4554-A7F6-C2641276BF8C}
  9
$EXTNAMES
290
     1
  9
$PSVPSCALE
 40
0.0
  9
$OLESTARTUP
290
     0
  9
$SORTENTS
280
   127
  9
$INDEXCTL
280
     0
  9
$HIDETEXT
280
     1
  9
$XCLIPFRAME
290
     0
  9
$HALOGAP
280
     0
  9
$OBSCOLOR
 70
   257
  9
$OBSLTYPE
280
     0
  9
$INTERSECTIONDISPLAY
280
     0
  9
$INTERSECTIONCOLOR
 70
   257
  9
$DIMASSOC
280
     1
  9
$PROJECTNAME
  1

  0
ENDSEC
  0
SECTION
  2
CLASSES
  0
CLASS
  1
ACDBDICTIONARYWDFLT
  2
AcDbDictionaryWithDefault
  3
ObjectDBX Classes
 90
        0
 91
        1
280
     0
281
     0
  0
CLASS
  1
MATERIAL
  2
AcDbMaterial
  3
ObjectDBX Classes
 90
     1153
 91
        3
280
     0
281
     0
  0
CLASS
  1
VISUALSTYLE
  2
AcDbVisualStyle
  3
ObjectDBX Classes
 90
     4095
 91
       25
280
     0
281
     0
  0
CLASS
  1
TABLESTYLE
  2
AcDbTableStyle
  3
ObjectDBX Classes
 90
     4095
 91
        1
280
     0
281
     0
  0
CLASS
  1
EXACXREFPANELOBJECT
  2
ExAcXREFPanelObject
  3
EXAC_ESW
 90
     1025
 91
        1
280
     1
281
     0
  0
CLASS
  1
NPOCOLLECTION
  2
AcDbImpNonPersistentObjectsCollection
  3
ObjectDBX Classes
 90
     1153
 91
        1
280
     0
281
     0
  0
CLASS
  1
DICTIONARYVAR
  2
AcDbDictionaryVar
  3
ObjectDBX Classes
 90
        0
 91
       12
280
     0
281
     0
  0
CLASS
  1
SCALE
  2
AcDbScale
  3
ObjectDBX Classes
 90
     1153
 91
       33
280
     0
281
     0
  0
CLASS
  1
MLEADERSTYLE
  2
AcDbMLeaderStyle
  3
ACDB_MLEADERSTYLE_CLASS
 90
     4095
 91
        1
280
     0
281
     0
  0
CLASS
  1
ACAD_EVALUATION_GRAPH
  2
AcDbEvalGraph
  3
ObjectDBX Classes
 90
     1153
 91
        2
280
     0
281
     0
  0
CLASS
  1
BLOCKVISIBILITYPARAMETER
  2
AcDbBlockVisibilityParameter
  3
ObjectDBX Classes
 90
     1153
 91
        2
280
     0
281
     0
  0
CLASS
  1
BLOCKVISIBILITYGRIP
  2
AcDbBlockVisibilityGrip
  3
ObjectDBX Classes
 90
     1153
 91
        2
280
     0
281
     0
  0
CLASS
  1
BLOCKGRIPLOCATIONCOMPONENT
  2
AcDbBlockGripExpr
  3
ObjectDBX Classes
 90
     1153
 91
        4
280
     0
281
     0
  0
CLASS
  1
SORTENTSTABLE
  2
AcDbSortentsTable
  3
ObjectDBX Classes
 90
        0
 91
        3
280
     0
281
     0
  0
CLASS
  1
ACDB_DYNAMICBLOCKPURGEPREVENTER_VERSION
  2
AcDbDynamicBlockPurgePreventer
  3
ObjectDBX Classes
 90
     1153
 91
        2
280
     0
281
     0
  0
CLASS
  1
ACDB_BLOCKREPRESENTATION_DATA
  2
AcDbBlockRepresentationData
  3
ObjectDBX Classes
 90
     1153
 91
        2
280
     0
281
     0
  0
CLASS
  1
CELLSTYLEMAP
  2
AcDbCellStyleMap
  3
ObjectDBX Classes
 90
     1152
 91
        3
280
     0
281
     0
  0
CLASS
  1
SOLID_BACKGROUND
  2
AcDbSolidBackground
  3
SCENEOE
 90
     4095
 91
        0
280
     0
281
     0
  0
CLASS
  1
BLOCKLINEARPARAMETER
  2
AcDbBlockLinearParameter
  3
ObjectDBX Classes
 90
     1153
 91
        0
280
     0
281
     0
  0
CLASS
  1
BLOCKLINEARGRIP
  2
AcDbBlockLinearGrip
  3
ObjectDBX Classes
 90
     1153
 91
        0
280
     0
281
     0
  0
CLASS
  1
BLOCKSTRETCHACTION
  2
AcDbBlockStretchAction
  3
ObjectDBX Classes
 90
     1153
 91
        0
280
     0
281
     0
  0
CLASS
  1
BLOCKMOVEACTION
  2
AcDbBlockMoveAction
  3
ObjectDBX Classes
 90
     1153
 91
        0
280
     0
281
     0
  0
CLASS
  1
ACAECUSTOBJ
  2
AcAeEditorObj
  3
AcAeEditorObj
 90
     1024
 91
        0
280
     0
281
     0
  0
CLASS
  1
VISIBILITYGRIPENTITY
  2
AcDbBlockVisibilityGripEntity
  3
ObjectDBX Classes
 90
     1025
 91
        0
280
     0
281
     1
  0
CLASS
  1
ACAEEEMGROBJ
  2
AcAeEEMgrObj
  3
AcAeEEMgrObj
 90
     1024
 91
        0
280
     0
281
     0
  0
CLASS
  1
VISIBILITYPARAMETERENTITY
  2
AcDbBlockVisibilityParameterEntity
  3
ObjectDBX Classes
 90
     1025
 91
        0
280
     0
281
     1
  0
CLASS
  1
ARCALIGNEDTEXT
  2
AcDbArcAlignedText
  3
ATEXT|AutoCAD Express Tool|expresstools@autodesk.com
 90
        0
 91
        0
280
     0
281
     1
  0
CLASS
  1
ACDBSECTIONVIEWSTYLE
  2
AcDbSectionViewStyle
  3
ObjectDBX Classes
 90
     1025
 91
        1
280
     0
281
     0
  0
CLASS
  1
ACDBDETAILVIEWSTYLE
  2
AcDbDetailViewStyle
  3
ObjectDBX Classes
 90
     1025
 91
        1
280
     0
281
     0
  0
ENDSEC
  0
SECTION
  2
TABLES
  0
TABLE
  2
VPORT
  5
21
330
0
100
AcDbSymbolTable
 70
     1
  0
VPORT
  5
22
330
21
100
AcDbSymbolTableRecord
100
AcDbViewportTableRecord
  2
*Active
 70
     0
 10
0.0
 20
0.0
 11
1.0
 21
1.0
 12
0.688110373318323
 22
-0.0188140712198965
 13
0.0
 23
0.0
 14
1.0
 24
1.0
 15
0.0
 25
0.0
 16
0.0
 26
0.0
 36
1.0
 17
0.0
 27
0.0
 37
0.0
 40
5.79907175529586
 41
1.765927977839335
 42
50.0
 43
0.0
 44
0.0
 50
0.0
 51
0.0
 71
     0
 72
   100
 73
     1
 74
     1
 75
     0
 76
     0
 77
     0
 78
     0
281
     0
 65
     1
110
0.0
120
0.0
130
0.0
111
1.0
121
0.0
131
0.0
112
0.0
122
1.0
132
0.0
 79
     0
146
0.0
1001
ACAD_NAV_VCDISPLAY
1070
     3
  0
ENDTAB
  0
TABLE
  2
LTYPE
  5
1C
330
0
100
AcDbSymbolTable
 70
     2
  0
LTYPE
  5
1D
330
1C
100
AcDbSymbolTableRecord
100
AcDbLinetypeTableRecord
  2
ByBlock
 70
     0
  3

 72
    65
 73
     0
 40
0.0
  0
LTYPE
  5
1E
330
1C
100
AcDbSymbolTableRecord
100
AcDbLinetypeTableRecord
  2
ByLayer
 70
     0
  3

 72
    65
 73
     0
 40
0.0
  0
LTYPE
  5
E
330
1C
100
AcDbSymbolTableRecord
100
AcDbLinetypeTableRecord
  2
Continuous
 70
     0
  3
Solid line
 72
    65
 73
     0
 40
0.0
  0
LTYPE
  5
CD
330
1C
100
AcDbSymbolTableRecord
100
AcDbLinetypeTableRecord
  2
HIDDEN2
 70
     0
  3
Hidden (.5x) _ _ _ _ _ _ _ _ _ _ _ _ _ _ _ _ _
 72
    65
 73
     2
 40
0.1875
 49
0.125
 74
     0
 49
-0.0625
 74
     0
  0
ENDTAB
  0
TABLE
  2
LAYER
  5
16
102
{ACAD_XDICTIONARY
360
17
102
}
330
0
100
AcDbSymbolTable
 70
     3
  0
LAYER
  5
6
102
{ACAD_XDICTIONARY
360
7
102
}
330
16
100
AcDbSymbolTableRecord
100
AcDbLayerTableRecord
  2
0
 70
     0
 62
     7
  6
Continuous
370
    -3
390
9
  0
LAYER
  5
32
102
{ACAD_XDICTIONARY
360
33
102
}
330
16
100
AcDbSymbolTableRecord
100
AcDbLayerTableRecord
  2
TEXT
 70
     0
 62
     2
  6
Continuous
370
    -3
390
9
  0
LAYER
  5
D2
102
{ACAD_XDICTIONARY
360
D3
102
}
330
16
100
AcDbSymbolTableRecord
100
AcDbLayerTableRecord
  2
SS-A
 70
     0
 62
     9
  6
Continuous
370
    -3
390
9
  0
ENDTAB
  0
TABLE
  2
STYLE
  5
19
330
0
100
AcDbSymbolTable
 70
     2
  0
STYLE
  5
1A
330
19
100
AcDbSymbolTableRecord
100
AcDbTextStyleTableRecord
  2
STANDARD
 70
     0
 40
0.0
 41
1.0
 50
0.0
 71
     0
 42
1.0
  3
monotxt.shx
  4

  0
STYLE
  5
D5
330
19
100
AcDbSymbolTableRecord
100
AcDbTextStyleTableRecord
  2
SIMPLEX
 70
     0
 40
0.35
 41
0.75
 50
0.0
 71
     0
 42
0.35
  3
simplex.shx
  4

  0
ENDTAB
  0
TABLE
  2
VIEW
  5
1F
330
0
100
AcDbSymbolTable
 70
     0
  0
ENDTAB
  0
TABLE
  2
UCS
  5
20
330
0
100
AcDbSymbolTable
 70
     0
  0
ENDTAB
  0
TABLE
  2
APPID
  5
25
330
0
100
AcDbSymbolTable
 70
     7
  0
APPID
  5
26
330
25
100
AcDbSymbolTableRecord
100
AcDbRegAppTableRecord
  2
ACAD
 70
     0
  0
APPID
  5
68
330
25
100
AcDbSymbolTableRecord
100
AcDbRegAppTableRecord
  2
AcDbBlockRepETag
 70
     0
  0
APPID
  5
DC
330
25
100
AcDbSymbolTableRecord
100
AcDbRegAppTableRecord
  2
AcDbDynamicBlockTrueName
 70
     0
  0
APPID
  5
DD
330
25
100
AcDbSymbolTableRecord
100
AcDbRegAppTableRecord
  2
AcDbDynamicBlockGUID
 70
     0
  0
APPID
  5
153
330
25
100
AcDbSymbolTableRecord
100
AcDbRegAppTableRecord
  2
AcDbBlockRepBTag
 70
     0
  0
APPID
  5
255
330
25
100
AcDbSymbolTableRecord
100
AcDbRegAppTableRecord
  2
ACAD_NAV_VCDISPLAY
 70
     0
  0
APPID
  5
2E1
330
25
100
AcDbSymbolTableRecord
100
AcDbRegAppTableRecord
  2
ACAD_MLEADERVER
 70
     0
  0
ENDTAB
  0
TABLE
  2
DIMSTYLE
  5
27
330
0
100
AcDbSymbolTable
 70
     1
100
AcDbDimStyleTable
 71
     1
340
28
  0
DIMSTYLE
105
28
330
27
100
AcDbSymbolTableRecord
100
AcDbDimStyleTableRecord
  2
Standard
 70
     0
340
1A
  0
ENDTAB
  0
TABLE
  2
BLOCK_RECORD
  5
1
330
0
100
AcDbSymbolTable
 70
     4
  0
BLOCK_RECORD
  5
2
102
{ACAD_XDICTIONARY
360
3
102
}
330
1
100
AcDbSymbolTableRecord
100
AcDbBlockTableRecord
  2
*Model_Space
340
10
1001
ACAD
1000
DesignCenter Data
1002
{
1070
     1
1070
     1
1002
}
  0
BLOCK_RECORD
  5
12
330
1
100
AcDbSymbolTableRecord
100
AcDbBlockTableRecord
  2
*Paper_Space
340
15
  0
BLOCK_RECORD
  5
5E
102
{ACAD_XDICTIONARY
360
5F
102
}
330
1
100
AcDbSymbolTableRecord
100
AcDbBlockTableRecord
  2
*U0
340
0
310
2800000020000000200000000100080000000000000400000000000000000000000000000000000000000000000080000080000000808000800000008000800080800000C0C0C000C0DCC000F0CAA6000020400000206000002080000020A0000020C0000020E00000400000004020000040400000406000004080000040A0
310
000040C0000040E00000600000006020000060400000606000006080000060A0000060C0000060E00000800000008020000080400000806000008080000080A0000080C0000080E00000A0000000A0200000A0400000A0600000A0800000A0A00000A0C00000A0E00000C0000000C0200000C0400000C0600000C0800000C0
310
A00000C0C00000C0E00000E0000000E0200000E0400000E0600000E0800000E0A00000E0C00000E0E00040000000400020004000400040006000400080004000A0004000C0004000E00040200000402020004020400040206000402080004020A0004020C0004020E000404000004040200040404000404060004040800040
310
40A0004040C0004040E00040600000406020004060400040606000406080004060A0004060C0004060E00040800000408020004080400040806000408080004080A0004080C0004080E00040A0000040A0200040A0400040A0600040A0800040A0A00040A0C00040A0E00040C0000040C0200040C0400040C0600040C08000
310
40C0A00040C0C00040C0E00040E0000040E0200040E0400040E0600040E0800040E0A00040E0C00040E0E00080000000800020008000400080006000800080008000A0008000C0008000E00080200000802020008020400080206000802080008020A0008020C0008020E00080400000804020008040400080406000804080
310
008040A0008040C0008040E00080600000806020008060400080606000806080008060A0008060C0008060E00080800000808020008080400080806000808080008080A0008080C0008080E00080A0000080A0200080A0400080A0600080A0800080A0A00080A0C00080A0E00080C0000080C0200080C0400080C0600080C0
310
800080C0A00080C0C00080C0E00080E0000080E0200080E0400080E0600080E0800080E0A00080E0C00080E0E000C0000000C0002000C0004000C0006000C0008000C000A000C000C000C000E000C0200000C0202000C0204000C0206000C0208000C020A000C020C000C020E000C0400000C0402000C0404000C0406000C0
310
408000C040A000C040C000C040E000C0600000C0602000C0604000C0606000C0608000C060A000C060C000C060E000C0800000C0802000C0804000C0806000C0808000C080A000C080C000C080E000C0A00000C0A02000C0A04000C0A06000C0A08000C0A0A000C0A0C000C0A0E000C0C00000C0C02000C0C04000C0C06000
310
C0C08000C0C0A000F0FBFF00A4A0A000808080000000FF0000FF000000FFFF00FF000000FF00FF00FFFF0000FFFFFF0000000000000000000000000000000000000000000000000000000000000000000000000000000000000000000000FFFFFFFF000000000000000000000000000000000000000000000000FFFFFFFFFF
310
FFFFFFFFFFFFFFFFFF00000000000000000000000000000000FFFFFFFFFFFFFFFFFFFFFFFFFFFFFFFF00000000000000000000000000000000FFF9FF00FF0000FF000000FF000000FF00000000000000000000000000000000FFFFFFFFFFFFFFFFFFFFFFFFFFFFFFFF00000000000000000000000000000000FFFFFFFF00FF
310
FFFFFFFFFFFFFFFFFFFF00000000000000000000000000000000FFFFFFFFFFFFFFFFFFFFFFFFFFFFFFFF00000000000000000000000000000000FF00FF0000FFFF0000FFFF0000FF00FF00000000000000000000000000000000FF000000FFFFFFFFFFFFFFFF000000FF00000000000000000000000000000000FF00FEFEFF
310
000000000000FF000000FF00000000000000000000000000000000FFFEFEFEFF000000000000FF000000FF00000000000000000000000000000000FFFEFEFEFFFFFFFFFFFFFFFF000000FF00000000000000000000000000000000FFFEFEFE00FFFFFFFFFFFF00000000FF00000000000000000000000000000000FF000000
310
00FFFF0000FFFF00000000FF00000000000000000000000000000000FF00000000FFFF0000FFFF00000000FF00000000000000000000000000000000FF00000000FFFFFFFFFFFF00000000FF00000000000000000000000000000000FF000000FFFFFFFFFFFFFFFF000000FF00000000000000000000000000000000FF0000
310
00FF00FF0000FF00FF000000FF00000000000000000000000000000000FF000000FF00FF0000FF00FF000000FF00000000000000000000000000000000FF000000FFFFFFFFFFFFFFFF000000FF00000000000000000000000000000000FF00FF0000FFFF0000FFFF0000FF00FF00000000000000000000000000000000FFFF
310
FFFFFFFFFFFFFFFFFFFFFFFFFFFF00000000000000000000000000000000FFFFFFFF00FFFF0000FFFF00FFFFFFFF00000000000000000000000000000000FFFFFFFFFFFFFFFFFFFFFFFFFFFFFFFF00000000000000000000000000000000FFFFFFFFFFFFFFFFFFFFFFFFFFFFF9FF00000000000000000000000000000000FF
310
FFFFFFFFFFFFFFFFFFFFFFFFFFFFFF00000000000000000000000000000000FFFFFFFFFFFFFF0000FFFFFFFF00000000000000000000000000000000000000000000FFFFFFFFFFFFFFFFFFFF00000000000000000000000000000000000000000000FFFFFF00000000FFFFFF00000000000000000000000000000000000000
310
000000FFFFFFFFFFFFFFFFFFFF00000000000000000000000000000000000000000000000000000000000000000000000000000000000000
1001
AcDbDynamicBlockTrueName
1000
CA7-23 - Plan
1001
AcDbDynamicBlockGUID
1000
{F4018339-5CDB-42C3-A508-CFD1DF2C60E0}
1001
AcDbBlockRepETag
1070
     1
1071
      110
1001
ACAD
1000
DesignCenter Data
1002
{
1070
     1
1070
     1
1002
}
  0
BLOCK_RECORD
  5
158
102
{ACAD_XDICTIONARY
360
159
102
}
330
1
100
AcDbSymbolTableRecord
100
AcDbBlockTableRecord
  2
*U1
340
0
1001
AcDbDynamicBlockTrueName
1000
CEP7-E__B - Plan
1001
AcDbDynamicBlockGUID
1000
{E75EECBB-64B4-4197-96A1-EAC824F6E8A5}
1001
AcDbBlockRepETag
1070
     1
1071
       93
1001
ACAD
1000
DesignCenter Data
1002
{
1070
     1
1070
     1
1002
}
  0
BLOCK_RECORD
  5
1C3
102
{ACAD_XDICTIONARY
360
1C4
102
}
330
1
100
AcDbSymbolTableRecord
100
AcDbBlockTableRecord
  2
*U2
340
0
102
{BLKREFS
331
154
102
}
1001
AcDbBlockRepBTag
1070
     1
1005
158
  0
BLOCK_RECORD
  5
E1
102
{ACAD_XDICTIONARY
360
E2
102
}
330
1
100
AcDbSymbolTableRecord
100
AcDbBlockTableRecord
  2
*U3
340
0
102
{BLKREFS
331
5A
102
}
1001
AcDbBlockRepBTag
1070
     1
1005
5E
  0
ENDTAB
  0
ENDSEC
  0
SECTION
  2
BLOCKS
  0
BLOCK
  5
5
330
2
100
AcDbEntity
  8
0
100
AcDbBlockBegin
  2
*Model_Space
 70
     0
 10
0.0
 20
0.0
 30
0.0
  3
*Model_Space
  1

  0
ENDBLK
  5
F
330
2
100
AcDbEntity
  8
0
100
AcDbBlockEnd
  0
BLOCK
  5
13
330
12
100
AcDbEntity
 67
     1
  8
0
100
AcDbBlockBegin
  2
*Paper_Space
 70
     0
 10
0.0
 20
0.0
 30
0.0
  3
*Paper_Space
  1

  0
ENDBLK
  5
14
330
12
100
AcDbEntity
 67
     1
  8
0
100
AcDbBlockEnd
  0
BLOCK
  5
66
330
5E
100
AcDbEntity
  8
0
 62
     1
100
AcDbBlockBegin
  2
*U0
 70
     1
 10
0.0
 20
0.0
 30
0.0
  3
*U0
  1

  0
LWPOLYLINE
  5
67
330
5E
100
AcDbEntity
  8
0
100
AcDbPolyline
 90
        2
 70
   128
 43
0.0
 10
0.8870231193762965
 20
-0.3390355380760681
 10
0.4879768806237
 20
-0.3390355380760681
1001
AcDbBlockRepETag
1070
     1
1071
        0
1005
67
  0
LWPOLYLINE
  5
69
330
5E
100
AcDbEntity
  8
0
100
AcDbPolyline
 90
        2
 70
   129
 43
0.0
 10
0.4879768806237
 20
-0.3390355380760681
 10
0.4879768806237
 20
-0.1794170425750288
1001
AcDbBlockRepETag
1070
     1
1071
        1
1005
69
  0
LWPOLYLINE
  5
6A
330
5E
100
AcDbEntity
  8
0
100
AcDbPolyline
 90
        2
 70
   129
 43
0.0
 10
0.8870231193762965
 20
-0.1794170425750288
 10
0.8870231193762965
 20
-0.3390355380760681
1001
AcDbBlockRepETag
1070
     1
1071
        2
1005
6A
  0
LWPOLYLINE
  5
6B
330
5E
100
AcDbEntity
  8
0
100
AcDbPolyline
 90
        2
 70
   128
 43
0.0
 10
0.4879768806237
 20
-0.3390355380760681
 10
0.8870231193762965
 20
-0.3390355380760681
1001
AcDbBlockRepETag
1070
     1
1071
        3
1005
6B
  0
LWPOLYLINE
  5
6C
330
5E
100
AcDbEntity
  8
0
100
AcDbPolyline
 90
        4
 70
   128
 43
0.0
 10
0.5677861283742214
 20
-0.1794170425750288
 10
0.5677861283742214
 20
-0.2592262903255467
 10
0.8072138716257786
 20
-0.2592262903255467
 10
0.8072138716257786
 20
-0.1794170425750288
1001
AcDbBlockRepETag
1070
     1
1071
        4
1005
6C
  0
LINE
  5
6D
330
5E
100
AcDbEntity
  8
0
100
AcDbLine
 10
1.24733839966173
 20
2.497713753291659
 30
0.0
 11
1.24733839966173
 21
2.856855368168996
 31
0.0
1001
AcDbBlockRepETag
1070
     1
1071
        5
1005
6D
  0
LINE
  5
6E
330
5E
100
AcDbEntity
  8
0
100
AcDbLine
 10
0.1288352657463623
 20
2.856855368168996
 30
0.0
 11
0.1288352657463623
 21
2.497713753291659
 31
0.0
1001
AcDbBlockRepETag
1070
     1
1071
        6
1005
6E
  0
LINE
  5
6F
330
5E
100
AcDbEntity
  8
0
100
AcDbLine
 10
1.24733839966173
 20
2.856855368168996
 30
0.0
 11
0.1288352657463623
 21
2.856855368168996
 31
0.0
1001
AcDbBlockRepETag
1070
     1
1071
        7
1005
6F
  0
LINE
  5
70
330
5E
100
AcDbEntity
  8
0
100
AcDbLine
 10
0.5484206491406365
 20
2.497713753291655
 30
0.0
 11
0.5484206491406365
 21
2.657332248792695
 31
0.0
1001
AcDbBlockRepETag
1070
     1
1071
        8
1005
70
  0
LINE
  5
71
330
5E
100
AcDbEntity
  8
0
100
AcDbLine
 10
0.5484206491406365
 20
2.657332248792695
 30
0.0
 11
0.8277530162674562
 21
2.657332248792695
 31
0.0
1001
AcDbBlockRepETag
1070
     1
1071
        9
1005
71
  0
LINE
  5
72
330
5E
100
AcDbEntity
  8
0
100
AcDbLine
 10
0.8277530162674562
 20
2.657332248792695
 30
0.0
 11
0.8277530162674562
 21
2.497713753291655
 31
0.0
1001
AcDbBlockRepETag
1070
     1
1071
       10
1005
72
  0
LINE
  5
73
330
5E
100
AcDbEntity
  8
0
100
AcDbLine
 10
0.8870231193762965
 20
-0.2592262903255467
 30
0.0
 11
1.566575390663809
 21
-0.2592262903255467
 31
0.0
1001
AcDbBlockRepETag
1070
     1
1071
       11
1005
73
  0
LINE
  5
74
330
5E
100
AcDbEntity
  8
0
100
AcDbLine
 10
1.566575390663809
 20
0.0611843660846248
 30
0.0
 11
1.566575390663809
 21
-0.2592262903255467
 31
0.0
1001
AcDbBlockRepETag
1070
     1
1071
       12
1005
74
  0
LINE
  5
75
330
5E
100
AcDbEntity
  8
0
100
AcDbLine
 10
-0.1915753906638091
 20
2.617427624917436
 30
0.0
 11
-0.1915753906638091
 21
2.298190633915361
 31
0.0
1001
AcDbBlockRepETag
1070
     1
1071
       13
1005
75
  0
LWPOLYLINE
  5
76
330
5E
100
AcDbEntity
  8
0
100
AcDbPolyline
 90
        4
 70
   128
 43
0.0
 10
1.486766142913287
 20
-0.1794170425750288
 10
1.486766142913287
 20
-0.2193216664502877
 10
1.287243023536989
 20
-0.2193216664502877
 10
1.287243023536989
 20
-0.1794170425750288
1001
AcDbBlockRepETag
1070
     1
1071
       14
1005
76
  0
LWPOLYLINE
  5
77
330
5E
100
AcDbEntity
  8
0
100
AcDbPolyline
 90
        4
 70
   128
 43
0.0
 10
1.24733839966173
 20
-0.1794170425750288
 10
1.24733839966173
 20
-0.2193216664502877
 10
1.006736991002076
 20
-0.2193216664502877
 10
1.006736991002076
 20
-0.1794170425750288
1001
AcDbBlockRepETag
1070
     1
1071
       15
1005
77
  0
LWPOLYLINE
  5
78
330
5E
100
AcDbEntity
  8
0
100
AcDbPolyline
 90
        3
 70
   128
 43
0.0
 10
0.9668323671268179
 20
-0.1794170425750288
 10
0.9668323671268179
 20
-0.2193216664502877
 10
0.8870231193762965
 20
-0.2193216664502877
1001
AcDbBlockRepETag
1070
     1
1071
       16
1005
78
  0
LWPOLYLINE
  5
79
330
5E
100
AcDbEntity
  8
0
100
AcDbPolyline
 90
        2
 70
   129
 43
0.0
 10
0.6475953761247393
 20
-0.0996077948245109
 10
0.6475953761247393
 20
0.0611843660846248
1001
AcDbBlockRepETag
1070
     1
1071
       17
1005
79
  0
LWPOLYLINE
  5
7A
330
5E
100
AcDbEntity
  8
0
100
AcDbPolyline
 90
        3
 70
   128
 43
0.0
 10
0.6874999999999983
 20
0.0611843660846248
 10
0.6874999999999983
 20
-0.0996077948245109
 10
0.6475953761247393
 20
-0.0996077948245109
1001
AcDbBlockRepETag
1070
     1
1071
       18
1005
7A
  0
LWPOLYLINE
  5
7B
330
5E
100
AcDbEntity
  8
0
100
AcDbPolyline
 90
        2
 70
   129
 43
0.0
 10
1.126450862627857
 20
0.0611843660846248
 10
1.126450862627857
 20
-0.0996077948245109
1001
AcDbBlockRepETag
1070
     1
1071
       19
1005
7B
  0
LWPOLYLINE
  5
7C
330
5E
100
AcDbEntity
  8
0
100
AcDbPolyline
 90
        4
 70
   129
 43
0.0
 10
1.086546238752594
 20
-0.0996077948245109
 10
1.086546238752594
 20
0.0611843660846248
 10
1.086546238752594
 20
-0.0996077948245109
 10
1.126450862627857
 20
-0.0996077948245109
1001
AcDbBlockRepETag
1070
     1
1071
       20
1005
7C
  0
LINE
  5
7D
330
5E
100
AcDbEntity
  8
0
100
AcDbLine
 10
-0.1516707667885502
 20
0.0611843660846248
 30
0.0
 11
-0.1516707667885502
 21
-0.1794170425750288
 31
0.0
1001
AcDbBlockRepETag
1070
     1
1071
       21
1005
7D
  0
LINE
  5
7E
330
5E
100
AcDbEntity
  8
0
100
AcDbLine
 10
1.52667076678855
 20
0.0611843660846248
 30
0.0
 11
1.52667076678855
 21
-0.1794170425750288
 31
0.0
1001
AcDbBlockRepETag
1070
     1
1071
       22
1005
7E
  0
LWPOLYLINE
  5
7F
330
5E
100
AcDbEntity
  8
0
100
AcDbPolyline
 90
        2
 70
   129
 43
0.0
 10
0.2884537612474016
 20
0.0611843660846248
 10
0.2884537612474016
 20
-0.0996077948245109
1001
AcDbBlockRepETag
1070
     1
1071
       23
1005
7F
  0
LWPOLYLINE
  5
80
330
5E
100
AcDbEntity
  8
0
100
AcDbPolyline
 90
        3
 70
   128
 43
0.0
 10
0.2485491373721427
 20
0.0611843660846248
 10
0.2485491373721427
 20
-0.0996077948245109
 10
0.2884537612474016
 20
-0.0996077948245109
1001
AcDbBlockRepETag
1070
     1
1071
       24
1005
80
  0
LINE
  5
81
330
5E
100
AcDbEntity
  8
0
100
AcDbLine
 10
1.566575390663809
 20
2.298190633915361
 30
0.0
 11
1.566575390663809
 21
2.4578091294164
 31
0.0
1001
AcDbBlockRepETag
1070
     1
1071
       25
1005
81
  0
LINE
  5
82
330
5E
100
AcDbEntity
  8
0
100
AcDbLine
 10
1.52667076678855
 20
2.497713753291655
 30
0.0
 11
1.52667076678855
 21
2.298190633915361
 31
0.0
1001
AcDbBlockRepETag
1070
     1
1071
       26
1005
82
  0
LWPOLYLINE
  5
83
330
5E
100
AcDbEntity
  8
0
100
AcDbPolyline
 90
        2
 70
   129
 43
0.0
 10
1.126450862627857
 20
2.4578091294164
 10
1.126450862627857
 20
2.298190633915361
1001
AcDbBlockRepETag
1070
     1
1071
       27
1005
83
  0
LWPOLYLINE
  5
84
330
5E
100
AcDbEntity
  8
0
100
AcDbPolyline
 90
        4
 70
   129
 43
0.0
 10
1.086546238752594
 20
2.4578091294164
 10
1.126450862627857
 20
2.4578091294164
 10
1.086546238752594
 20
2.4578091294164
 10
1.086546238752594
 20
2.298190633915361
1001
AcDbBlockRepETag
1070
     1
1071
       28
1005
84
  0
LWPOLYLINE
  5
85
330
5E
100
AcDbEntity
  8
0
100
AcDbPolyline
 90
        6
 70
   129
 43
0.0
 10
0.6475953761247393
 20
2.4578091294164
 10
0.6874999999999983
 20
2.4578091294164
 10
0.6874999999999983
 20
2.298190633915361
 10
0.6874999999999983
 20
2.4578091294164
 10
0.6475953761247393
 20
2.4578091294164
 10
0.6475953761247393
 20
2.298190633915361
1001
AcDbBlockRepETag
1070
     1
1071
       29
1005
85
  0
LWPOLYLINE
  5
86
330
5E
100
AcDbEntity
  8
0
100
AcDbPolyline
 90
        2
 70
   129
 43
0.0
 10
0.2884537612474016
 20
2.4578091294164
 10
0.2884537612474016
 20
2.298190633915361
1001
AcDbBlockRepETag
1070
     1
1071
       30
1005
86
  0
LWPOLYLINE
  5
87
330
5E
100
AcDbEntity
  8
0
100
AcDbPolyline
 90
        4
 70
   129
 43
0.0
 10
0.2884537612474016
 20
2.4578091294164
 10
0.2485491373721427
 20
2.4578091294164
 10
0.2485491373721427
 20
2.298190633915361
 10
0.2485491373721427
 20
2.4578091294164
1001
AcDbBlockRepETag
1070
     1
1071
       31
1005
87
  0
LINE
  5
88
330
5E
100
AcDbEntity
  8
0
100
AcDbLine
 10
-0.1516707667885502
 20
2.298190633915361
 30
0.0
 11
-0.1516707667885502
 21
2.537618377166918
 31
0.0
1001
AcDbBlockRepETag
1070
     1
1071
       32
1005
88
  0
LINE
  5
89
330
5E
100
AcDbEntity
  8
0
100
AcDbLine
 10
-0.1516707667885502
 20
2.537618377166918
 30
0.0
 11
0.0889306418711034
 21
2.537618377166918
 31
0.0
1001
AcDbBlockRepETag
1070
     1
1071
       33
1005
89
  0
LINE
  5
8A
330
5E
100
AcDbEntity
  8
0
100
AcDbLine
 10
0.0889306418711034
 20
2.537618377166918
 30
0.0
 11
0.0889306418711034
 21
2.497713753291659
 31
0.0
1001
AcDbBlockRepETag
1070
     1
1071
       34
1005
8A
  0
LINE
  5
8B
330
5E
100
AcDbEntity
  8
0
100
AcDbLine
 10
1.52667076678855
 20
2.497713753291659
 30
0.0
 11
-0.1516707667885502
 21
2.497713753291659
 31
0.0
1001
AcDbBlockRepETag
1070
     1
1071
       35
1005
8B
  0
LWPOLYLINE
  5
8C
330
5E
100
AcDbEntity
  8
0
100
AcDbPolyline
 90
        2
 70
   129
 43
0.0
 10
0.4879768806237
 20
-0.2592262903255467
 10
0.0490260179958444
 20
-0.2592262903255467
1001
AcDbBlockRepETag
1070
     1
1071
       36
1005
8C
  0
LWPOLYLINE
  5
8D
330
5E
100
AcDbEntity
  8
0
100
AcDbPolyline
 90
        5
 70
   128
 43
0.0
 10
0.0490260179958444
 20
-0.2592262903255467
 10
0.0490260179958444
 20
-0.2193216664502877
 10
0.4879768806237
 20
-0.2193216664502877
 10
0.3682630089979231
 20
-0.2193216664502877
 10
0.3682630089979231
 20
-0.1794170425750288
1001
AcDbBlockRepETag
1070
     1
1071
       37
1005
8D
  0
LWPOLYLINE
  5
8E
330
5E
100
AcDbEntity
  8
0
100
AcDbPolyline
 90
        4
 70
   128
 43
0.0
 10
0.0490260179958444
 20
-0.2592262903255467
 10
0.0490260179958444
 20
-0.2193216664502877
 10
0.4879768806237
 20
-0.2193216664502877
 10
0.0490260179958444
 20
-0.2193216664502877
1001
AcDbBlockRepETag
1070
     1
1071
       38
1005
8E
  0
LWPOLYLINE
  5
8F
330
5E
100
AcDbEntity
  8
0
100
AcDbPolyline
 90
        2
 70
   129
 43
0.0
 10
0.4879768806237
 20
-0.2193216664502877
 10
0.3283583851226606
 20
-0.2193216664502877
1001
AcDbBlockRepETag
1070
     1
1071
       39
1005
8F
  0
LWPOLYLINE
  5
90
330
5E
100
AcDbEntity
  8
0
100
AcDbPolyline
 90
        2
 70
   129
 43
0.0
 10
0.3283583851226606
 20
-0.2193216664502877
 10
0.3283583851226606
 20
-0.1794170425750288
1001
AcDbBlockRepETag
1070
     1
1071
       40
1005
90
  0
LINE
  5
91
330
5E
100
AcDbEntity
  8
0
100
AcDbLine
 10
-0.1915753906638091
 20
-0.1794170425750288
 30
0.0
 11
1.566575390663809
 21
-0.1794170425750252
 31
0.0
1001
AcDbBlockRepETag
1070
     1
1071
       41
1005
91
  0
LINE
  5
92
330
5E
100
AcDbEntity
  8
0
100
AcDbLine
 10
-0.1915753906638091
 20
0.0611843660846248
 30
0.0
 11
-0.1915753906638091
 21
-0.1794170425750288
 31
0.0
1001
AcDbBlockRepETag
1070
     1
1071
       42
1005
92
  0
LINE
  5
93
330
5E
100
AcDbEntity
  8
0
100
AcDbLine
 10
1.046641614877334
 20
1.459019867126805
 30
0.0
 11
1.046641614877335
 21
1.818161482004146
 31
0.0
1001
AcDbBlockRepETag
1070
     1
1071
       43
1005
93
  0
LINE
  5
94
330
5E
100
AcDbEntity
  8
0
100
AcDbLine
 10
0.8870231193762965
 20
1.818161482004146
 30
0.0
 11
0.8870231193762965
 21
1.459019867126809
 31
0.0
1001
AcDbBlockRepETag
1070
     1
1071
       44
1005
94
  0
LINE
  5
95
330
5E
100
AcDbEntity
  8
0
100
AcDbLine
 10
0.926927743251559
 20
1.020069004498953
 30
0.0
 11
0.926927743251559
 21
1.339305995501035
 31
0.0
1001
AcDbBlockRepETag
1070
     1
1071
       45
1005
95
  0
LINE
  5
96
330
5E
100
AcDbEntity
  8
0
100
AcDbLine
 10
0.926927743251559
 20
1.339305995501035
 30
0.0
 11
0.448072256748441
 21
1.339305995501018
 31
0.0
1001
AcDbBlockRepETag
1070
     1
1071
       46
1005
96
  0
LINE
  5
97
330
5E
100
AcDbEntity
  8
0
100
AcDbLine
 10
0.8072138716257786
 20
1.339305995501032
 30
0.0
 11
0.8072138716257786
 21
1.020069004498953
 31
0.0
1001
AcDbBlockRepETag
1070
     1
1071
       47
1005
97
  0
LWPOLYLINE
  5
98
330
5E
100
AcDbEntity
  8
0
100
AcDbPolyline
 90
        4
 70
   129
 43
0.0
 10
-0.1915753906638091
 20
2.298190633915361
 10
-0.1915753906638091
 20
0.0611843660846248
 10
1.566575390663809
 20
0.0611843660846248
 10
1.566575390663809
 20
2.298190633915361
1001
AcDbBlockRepETag
1070
     1
1071
       48
1005
98
  0
LINE
  5
99
330
5E
100
AcDbEntity
  8
0
100
AcDbLine
 10
0.2884537612474016
 20
0.8193722197145625
 30
0.0
 11
0.2884537612474016
 21
0.5400398525877428
 31
0.0
1001
AcDbBlockRepETag
1070
     1
1071
       49
1005
99
  0
LINE
  5
9A
330
5E
100
AcDbEntity
  8
0
100
AcDbLine
 10
0.2884537612474016
 20
0.5400398525877428
 30
0.0
 11
1.086546238752594
 21
0.5400398525877428
 31
0.0
1001
AcDbBlockRepETag
1070
     1
1071
       50
1005
9A
  0
LINE
  5
9B
330
5E
100
AcDbEntity
  8
0
100
AcDbLine
 10
1.086546238752594
 20
0.5400398525877428
 30
0.0
 11
1.086546238752594
 21
0.8193722197145625
 31
0.0
1001
AcDbBlockRepETag
1070
     1
1071
       51
1005
9B
  0
LINE
  5
9C
330
5E
100
AcDbEntity
  8
0
100
AcDbLine
 10
1.086546238752594
 20
0.8193722197145625
 30
0.0
 11
0.2884537612474016
 21
0.8193722197145625
 31
0.0
1001
AcDbBlockRepETag
1070
     1
1071
       52
1005
9C
  0
LINE
  5
9D
330
5E
100
AcDbEntity
  8
0
100
AcDbLine
 10
0.3283583851226606
 20
1.459019867126809
 30
0.0
 11
1.046641614877334
 21
1.459019867126805
 31
0.0
1001
AcDbBlockRepETag
1070
     1
1071
       53
1005
9D
  0
LINE
  5
9E
330
5E
100
AcDbEntity
  8
0
100
AcDbLine
 10
1.046641614877335
 20
1.818161482004146
 30
0.0
 11
0.3283583851226606
 21
1.818161482004146
 31
0.0
1001
AcDbBlockRepETag
1070
     1
1071
       54
1005
9E
  0
LINE
  5
9F
330
5E
100
AcDbEntity
  8
0
100
AcDbLine
 10
0.3283583851226606
 20
1.818161482004146
 30
0.0
 11
0.3283583851226606
 21
1.459019867126809
 31
0.0
1001
AcDbBlockRepETag
1070
     1
1071
       55
1005
9F
  0
LINE
  5
A0
330
5E
100
AcDbEntity
  8
0
100
AcDbLine
 10
0.4879768806237
 20
1.459019867126809
 30
0.0
 11
0.4879768806237
 21
1.818161482004146
 31
0.0
1001
AcDbBlockRepETag
1070
     1
1071
       56
1005
A0
  0
LINE
  5
A1
330
5E
100
AcDbEntity
  8
0
100
AcDbLine
 10
0.5677861283742214
 20
1.020069004498953
 30
0.0
 11
0.5677861283742214
 21
1.339305995501032
 31
0.0
1001
AcDbBlockRepETag
1070
     1
1071
       57
1005
A1
  0
LINE
  5
A2
330
5E
100
AcDbEntity
  8
0
100
AcDbLine
 10
0.448072256748441
 20
1.339305995501018
 30
0.0
 11
0.448072256748441
 21
1.020069004498949
 31
0.0
1001
AcDbBlockRepETag
1070
     1
1071
       58
1005
A2
  0
LINE
  5
A3
330
5E
100
AcDbEntity
  8
0
100
AcDbLine
 10
0.448072256748441
 20
1.020069004498949
 30
0.0
 11
0.926927743251559
 21
1.020069004498953
 31
0.0
1001
AcDbBlockRepETag
1070
     1
1071
       59
1005
A3
  0
CIRCLE
  5
A4
330
5E
100
AcDbEntity
  8
0
100
AcDbCircle
 10
0.0484391852917963
 20
0.3165843054954465
 30
0.0
 40
0.147934929770927
1001
AcDbBlockRepETag
1070
     1
1071
       60
1005
A4
  0
LWPOLYLINE
  5
A5
330
5E
100
AcDbEntity
  8
0
100
AcDbPolyline
 90
       13
 70
     1
 43
0.0
 10
-0.0437356555654756
 20
0.288931853238271
 10
-0.0437356555654756
 20
0.3442367577526149
 10
0.0300042171203447
 20
0.3442367577526149
 10
0.0300042171203447
 20
0.4548465667813453
 10
0.0668741534632549
 20
0.4548465667813453
 10
0.0668741534632549
 20
0.3442367577526149
 10
0.1406140261490609
 20
0.3442367577526149
 10
0.1406140261490609
 20
0.288931853238271
 10
0.0668741534632549
 20
0.288931853238271
 10
0.0668741534632549
 20
0.1783220442095406
 10
0.0300042171203447
 20
0.1783220442095406
 10
0.0300042171203447
 20
0.288931853238271
 10
-0.0437356555654756
 20
0.288931853238271
1001
AcDbBlockRepETag
1070
     1
1071
       61
1005
A5
  0
CIRCLE
  5
A6
330
5E
100
AcDbEntity
  8
0
100
AcDbCircle
 10
0.4680245686860705
 20
0.3165843054954465
 30
0.0
 40
0.147934929770927
1001
AcDbBlockRepETag
1070
     1
1071
       62
1005
A6
  0
LWPOLYLINE
  5
A7
330
5E
100
AcDbEntity
  8
0
100
AcDbPolyline
 90
       13
 70
     1
 43
0.0
 10
0.3758497278287987
 20
0.288931853238271
 10
0.3758497278287987
 20
0.3442367577526149
 10
0.449589600514619
 20
0.3442367577526149
 10
0.449589600514619
 20
0.4548465667813453
 10
0.4864595368575291
 20
0.4548465667813453
 10
0.4864595368575291
 20
0.3442367577526149
 10
0.5601994095433352
 20
0.3442367577526149
 10
0.5601994095433352
 20
0.288931853238271
 10
0.4864595368575291
 20
0.288931853238271
 10
0.4864595368575291
 20
0.1783220442095406
 10
0.449589600514619
 20
0.1783220442095406
 10
0.449589600514619
 20
0.288931853238271
 10
0.3758497278287987
 20
0.288931853238271
1001
AcDbBlockRepETag
1070
     1
1071
       63
1005
A7
  0
CIRCLE
  5
A8
330
5E
100
AcDbEntity
  8
0
100
AcDbCircle
 10
1.326560814708201
 20
0.3165843054954465
 30
0.0
 40
0.147934929770927
1001
AcDbBlockRepETag
1070
     1
1071
       64
1005
A8
  0
LWPOLYLINE
  5
A9
330
5E
100
AcDbEntity
  8
0
100
AcDbPolyline
 90
       13
 70
     1
 43
0.0
 10
1.418735655565473
 20
0.288931853238271
 10
1.418735655565473
 20
0.3442367577526149
 10
1.344995782879653
 20
0.3442367577526149
 10
1.344995782879653
 20
0.4548465667813453
 10
1.308125846536743
 20
0.4548465667813453
 10
1.308125846536743
 20
0.3442367577526149
 10
1.234385973850937
 20
0.3442367577526149
 10
1.234385973850937
 20
0.288931853238271
 10
1.308125846536743
 20
0.288931853238271
 10
1.308125846536743
 20
0.1783220442095406
 10
1.344995782879653
 20
0.1783220442095406
 10
1.344995782879653
 20
0.288931853238271
 10
1.418735655565473
 20
0.288931853238271
1001
AcDbBlockRepETag
1070
     1
1071
       65
1005
A9
  0
CIRCLE
  5
AA
330
5E
100
AcDbEntity
  8
0
100
AcDbCircle
 10
0.9069754313139277
 20
0.3165843054954465
 30
0.0
 40
0.147934929770927
1001
AcDbBlockRepETag
1070
     1
1071
       66
1005
AA
  0
LWPOLYLINE
  5
AB
330
5E
100
AcDbEntity
  8
0
100
AcDbPolyline
 90
       13
 70
     1
 43
0.0
 10
0.9991502721711995
 20
0.288931853238271
 10
0.9991502721711995
 20
0.3442367577526149
 10
0.9254103994853792
 20
0.3442367577526149
 10
0.9254103994853792
 20
0.4548465667813453
 10
0.8885404631424691
 20
0.4548465667813453
 10
0.8885404631424691
 20
0.3442367577526149
 10
0.814800590456663
 20
0.3442367577526149
 10
0.814800590456663
 20
0.288931853238271
 10
0.8885404631424691
 20
0.288931853238271
 10
0.8885404631424691
 20
0.1783220442095406
 10
0.9254103994853792
 20
0.1783220442095406
 10
0.9254103994853792
 20
0.288931853238271
 10
0.9991502721711995
 20
0.288931853238271
1001
AcDbBlockRepETag
1070
     1
1071
       67
1005
AB
  0
TEXT
  5
AC
330
5E
100
AcDbEntity
  8
0
100
AcDbText
 10
-0.0762796377160218
 20
0.0797617358231655
 30
0.0
 40
0.0737407974
  1
2
100
AcDbText
1001
AcDbBlockRepETag
1070
     1
1071
       68
1005
AC
  0
TEXT
  5
AD
330
5E
100
AcDbEntity
  8
0
100
AcDbText
 10
0.0961726638004645
 20
0.0797617358231655
 30
0.0
 40
0.0737407974
  1
T1
100
AcDbText
1001
AcDbBlockRepETag
1070
     1
1071
       69
1005
AD
  0
TEXT
  5
AE
330
5E
100
AcDbEntity
  8
0
100
AcDbText
 10
0.3433057456782524
 20
0.0797617358231655
 30
0.0
 40
0.0737407974
  1
4
100
AcDbText
1001
AcDbBlockRepETag
1070
     1
1071
       70
1005
AE
  0
TEXT
  5
AF
330
5E
100
AcDbEntity
  8
0
100
AcDbText
 10
0.5157580471947388
 20
0.0797617358231655
 30
0.0
 40
0.0737407974
  1
T2
100
AcDbText
1001
AcDbBlockRepETag
1070
     1
1071
       71
1005
AF
  0
TEXT
  5
B0
330
5E
100
AcDbEntity
  8
0
100
AcDbText
 10
0.7822566083061098
 20
0.0797617358231655
 30
0.0
 40
0.0737407974
  1
6
100
AcDbText
1001
AcDbBlockRepETag
1070
     1
1071
       72
1005
B0
  0
TEXT
  5
B1
330
5E
100
AcDbEntity
  8
0
100
AcDbText
 10
0.954708909822596
 20
0.0797617358231655
 30
0.0
 40
0.0737407974
  1
T3
100
AcDbText
1001
AcDbBlockRepETag
1070
     1
1071
       73
1005
B1
  0
TEXT
  5
B2
330
5E
100
AcDbEntity
  8
0
100
AcDbText
 10
1.201841991700383
 20
0.0797617358231655
 30
0.0
 40
0.0737407974
  1
14
100
AcDbText
1001
AcDbBlockRepETag
1070
     1
1071
       74
1005
B2
  0
TEXT
  5
B3
330
5E
100
AcDbEntity
  8
0
100
AcDbText
 10
1.37429429321687
 20
0.0797617358231655
 30
0.0
 40
0.0737407974
  1
NO
100
AcDbText
1001
AcDbBlockRepETag
1070
     1
1071
       75
1005
B3
  0
CIRCLE
  5
B4
330
5E
100
AcDbEntity
  8
0
100
AcDbCircle
 10
0.0484391852917963
 20
2.042790694504539
 30
0.0
 40
0.147934929770927
1001
AcDbBlockRepETag
1070
     1
1071
       76
1005
B4
  0
LWPOLYLINE
  5
B5
330
5E
100
AcDbEntity
  8
0
100
AcDbPolyline
 90
       13
 70
     1
 43
0.0
 10
-0.0437356555654756
 20
2.070443146761714
 10
-0.0437356555654756
 20
2.01513824224737
 10
0.0300042171203447
 20
2.01513824224737
 10
0.0300042171203447
 20
1.90452843321864
 10
0.0668741534632549
 20
1.90452843321864
 10
0.0668741534632549
 20
2.01513824224737
 10
0.1406140261490609
 20
2.01513824224737
 10
0.1406140261490609
 20
2.070443146761714
 10
0.0668741534632549
 20
2.070443146761714
 10
0.0668741534632549
 20
2.181052955790445
 10
0.0300042171203447
 20
2.181052955790445
 10
0.0300042171203447
 20
2.070443146761714
 10
-0.0437356555654756
 20
2.070443146761714
1001
AcDbBlockRepETag
1070
     1
1071
       77
1005
B5
  0
CIRCLE
  5
B6
330
5E
100
AcDbEntity
  8
0
100
AcDbCircle
 10
0.4680245686860705
 20
2.042790694504539
 30
0.0
 40
0.147934929770927
1001
AcDbBlockRepETag
1070
     1
1071
       78
1005
B6
  0
LWPOLYLINE
  5
B7
330
5E
100
AcDbEntity
  8
0
100
AcDbPolyline
 90
       13
 70
     1
 43
0.0
 10
0.3758497278287987
 20
2.070443146761714
 10
0.3758497278287987
 20
2.01513824224737
 10
0.449589600514619
 20
2.01513824224737
 10
0.449589600514619
 20
1.90452843321864
 10
0.4864595368575291
 20
1.90452843321864
 10
0.4864595368575291
 20
2.01513824224737
 10
0.5601994095433352
 20
2.01513824224737
 10
0.5601994095433352
 20
2.070443146761714
 10
0.4864595368575291
 20
2.070443146761714
 10
0.4864595368575291
 20
2.181052955790445
 10
0.449589600514619
 20
2.181052955790445
 10
0.449589600514619
 20
2.070443146761714
 10
0.3758497278287987
 20
2.070443146761714
1001
AcDbBlockRepETag
1070
     1
1071
       79
1005
B7
  0
CIRCLE
  5
B8
330
5E
100
AcDbEntity
  8
0
100
AcDbCircle
 10
1.326560814708201
 20
2.042790694504539
 30
0.0
 40
0.147934929770927
1001
AcDbBlockRepETag
1070
     1
1071
       80
1005
B8
  0
LWPOLYLINE
  5
B9
330
5E
100
AcDbEntity
  8
0
100
AcDbPolyline
 90
       13
 70
     1
 43
0.0
 10
1.418735655565473
 20
2.070443146761714
 10
1.418735655565473
 20
2.01513824224737
 10
1.344995782879653
 20
2.01513824224737
 10
1.344995782879653
 20
1.90452843321864
 10
1.308125846536743
 20
1.90452843321864
 10
1.308125846536743
 20
2.01513824224737
 10
1.234385973850937
 20
2.01513824224737
 10
1.234385973850937
 20
2.070443146761714
 10
1.308125846536743
 20
2.070443146761714
 10
1.308125846536743
 20
2.181052955790445
 10
1.344995782879653
 20
2.181052955790445
 10
1.344995782879653
 20
2.070443146761714
 10
1.418735655565473
 20
2.070443146761714
1001
AcDbBlockRepETag
1070
     1
1071
       81
1005
B9
  0
CIRCLE
  5
BA
330
5E
100
AcDbEntity
  8
0
100
AcDbCircle
 10
0.9069754313139277
 20
2.042790694504539
 30
0.0
 40
0.147934929770927
1001
AcDbBlockRepETag
1070
     1
1071
       82
1005
BA
  0
LWPOLYLINE
  5
BB
330
5E
100
AcDbEntity
  8
0
100
AcDbPolyline
 90
       13
 70
     1
 43
0.0
 10
0.9991502721711995
 20
2.070443146761714
 10
0.9991502721711995
 20
2.01513824224737
 10
0.9254103994853792
 20
2.01513824224737
 10
0.9254103994853792
 20
1.90452843321864
 10
0.8885404631424691
 20
1.90452843321864
 10
0.8885404631424691
 20
2.01513824224737
 10
0.814800590456663
 20
2.01513824224737
 10
0.814800590456663
 20
2.070443146761714
 10
0.8885404631424691
 20
2.070443146761714
 10
0.8885404631424691
 20
2.181052955790445
 10
0.9254103994853792
 20
2.181052955790445
 10
0.9254103994853792
 20
2.070443146761714
 10
0.9991502721711995
 20
2.070443146761714
1001
AcDbBlockRepETag
1070
     1
1071
       83
1005
BB
  0
TEXT
  5
BC
330
5E
100
AcDbEntity
  8
0
100
AcDbText
 10
-0.0762796377160218
 20
2.205872466776821
 30
0.0
 40
0.0737407974
  1
1
100
AcDbText
1001
AcDbBlockRepETag
1070
     1
1071
       84
1005
BC
  0
TEXT
  5
BD
330
5E
100
AcDbEntity
  8
0
100
AcDbText
 10
0.0961726638004645
 20
2.205872466776821
 30
0.0
 40
0.0737407974
  1
L1
100
AcDbText
1001
AcDbBlockRepETag
1070
     1
1071
       85
1005
BD
  0
TEXT
  5
BE
330
5E
100
AcDbEntity
  8
0
100
AcDbText
 10
0.3433057456782524
 20
2.205872466776821
 30
0.0
 40
0.0737407974
  1
3
100
AcDbText
1001
AcDbBlockRepETag
1070
     1
1071
       86
1005
BE
  0
TEXT
  5
BF
330
5E
100
AcDbEntity
  8
0
100
AcDbText
 10
0.5157580471947388
 20
2.205872466776821
 30
0.0
 40
0.0737407974
  1
L2
100
AcDbText
1001
AcDbBlockRepETag
1070
     1
1071
       87
1005
BF
  0
TEXT
  5
C0
330
5E
100
AcDbEntity
  8
0
100
AcDbText
 10
0.7822566083061098
 20
2.205872466776821
 30
0.0
 40
0.0737407974
  1
5
100
AcDbText
1001
AcDbBlockRepETag
1070
     1
1071
       88
1005
C0
  0
TEXT
  5
C1
330
5E
100
AcDbEntity
  8
0
100
AcDbText
 10
0.954708909822596
 20
2.205872466776821
 30
0.0
 40
0.0737407974
  1
L3
100
AcDbText
1001
AcDbBlockRepETag
1070
     1
1071
       89
1005
C1
  0
TEXT
  5
C2
330
5E
100
AcDbEntity
  8
0
100
AcDbText
 10
1.201841991700383
 20
2.205872466776821
 30
0.0
 40
0.0737407974
  1
13
100
AcDbText
1001
AcDbBlockRepETag
1070
     1
1071
       90
1005
C2
  0
TEXT
  5
C3
330
5E
100
AcDbEntity
  8
0
100
AcDbText
 10
1.37429429321687
 20
2.205872466776821
 30
0.0
 40
0.0737407974
  1
NO
100
AcDbText
1001
AcDbBlockRepETag
1070
     1
1071
       91
1005
C3
  0
LINE
  5
C4
330
5E
100
AcDbEntity
  8
0
100
AcDbLine
 10
-0.1915753906638091
 20
2.617427624917436
 30
0.0
 11
0.1288352657463623
 21
2.617427624917436
 31
0.0
1001
AcDbBlockRepETag
1070
     1
1071
       92
1005
C4
  0
LINE
  5
C5
330
5E
100
AcDbEntity
  8
0
100
AcDbLine
 10
1.566575390663809
 20
2.4578091294164
 30
0.0
 11
1.52667076678855
 21
2.4578091294164
 31
0.0
1001
AcDbBlockRepETag
1070
     1
1071
       93
1005
C5
  0
CIRCLE
  5
C6
330
5E
100
AcDbEntity
  8
0
100
AcDbCircle
 10
0.3386279574434994
 20
2.648476212138447
 30
0.0
 40
0.1172099828185033
1001
AcDbBlockRepETag
1070
     1
1071
       94
1005
C6
  0
LWPOLYLINE
  5
C7
330
5E
100
AcDbEntity
  8
0
100
AcDbPolyline
 90
       13
 70
     1
 43
0.0
 10
0.2771780635386527
 20
2.666911180309895
 10
0.2771780635386527
 20
2.630041243966999
 10
0.3263379786625293
 20
2.630041243966999
 10
0.3263379786625293
 20
2.556301371281179
 10
0.3509179362244694
 20
2.556301371281179
 10
0.3509179362244694
 20
2.630041243966999
 10
0.4000778513483461
 20
2.630041243966999
 10
0.4000778513483461
 20
2.666911180309895
 10
0.3509179362244694
 20
2.666911180309895
 10
0.3509179362244694
 20
2.740651052995715
 10
0.3263379786625293
 20
2.740651052995715
 10
0.3263379786625293
 20
2.666911180309895
 10
0.2771780635386527
 20
2.666911180309895
1001
AcDbBlockRepETag
1070
     1
1071
       95
1005
C7
  0
CIRCLE
  5
C8
330
5E
100
AcDbEntity
  8
0
100
AcDbCircle
 10
1.037545707964593
 20
2.648476212138447
 30
0.0
 40
0.1172099828185034
1001
AcDbBlockRepETag
1070
     1
1071
       96
1005
C8
  0
LWPOLYLINE
  5
C9
330
5E
100
AcDbEntity
  8
0
100
AcDbPolyline
 90
       13
 70
     1
 43
0.0
 10
1.09899560186944
 20
2.666911180309895
 10
1.09899560186944
 20
2.630041243966999
 10
1.049835686745563
 20
2.630041243966999
 10
1.049835686745563
 20
2.556301371281179
 10
1.025255729183623
 20
2.556301371281179
 10
1.025255729183623
 20
2.630041243966999
 10
0.9760958140597466
 20
2.630041243966999
 10
0.9760958140597466
 20
2.666911180309895
 10
1.025255729183623
 20
2.666911180309895
 10
1.025255729183623
 20
2.740651052995715
 10
1.049835686745563
 20
2.740651052995715
 10
1.049835686745563
 20
2.666911180309895
 10
1.09899560186944
 20
2.666911180309895
1001
AcDbBlockRepETag
1070
     1
1071
       97
1005
C9
  0
TEXT
  5
CA
330
5E
100
AcDbEntity
  8
0
100
AcDbText
 10
1.110275725668635
 20
2.76384911236887
 30
0.0
 40
0.0737407974
  1
A2
100
AcDbText
1001
AcDbBlockRepETag
1070
     1
1071
       98
1005
CA
  0
TEXT
  5
CB
330
5E
100
AcDbEntity
  8
0
100
AcDbText
 10
0.1429966107394573
 20
2.76384911236887
 30
0.0
 40
0.0737407974
  1
A1
100
AcDbText
1001
AcDbBlockRepETag
1070
     1
1071
       99
1005
CB
  0
CIRCLE
  5
CC
330
5E
100
AcDbEntity
  8
0
  6
HIDDEN2
100
AcDbCircle
 10
1.374999999999996
 20
2.359374999999985
 30
0.0
 40
0.09375
1001
AcDbBlockRepETag
1070
     1
1071
      100
1005
CC
  0
CIRCLE
  5
CE
330
5E
100
AcDbEntity
  8
0
  6
HIDDEN2
100
AcDbCircle
 10
0.0
 20
0.0
 30
0.0
 40
0.09375
1001
AcDbBlockRepETag
1070
     1
1071
      101
1005
CE
  0
POINT
  5
CF
330
5E
100
AcDbEntity
  8
0
 62
     1
100
AcDbPoint
 10
1.374999999999996
 20
2.359374999999985
 30
0.0
1001
AcDbBlockRepETag
1070
     1
1071
      102
1005
CF
  0
POINT
  5
D0
330
5E
100
AcDbEntity
  8
0
 62
     1
100
AcDbPoint
 10
0.0
 20
0.0
 30
0.0
1001
AcDbBlockRepETag
1070
     1
1071
      103
1005
D0
  0
TEXT
  5
D1
330
5E
100
AcDbEntity
  8
SS-A
 62
     4
100
AcDbText
 10
-0.0916821879566415
 20
0.8394595394734725
 30
0.0
 40
0.1422194935674756
  1
CA7
 41
0.75
  7
SIMPLEX
 72
     4
 11
0.053076939424539
 21
0.9105692862572103
 31
0.0
100
AcDbText
1001
AcDbBlockRepETag
1070
     1
1071
      104
1005
D1
  0
TEXT
  5
D6
330
5E
100
AcDbEntity
  8
SS-A
 62
     4
 60
     1
100
AcDbText
 10
-0.0993010893977563
 20
0.6635931879648062
 30
0.0
 40
0.1422194935674756
  1
-23
 41
0.75
  7
SIMPLEX
 72
     4
 11
0.053076939424539
 21
0.7347029347485439
 31
0.0
100
AcDbText
1001
AcDbBlockRepETag
1070
     1
1071
      105
1005
D6
  0
TEXT
  5
D7
330
5E
100
AcDbEntity
  8
SS-A
 62
     4
 60
     1
100
AcDbText
 10
-0.0866029203292317
 20
0.6635931879648061
 30
0.0
 40
0.1422194935674756
  1
-16
 41
0.75
  7
SIMPLEX
 72
     4
 11
0.053076939424539
 21
0.7347029347485439
 31
0.0
100
AcDbText
1001
AcDbBlockRepETag
1070
     1
1071
      106
1005
D7
  0
TEXT
  5
D8
330
5E
100
AcDbEntity
  8
SS-A
 62
     4
 60
     1
100
AcDbText
 10
-0.0891425541429367
 20
0.6635931879648061
 30
0.0
 40
0.1422194935674756
  1
-12
 41
0.75
  7
SIMPLEX
 72
     4
 11
0.053076939424539
 21
0.7347029347485439
 31
0.0
100
AcDbText
1001
AcDbBlockRepETag
1070
     1
1071
      107
1005
D8
  0
TEXT
  5
D9
330
5E
100
AcDbEntity
  8
SS-A
 62
     4
100
AcDbText
 10
-0.0967614555840514
 20
0.6635931879648061
 30
0.0
 40
0.1422194935674756
  1
-09
 41
0.75
  7
SIMPLEX
 72
     4
 11
0.053076939424539
 21
0.7347029347485439
 31
0.0
100
AcDbText
1001
AcDbBlockRepETag
1070
     1
1071
      108
1005
D9
  0
TEXT
  5
DA
330
5E
100
AcDbEntity
  8
SS-A
 62
     4
 60
     1
100
AcDbText
 10
-0.0866029203292317
 20
0.8394595394734725
 30
0.0
 40
0.1422194935674756
  1
CS7
 41
0.75
  7
SIMPLEX
 72
     4
 11
0.053076939424539
 21
0.9105692862572103
 31
0.0
100
AcDbText
1001
AcDbBlockRepETag
1070
     1
1071
      109
1005
DA
  0
ENDBLK
  5
DB
330
5E
100
AcDbEntity
  8
0
 62
     1
100
AcDbBlockEnd
  0
BLOCK
  5
161
330
158
100
AcDbEntity
  8
0
 62
     1
100
AcDbBlockBegin
  2
*U1
 70
     1
 10
0.0
 20
0.0
 30
0.0
  3
*U1
  1

  0
LINE
  5
162
330
158
100
AcDbEntity
  8
0
100
AcDbLine
 10
1.000617572721301
 20
0.0410110755649837
 30
0.0
 11
1.000617572721301
 21
0.4745505749301407
 31
0.0
1001
AcDbBlockRepETag
1070
     1
1071
        0
1005
162
  0
LINE
  5
163
330
158
100
AcDbEntity
  8
0
100
AcDbLine
 10
1.000617572721301
 20
0.4745505749301407
 30
0.0
 11
0.9339945536098195
 21
0.4745505749301407
 31
0.0
1001
AcDbBlockRepETag
1070
     1
1071
        1
1005
163
  0
LINE
  5
164
330
158
100
AcDbEntity
  8
0
100
AcDbLine
 10
0.5675679484966701
 20
0.4745505749301407
 30
0.0
 11
0.5004550542446627
 21
0.4745505749301407
 31
0.0
1001
AcDbBlockRepETag
1070
     1
1071
        2
1005
164
  0
LINE
  5
165
330
158
100
AcDbEntity
  8
0
100
AcDbLine
 10
1.517435845975809
 20
-0.3087597747702953
 30
0.0
 11
1.517435845975809
 21
-0.0755792078801116
 31
0.0
1001
AcDbBlockRepETag
1070
     1
1071
        3
1005
165
  0
LINE
  5
166
330
158
100
AcDbEntity
  8
0
100
AcDbLine
 10
0.3005859969102183
 20
-0.0755792078801116
 30
0.0
 11
0.2506187325766085
 21
-0.0755792078801116
 31
0.0
1001
AcDbBlockRepETag
1070
     1
1071
        4
1005
166
  0
LINE
  5
167
330
158
100
AcDbEntity
  8
0
100
AcDbLine
 10
1.300911033863494
 20
-0.2921040199924265
 30
0.0
 11
1.417501317308586
 21
-0.2921040199924265
 31
0.0
1001
AcDbBlockRepETag
1070
     1
1071
        5
1005
167
  0
LINE
  5
168
330
158
100
AcDbEntity
  8
0
100
AcDbLine
 10
1.417501317308586
 20
-0.2921040199924265
 30
0.0
 11
1.417501317308586
 21
-0.1422022269915937
 31
0.0
1001
AcDbBlockRepETag
1070
     1
1071
        6
1005
168
  0
LINE
  5
169
330
158
100
AcDbEntity
  8
0
100
AcDbLine
 10
1.417501317308586
 20
-0.1422022269915937
 30
0.0
 11
1.300911033863494
 21
-0.1422022269915937
 31
0.0
1001
AcDbBlockRepETag
1070
     1
1071
        7
1005
169
  0
LINE
  5
16A
330
158
100
AcDbEntity
  8
0
100
AcDbLine
 10
1.300911033863494
 20
-0.3592169142444321
 30
0.0
 11
1.300911033863494
 21
-0.0755792078801081
 31
0.0
1001
AcDbBlockRepETag
1070
     1
1071
        8
1005
16A
  0
LINE
  5
16B
330
158
100
AcDbEntity
  8
0
100
AcDbLine
 10
0.2506187325766067
 20
-0.3087597747702953
 30
0.0
 11
0.2506187325766085
 21
-0.0755792078801116
 31
0.0
1001
AcDbBlockRepETag
1070
     1
1071
        9
1005
16B
  0
LINE
  5
16C
330
158
100
AcDbEntity
  8
0
100
AcDbLine
 10
0.3005859969102183
 20
-0.2088252461030757
 30
0.0
 11
0.3005859969102183
 21
-0.0755792078801116
 31
0.0
1001
AcDbBlockRepETag
1070
     1
1071
       10
1005
16C
  0
LINE
  5
16D
330
158
100
AcDbEntity
  8
0
100
AcDbLine
 10
0.4504877899110511
 20
-0.2088252461030757
 30
0.0
 11
0.3005859969102183
 21
-0.2088252461030757
 31
0.0
1001
AcDbBlockRepETag
1070
     1
1071
       11
1005
16D
  0
LINE
  5
16E
330
158
100
AcDbEntity
  8
0
100
AcDbLine
 10
1.517435845975809
 20
-0.0755792078801116
 30
0.0
 11
1.034418957417567
 21
-0.0755792078801116
 31
0.0
1001
AcDbBlockRepETag
1070
     1
1071
       12
1005
16E
  0
LINE
  5
16F
330
158
100
AcDbEntity
  8
0
100
AcDbLine
 10
0.3005859969102183
 20
-0.3087597747702953
 30
0.0
 11
0.3005859969102183
 21
-0.2587925104366855
 31
0.0
1001
AcDbBlockRepETag
1070
     1
1071
       13
1005
16F
  0
LINE
  5
170
330
158
100
AcDbEntity
  8
0
100
AcDbLine
 10
0.3005859969102183
 20
-0.2587925104366855
 30
0.0
 11
0.4504877899110511
 21
-0.2587925104366819
 31
0.0
1001
AcDbBlockRepETag
1070
     1
1071
       14
1005
170
  0
LINE
  5
171
330
158
100
AcDbEntity
  8
0
100
AcDbLine
 10
0.4504877899110511
 20
-0.3087597747702953
 30
0.0
 11
0.4504877899110529
 21
0.0410110755649837
 31
0.0
1001
AcDbBlockRepETag
1070
     1
1071
       15
1005
171
  0
LINE
  5
172
330
158
100
AcDbEntity
  8
0
100
AcDbLine
 10
0.6008794580524111
 20
0.0410110755649837
 30
0.0
 11
0.4504877899110529
 21
0.0410110755649837
 31
0.0
1001
AcDbBlockRepETag
1070
     1
1071
       16
1005
172
  0
LINE
  5
173
330
158
100
AcDbEntity
  8
0
100
AcDbLine
 10
0.6175352128302816
 20
-0.3087597747702953
 30
0.0
 11
0.6175352128302816
 21
-0.0922349626579768
 31
0.0
1001
AcDbBlockRepETag
1070
     1
1071
       17
1005
173
  0
LINE
  5
174
330
158
100
AcDbEntity
  8
0
100
AcDbLine
 10
0.6008794580524129
 20
-0.0922349626579768
 30
0.0
 11
0.6175352128302816
 21
-0.0922349626579768
 31
0.0
1001
AcDbBlockRepETag
1070
     1
1071
       18
1005
174
  0
LINE
  5
175
330
158
100
AcDbEntity
  8
0
100
AcDbLine
 10
0.6008794580524111
 20
0.0410110755649837
 30
0.0
 11
0.6008794580524129
 21
-0.0922349626579768
 31
0.0
1001
AcDbBlockRepETag
1070
     1
1071
       19
1005
175
  0
LINE
  5
176
330
158
100
AcDbEntity
  8
0
100
AcDbLine
 10
0.8840272892762079
 20
-0.2088252461030757
 30
0.0
 11
0.6175352128302816
 21
-0.2088252461030722
 31
0.0
1001
AcDbBlockRepETag
1070
     1
1071
       20
1005
176
  0
LINE
  5
177
330
158
100
AcDbEntity
  8
0
100
AcDbLine
 10
0.6175352128302816
 20
-0.258792510436689
 30
0.0
 11
0.8840272892762079
 21
-0.2587925104366784
 31
0.0
1001
AcDbBlockRepETag
1070
     1
1071
       21
1005
177
  0
LINE
  5
178
330
158
100
AcDbEntity
  8
0
100
AcDbLine
 10
0.8840272892762079
 20
-0.3592169142444321
 30
0.0
 11
0.8840272892762079
 21
0.0410110755649802
 31
0.0
1001
AcDbBlockRepETag
1070
     1
1071
       22
1005
178
  0
LINE
  5
179
330
158
100
AcDbEntity
  8
0
100
AcDbLine
 10
1.051074712195438
 20
-0.3592169142444321
 30
0.0
 11
1.051074712195442
 21
-0.0922349626579839
 31
0.0
1001
AcDbBlockRepETag
1070
     1
1071
       23
1005
179
  0
LINE
  5
17A
330
158
100
AcDbEntity
  8
0
100
AcDbLine
 10
1.034418957417567
 20
-0.0922349626579839
 30
0.0
 11
1.051074712195442
 21
-0.0922349626579839
 31
0.0
1001
AcDbBlockRepETag
1070
     1
1071
       24
1005
17A
  0
LINE
  5
17B
330
158
100
AcDbEntity
  8
0
100
AcDbLine
 10
1.034418957417567
 20
-0.0922349626579839
 30
0.0
 11
1.034418957417567
 21
0.0410110755649873
 31
0.0
1001
AcDbBlockRepETag
1070
     1
1071
       25
1005
17B
  0
LINE
  5
17C
330
158
100
AcDbEntity
  8
0
100
AcDbLine
 10
1.034418957417567
 20
0.0410110755649873
 30
0.0
 11
0.8840272892762079
 21
0.0410110755649802
 31
0.0
1001
AcDbBlockRepETag
1070
     1
1071
       26
1005
17C
  0
LINE
  5
17D
330
158
100
AcDbEntity
  8
0
100
AcDbLine
 10
1.450812826864327
 20
-0.3592169142444321
 30
0.0
 11
1.450812826864327
 21
-0.3087597747702953
 31
0.0
1001
AcDbBlockRepETag
1070
     1
1071
       27
1005
17D
  0
LINE
  5
17E
330
158
100
AcDbEntity
  8
0
100
AcDbLine
 10
1.450812826864327
 20
-0.3087597747702953
 30
0.0
 11
1.567892985449947
 21
-0.3087597747702953
 31
0.0
1001
AcDbBlockRepETag
1070
     1
1071
       28
1005
17E
  0
LINE
  5
17F
330
158
100
AcDbEntity
  8
0
100
AcDbLine
 10
1.567892985449947
 20
-0.3087597747702953
 30
0.0
 11
1.567892985449912
 21
-2.793406487516141
 31
0.0
1001
AcDbBlockRepETag
1070
     1
1071
       29
1005
17F
  0
LWPOLYLINE
  5
180
330
158
100
AcDbEntity
  8
0
100
AcDbPolyline
 90
        8
 70
     1
 43
0.0
 10
0.7674370058311144
 20
-0.6590205002461014
 10
1.450812826864327
 20
-0.6590205002461014
 10
1.450812826864327
 20
-0.3592169142444321
 10
0.7674370058311144
 20
-0.3592169142444321
 10
0.7674370058311144
 20
-0.4258399333559142
 10
0.7174697414975047
 20
-0.4258399333559142
 10
0.7174697414975047
 20
-0.6090532359124881
 10
0.7674370058311144
 20
-0.6090532359124881
1001
AcDbBlockRepETag
1070
     1
1071
       30
1005
180
  0
LINE
  5
181
330
158
100
AcDbEntity
  8
0
100
AcDbLine
 10
0.7674370058311144
 20
-0.3592169142444321
 30
0.0
 11
0.7674370058311127
 21
-0.3087597747702953
 31
0.0
1001
AcDbBlockRepETag
1070
     1
1071
       31
1005
181
  0
LINE
  5
182
330
158
100
AcDbEntity
  8
0
100
AcDbLine
 10
-0.1829207667885502
 20
-0.3087597747702953
 30
0.0
 11
0.7674370058311127
 21
-0.3087597747702953
 31
0.0
1001
AcDbBlockRepETag
1070
     1
1071
       32
1005
182
  0
LINE
  5
183
330
158
100
AcDbEntity
  8
0
100
AcDbLine
 10
0.5675679484966701
 20
0.4745505749301407
 30
0.0
 11
0.5675679484966736
 21
0.0410110755649837
 31
0.0
1001
AcDbBlockRepETag
1070
     1
1071
       33
1005
183
  0
LINE
  5
184
330
158
100
AcDbEntity
  8
0
100
AcDbLine
 10
0.5004550542446627
 20
0.4745505749301407
 30
0.0
 11
0.5004550542446627
 21
0.0410110755649837
 31
0.0
1001
AcDbBlockRepETag
1070
     1
1071
       34
1005
184
  0
LINE
  5
185
330
158
100
AcDbEntity
  8
0
100
AcDbLine
 10
0.9339945536098195
 20
0.4745505749301407
 30
0.0
 11
0.9339945536098195
 21
0.0410110755649802
 31
0.0
1001
AcDbBlockRepETag
1070
     1
1071
       35
1005
185
  0
LINE
  5
186
330
158
100
AcDbEntity
  8
0
100
AcDbLine
 10
-0.0017689737877156
 20
-0.3087597747702953
 30
0.0
 11
-0.0017689737877156
 21
0.0410110755649837
 31
0.0
1001
AcDbBlockRepETag
1070
     1
1071
       36
1005
186
  0
LINE
  5
187
330
158
100
AcDbEntity
  8
0
100
AcDbLine
 10
-0.0017689737877156
 20
0.0410110755649837
 30
0.0
 11
-0.1516707667885502
 21
0.0410110755649837
 31
0.0
1001
AcDbBlockRepETag
1070
     1
1071
       37
1005
187
  0
LINE
  5
188
330
158
100
AcDbEntity
  8
0
100
AcDbLine
 10
-0.1829207667885519
 20
-2.793406487516143
 30
0.0
 11
-0.1829207667885504
 21
-0.3087597747702953
 31
0.0
1001
AcDbBlockRepETag
1070
     1
1071
       38
1005
188
  0
LINE
  5
189
330
158
100
AcDbEntity
  8
0
100
AcDbLine
 10
-0.1183592572328092
 20
0.4745505749301407
 30
0.0
 11
-0.0350804833434566
 21
0.4745505749301407
 31
0.0
1001
AcDbBlockRepETag
1070
     1
1071
       39
1005
189
  0
LINE
  5
18A
330
158
100
AcDbEntity
  8
0
100
AcDbLine
 10
-0.0350804833434566
 20
0.4745505749301407
 30
0.0
 11
-0.0350804833434548
 21
0.0410110755649837
 31
0.0
1001
AcDbBlockRepETag
1070
     1
1071
       40
1005
18A
  0
LINE
  5
18B
330
158
100
AcDbEntity
  8
0
100
AcDbLine
 10
-0.1183592572328092
 20
0.4745505749301407
 30
0.0
 11
-0.1183592572328092
 21
0.0410110755649837
 31
0.0
1001
AcDbBlockRepETag
1070
     1
1071
       41
1005
18B
  0
LINE
  5
18C
330
158
100
AcDbEntity
  8
0
100
AcDbLine
 10
-0.1829207667885502
 20
-2.710127713626786
 30
0.0
 11
1.567892985449946
 21
-2.710127713626786
 31
0.0
1001
AcDbBlockRepETag
1070
     1
1071
       42
1005
18C
  0
LINE
  5
18D
330
158
100
AcDbEntity
  8
0
100
AcDbLine
 10
1.567892985449946
 20
-2.793406487516141
 30
0.0
 11
-0.1829207667885502
 21
-2.793406487516141
 31
0.0
1001
AcDbBlockRepETag
1070
     1
1071
       43
1005
18D
  0
LWPOLYLINE
  5
18E
330
158
100
AcDbEntity
  8
0
100
AcDbPolyline
 90
        4
 70
     1
 43
0.0
 10
0.4005205255774414
 20
-2.793406487516141
 10
0.4338320351331806
 20
-2.793406487516141
 10
0.4338320351331806
 20
-2.893830891323887
 10
0.4005205255774414
 20
-2.893830891323887
1001
AcDbBlockRepETag
1070
     1
1071
       44
1005
18E
  0
LWPOLYLINE
  5
18F
330
158
100
AcDbEntity
  8
0
100
AcDbPolyline
 90
        4
 70
     1
 43
0.0
 10
0.95065030838769
 20
-2.793406487516141
 10
0.9839618179434292
 20
-2.793406487516141
 10
0.9839618179434292
 20
-2.893830891323887
 10
0.95065030838769
 20
-2.893830891323887
1001
AcDbBlockRepETag
1070
     1
1071
       45
1005
18F
  0
CIRCLE
  5
190
330
158
100
AcDbEntity
  8
0
100
AcDbCircle
 10
0.5450063639590717
 20
-0.9676418387772303
 30
0.0
 40
0.1356449509899573
1001
AcDbBlockRepETag
1070
     1
1071
       46
1005
190
  0
CIRCLE
  5
191
330
158
100
AcDbEntity
  8
0
100
AcDbCircle
 10
0.5450063639590717
 20
-0.9676418387772303
 30
0.0
 40
0.1966396604955086
1001
AcDbBlockRepETag
1070
     1
1071
       47
1005
191
  0
LWPOLYLINE
  5
192
330
158
100
AcDbEntity
  8
0
100
AcDbPolyline
 90
        4
 70
     1
 43
0.0
 10
0.0037921131971252
 20
-1.164281499272751
 10
0.1881417949116653
 20
-1.164281499272751
 10
0.1881417949116653
 20
-0.8442868665682583
 10
0.0037921131971252
 20
-0.8442868665682583
1001
AcDbBlockRepETag
1070
     1
1071
       48
1005
192
  0
LWPOLYLINE
  5
193
330
158
100
AcDbEntity
  8
0
100
AcDbPolyline
 90
        4
 70
     1
 43
0.0
 10
0.0160820919780953
 20
-1.151991520491766
 10
0.1758518161306952
 20
-1.151991520491766
 10
0.1758518161306952
 20
-0.8565768453492141
 10
0.0160820919780953
 20
-0.8565768453492141
1001
AcDbBlockRepETag
1070
     1
1071
       49
1005
193
  0
CIRCLE
  5
194
330
158
100
AcDbEntity
  8
0
100
AcDbCircle
 10
1.221410381311674
 20
-1.250311350739527
 30
0.0
 40
0.1720597029335703
1001
AcDbBlockRepETag
1070
     1
1071
       50
1005
194
  0
CIRCLE
  5
195
330
158
100
AcDbEntity
  8
0
100
AcDbCircle
 10
1.221410381311674
 20
-1.250311350739527
 30
0.0
 40
0.1597697241526006
1001
AcDbBlockRepETag
1070
     1
1071
       51
1005
195
  0
LWPOLYLINE
  5
196
330
158
100
AcDbEntity
  8
0
100
AcDbPolyline
 90
       16
 70
     1
 43
0.0
 10
1.09851059350198
 20
-1.225731393177587
 10
1.09851059350198
 20
-1.274891308301467
 10
1.196830423749734
 20
-1.274891308301467
 10
1.196830423749734
 20
-1.324506407824647
 10
1.245990338873614
 20
-1.324506407824647
 10
1.245990338873614
 20
-1.274891308301467
 10
1.307440232778457
 20
-1.274891308301467
 10
1.307440232778457
 20
-1.312216429043663
 10
1.381180105464277
 20
-1.262601329520511
 10
1.381180105464277
 20
-1.238021371958571
 10
1.307440232778457
 20
-1.188406272435391
 10
1.307440232778457
 20
-1.225731393177587
 10
1.245990338873614
 20
-1.225731393177587
 10
1.245990338873614
 20
-1.176571478053706
 10
1.196830423749734
 20
-1.176571478053706
 10
1.196830423749734
 20
-1.225731393177587
1001
AcDbBlockRepETag
1070
     1
1071
       52
1005
196
  0
LINE
  5
197
330
158
100
AcDbEntity
  8
0
100
AcDbLine
 10
-0.1829207667885519
 20
-1.521146068320139
 30
0.0
 11
1.567892985449931
 21
-1.521146068320136
 31
0.0
1001
AcDbBlockRepETag
1070
     1
1071
       53
1005
197
  0
LINE
  5
198
330
158
100
AcDbEntity
  8
0
100
AcDbLine
 10
1.56789298544993
 20
-1.533436047101123
 30
0.0
 11
-0.1829207667885502
 21
-1.533436047101123
 31
0.0
1001
AcDbBlockRepETag
1070
     1
1071
       54
1005
198
  0
LINE
  5
199
330
158
100
AcDbEntity
  8
0
100
AcDbLine
 10
1.393470084245247
 20
-1.533436047101123
 30
0.0
 11
1.393470084245247
 21
-1.594885941005959
 31
0.0
1001
AcDbBlockRepETag
1070
     1
1071
       55
1005
199
  0
LINE
  5
19A
330
158
100
AcDbEntity
  8
0
100
AcDbLine
 10
1.393470084245247
 20
-1.594885941005959
 30
0.0
 11
1.492245098892293
 21
-1.594885941005959
 31
0.0
1001
AcDbBlockRepETag
1070
     1
1071
       56
1005
19A
  0
LINE
  5
19B
330
158
100
AcDbEntity
  8
0
100
AcDbLine
 10
1.492245098892293
 20
-1.594885941005959
 30
0.0
 11
1.492245098892293
 21
-1.533436047101123
 31
0.0
1001
AcDbBlockRepETag
1070
     1
1071
       57
1005
19B
  0
LINE
  5
19C
330
158
100
AcDbEntity
  8
0
100
AcDbLine
 10
-0.0084978655838448
 20
-1.533436047101123
 30
0.0
 11
-0.0084978655838448
 21
-1.594885941005959
 31
0.0
1001
AcDbBlockRepETag
1070
     1
1071
       58
1005
19C
  0
LINE
  5
19D
330
158
100
AcDbEntity
  8
0
100
AcDbLine
 10
-0.0084978655838448
 20
-1.594885941005959
 30
0.0
 11
-0.1072728802308944
 21
-1.594885941005959
 31
0.0
1001
AcDbBlockRepETag
1070
     1
1071
       59
1005
19D
  0
LINE
  5
19E
330
158
100
AcDbEntity
  8
0
100
AcDbLine
 10
-0.1072728802308944
 20
-1.594885941005959
 30
0.0
 11
-0.1072728802308944
 21
-1.533436047101123
 31
0.0
1001
AcDbBlockRepETag
1070
     1
1071
       60
1005
19E
  0
LWPOLYLINE
  5
19F
330
158
100
AcDbEntity
  8
0
100
AcDbPolyline
 90
        4
 70
     1
 43
0.0
 10
-0.082237738269658
 20
-2.111975418605273
 10
0.1266919010068186
 20
-2.111975418605273
 10
0.1266919010068186
 20
-2.013200403958212
 10
-0.082237738269658
 20
-2.013200403958212
1001
AcDbBlockRepETag
1070
     1
1071
       61
1005
19F
  0
LWPOLYLINE
  5
1A0
330
158
100
AcDbEntity
  8
0
100
AcDbPolyline
 90
        4
 70
     1
 43
0.0
 10
1.467209956931061
 20
-2.111975418605273
 10
1.258280317654584
 20
-2.111975418605273
 10
1.258280317654584
 20
-2.013200403958212
 10
1.467209956931061
 20
-2.013200403958212
1001
AcDbBlockRepETag
1070
     1
1071
       62
1005
1A0
  0
CIRCLE
  5
1A1
330
158
100
AcDbEntity
  8
0
100
AcDbCircle
 10
0.1266919010068186
 20
-1.810415754072228
 30
0.0
 40
0.1172099828185033
1001
AcDbBlockRepETag
1070
     1
1071
       63
1005
1A1
  0
CIRCLE
  5
1A2
330
158
100
AcDbEntity
  8
0
100
AcDbCircle
 10
0.5019914382256765
 20
-1.810415754072228
 30
0.0
 40
0.1172099828185033
1001
AcDbBlockRepETag
1070
     1
1071
       64
1005
1A2
  0
CIRCLE
  5
1A3
330
158
100
AcDbEntity
  8
0
100
AcDbCircle
 10
0.8768357910452415
 20
-1.810415754072228
 30
0.0
 40
0.1172099828185033
1001
AcDbBlockRepETag
1070
     1
1071
       65
1005
1A3
  0
CIRCLE
  5
1A4
330
158
100
AcDbEntity
  8
0
100
AcDbCircle
 10
1.252135328264099
 20
-1.810415754072228
 30
0.0
 40
0.1172099828185033
1001
AcDbBlockRepETag
1070
     1
1071
       66
1005
1A4
  0
LWPOLYLINE
  5
1A5
330
158
100
AcDbEntity
  8
0
100
AcDbPolyline
 90
       13
 70
     1
 43
0.0
 10
0.0652420071019719
 20
-1.79198078590078
 10
0.0652420071019719
 20
-1.828850722243676
 10
0.1144019222258485
 20
-1.828850722243676
 10
0.1144019222258485
 20
-1.902590594929496
 10
0.1389818797877886
 20
-1.902590594929496
 10
0.1389818797877886
 20
-1.828850722243676
 10
0.1881417949116653
 20
-1.828850722243676
 10
0.1881417949116653
 20
-1.79198078590078
 10
0.1389818797877886
 20
-1.79198078590078
 10
0.1389818797877886
 20
-1.71824091321496
 10
0.1144019222258485
 20
-1.71824091321496
 10
0.1144019222258485
 20
-1.79198078590078
 10
0.0652420071019719
 20
-1.79198078590078
1001
AcDbBlockRepETag
1070
     1
1071
       67
1005
1A5
  0
LWPOLYLINE
  5
1A6
330
158
100
AcDbEntity
  8
0
100
AcDbPolyline
 90
       13
 70
     1
 43
0.0
 10
0.4405415443208299
 20
-1.79198078590078
 10
0.4405415443208299
 20
-1.828850722243676
 10
0.4897014594447065
 20
-1.828850722243676
 10
0.4897014594447065
 20
-1.902590594929496
 10
0.5142814170066466
 20
-1.902590594929496
 10
0.5142814170066466
 20
-1.828850722243676
 10
0.5634413321305232
 20
-1.828850722243676
 10
0.5634413321305232
 20
-1.79198078590078
 10
0.5142814170066466
 20
-1.79198078590078
 10
0.5142814170066466
 20
-1.71824091321496
 10
0.4897014594447065
 20
-1.71824091321496
 10
0.4897014594447065
 20
-1.79198078590078
 10
0.4405415443208299
 20
-1.79198078590078
1001
AcDbBlockRepETag
1070
     1
1071
       68
1005
1A6
  0
LWPOLYLINE
  5
1A7
330
158
100
AcDbEntity
  8
0
100
AcDbPolyline
 90
       13
 70
     1
 43
0.0
 10
0.8153858971403913
 20
-1.79198078590078
 10
0.8153858971403913
 20
-1.828850722243676
 10
0.8645458122642715
 20
-1.828850722243676
 10
0.8645458122642715
 20
-1.902590594929496
 10
0.8891257698262116
 20
-1.902590594929496
 10
0.8891257698262116
 20
-1.828850722243676
 10
0.9382856849500846
 20
-1.828850722243676
 10
0.9382856849500846
 20
-1.79198078590078
 10
0.8891257698262116
 20
-1.79198078590078
 10
0.8891257698262116
 20
-1.71824091321496
 10
0.8645458122642715
 20
-1.71824091321496
 10
0.8645458122642715
 20
-1.79198078590078
 10
0.8153858971403913
 20
-1.79198078590078
1001
AcDbBlockRepETag
1070
     1
1071
       69
1005
1A7
  0
LWPOLYLINE
  5
1A8
330
158
100
AcDbEntity
  8
0
100
AcDbPolyline
 90
       13
 70
     1
 43
0.0
 10
1.190685434359249
 20
-1.79198078590078
 10
1.190685434359249
 20
-1.828850722243676
 10
1.239845349483129
 20
-1.828850722243676
 10
1.239845349483129
 20
-1.902590594929496
 10
1.264425307045069
 20
-1.902590594929496
 10
1.264425307045069
 20
-1.828850722243676
 10
1.313585222168942
 20
-1.828850722243676
 10
1.313585222168942
 20
-1.79198078590078
 10
1.264425307045069
 20
-1.79198078590078
 10
1.264425307045069
 20
-1.71824091321496
 10
1.239845349483129
 20
-1.71824091321496
 10
1.239845349483129
 20
-1.79198078590078
 10
1.190685434359249
 20
-1.79198078590078
1001
AcDbBlockRepETag
1070
     1
1071
       70
1005
1A8
  0
LWPOLYLINE
  5
1A9
330
158
100
AcDbEntity
  8
0
100
AcDbPolyline
 90
        4
 70
     1
 43
0.0
 10
0.3729466610254981
 20
-1.410536259291423
 10
0.5327163851781016
 20
-1.410536259291423
 10
0.5327163851781016
 20
-1.250311350739527
 10
0.3729466610254981
 20
-1.250311350739527
1001
AcDbBlockRepETag
1070
     1
1071
       71
1005
1A9
  0
CIRCLE
  5
1AA
330
158
100
AcDbEntity
  8
0
100
AcDbCircle
 10
0.1144019222258485
 20
-1.274891308301467
 30
0.0
 40
0.073739872685816
1001
AcDbBlockRepETag
1070
     1
1071
       72
1005
1AA
  0
CIRCLE
  5
1AB
330
158
100
AcDbEntity
  8
0
100
AcDbCircle
 10
0.1144019222258485
 20
-1.274891308301467
 30
0.0
 40
0.061449893904846
1001
AcDbBlockRepETag
1070
     1
1071
       73
1005
1AB
  0
LWPOLYLINE
  5
1AC
330
158
100
AcDbEntity
  8
0
100
AcDbPolyline
 90
       13
 70
     1
 43
0.0
 10
0.073459756120922
 20
-1.262608658470004
 10
0.073459756120922
 20
-1.287173958132957
 10
0.1062134890048618
 20
-1.287173958132957
 10
0.1062134890048618
 20
-1.336304557458864
 10
0.1225903554468353
 20
-1.336304557458864
 10
0.1225903554468353
 20
-1.287173958132957
 10
0.1553440883307751
 20
-1.287173958132957
 10
0.1553440883307751
 20
-1.262608658470004
 10
0.1225903554468353
 20
-1.262608658470004
 10
0.1225903554468353
 20
-1.21347805914407
 10
0.1062134890048618
 20
-1.21347805914407
 10
0.1062134890048618
 20
-1.262608658470004
 10
0.073459756120922
 20
-1.262608658470004
1001
AcDbBlockRepETag
1070
     1
1071
       74
1005
1AC
  0
LINE
  5
1AD
330
158
100
AcDbEntity
  8
0
100
AcDbLine
 10
1.221410381311674
 20
-0.9676418387772303
 30
0.0
 11
1.221410381311674
 21
-0.7336770575395138
 31
0.0
1001
AcDbBlockRepETag
1070
     1
1071
       75
1005
1AD
  0
LWPOLYLINE
  5
1AE
330
158
100
AcDbEntity
  8
0
100
AcDbPolyline
 90
        4
 70
     1
 43
0.0
 10
1.184540444968764
 20
-0.9676418387772303
 10
1.258280317654584
 20
-0.9676418387772303
 10
1.258280317654584
 20
-0.7336770575395138
 10
1.184540444968764
 20
-0.7336770575395138
1001
AcDbBlockRepETag
1070
     1
1071
       76
1005
1AE
  0
LINE
  5
1AF
330
158
100
AcDbEntity
  8
0
100
AcDbLine
 10
1.567892985449921
 20
-2.148845354948165
 30
0.0
 11
-0.1829207667885519
 21
-2.148845354948165
 31
0.0
1001
AcDbBlockRepETag
1070
     1
1071
       77
1005
1AF
  0
TEXT
  5
1B0
330
158
100
AcDbEntity
  8
0
100
AcDbText
 10
-0.0076360963147817
 20
-2.692064345101838
 30
0.0
 40
0.0983210632
  1
2
100
AcDbText
1001
AcDbBlockRepETag
1070
     1
1071
       78
1005
1B0
  0
TEXT
  5
1B1
330
158
100
AcDbEntity
  8
0
100
AcDbText
 10
0.1821788322663416
 20
-2.692064345101838
 30
0.0
 40
0.0983210632
  1
T1
100
AcDbText
1001
AcDbBlockRepETag
1070
     1
1071
       79
1005
1B1
  0
TEXT
  5
1B2
330
158
100
AcDbEntity
  8
0
100
AcDbText
 10
0.5424936864954671
 20
-2.692064345101838
 30
0.0
 40
0.0983210632
  1
4
100
AcDbText
1001
AcDbBlockRepETag
1070
     1
1071
       80
1005
1B2
  0
TEXT
  5
1B3
330
158
100
AcDbEntity
  8
0
100
AcDbText
 10
0.7323086150765903
 20
-2.692064345101838
 30
0.0
 40
0.0983210632
  1
T2
100
AcDbText
1001
AcDbBlockRepETag
1070
     1
1071
       81
1005
1B3
  0
TEXT
  5
1B4
330
158
100
AcDbEntity
  8
0
100
AcDbText
 10
1.092623469305715
 20
-2.692064345101838
 30
0.0
 40
0.0983210632
  1
6
100
AcDbText
1001
AcDbBlockRepETag
1070
     1
1071
       82
1005
1B4
  0
TEXT
  5
1B5
330
158
100
AcDbEntity
  8
0
100
AcDbText
 10
1.282438397886838
 20
-2.692064345101838
 30
0.0
 40
0.0983210632
  1
T3
100
AcDbText
1001
AcDbBlockRepETag
1070
     1
1071
       83
1005
1B5
  0
CIRCLE
  5
1B6
330
158
100
AcDbEntity
  8
0
100
AcDbCircle
 10
0.692486109330698
 20
-2.39366837284725
 30
0.0
 40
0.147934929770927
1001
AcDbBlockRepETag
1070
     1
1071
       84
1005
1B6
  0
LWPOLYLINE
  5
1B7
330
158
100
AcDbEntity
  8
0
100
AcDbPolyline
 90
       13
 70
     1
 43
0.0
 10
0.6740511411592483
 20
-2.4551182667521
 10
0.7109210775021442
 20
-2.4551182667521
 10
0.7109210775021442
 20
-2.40595835162822
 10
0.7846609501879645
 20
-2.40595835162822
 10
0.7846609501879645
 20
-2.38137839406628
 10
0.7109210775021442
 20
-2.38137839406628
 10
0.7109210775021442
 20
-2.332218478942407
 10
0.6740511411592483
 20
-2.332218478942407
 10
0.6740511411592483
 20
-2.38137839406628
 10
0.600311268473428
 20
-2.38137839406628
 10
0.600311268473428
 20
-2.40595835162822
 10
0.6740511411592483
 20
-2.40595835162822
 10
0.6740511411592483
 20
-2.4551182667521
1001
AcDbBlockRepETag
1070
     1
1071
       85
1005
1B7
  0
CIRCLE
  5
1B8
330
158
100
AcDbEntity
  8
0
100
AcDbCircle
 10
1.242615892140948
 20
-2.39366837284725
 30
0.0
 40
0.147934929770927
1001
AcDbBlockRepETag
1070
     1
1071
       86
1005
1B8
  0
LWPOLYLINE
  5
1B9
330
158
100
AcDbEntity
  8
0
100
AcDbPolyline
 90
       13
 70
     1
 43
0.0
 10
1.224180923969498
 20
-2.4551182667521
 10
1.261050860312394
 20
-2.4551182667521
 10
1.261050860312394
 20
-2.40595835162822
 10
1.334790732998214
 20
-2.40595835162822
 10
1.334790732998214
 20
-2.38137839406628
 10
1.261050860312394
 20
-2.38137839406628
 10
1.261050860312394
 20
-2.332218478942407
 10
1.224180923969498
 20
-2.332218478942407
 10
1.224180923969498
 20
-2.38137839406628
 10
1.150441051283678
 20
-2.38137839406628
 10
1.150441051283678
 20
-2.40595835162822
 10
1.224180923969498
 20
-2.40595835162822
 10
1.224180923969498
 20
-2.4551182667521
1001
AcDbBlockRepETag
1070
     1
1071
       87
1005
1B9
  0
CIRCLE
  5
1BA
330
158
100
AcDbEntity
  8
0
100
AcDbCircle
 10
0.1423563265204475
 20
-2.39366837284725
 30
0.0
 40
0.147934929770927
1001
AcDbBlockRepETag
1070
     1
1071
       88
1005
1BA
  0
LWPOLYLINE
  5
1BB
330
158
100
AcDbEntity
  8
0
100
AcDbPolyline
 90
       13
 70
     1
 43
0.0
 10
0.1607912946918972
 20
-2.4551182667521
 10
0.1239213583490013
 20
-2.4551182667521
 10
0.1239213583490013
 20
-2.40595835162822
 10
0.050181485663181
 20
-2.40595835162822
 10
0.050181485663181
 20
-2.38137839406628
 10
0.1239213583490013
 20
-2.38137839406628
 10
0.1239213583490013
 20
-2.332218478942407
 10
0.1607912946918972
 20
-2.332218478942407
 10
0.1607912946918972
 20
-2.38137839406628
 10
0.2345311673777175
 20
-2.38137839406628
 10
0.2345311673777175
 20
-2.40595835162822
 10
0.1607912946918972
 20
-2.40595835162822
 10
0.1607912946918972
 20
-2.4551182667521
1001
AcDbBlockRepETag
1070
     1
1071
       89
1005
1BB
  0
TEXT
  5
1BC
330
158
100
AcDbEntity
  8
SS-A
 62
     4
100
AcDbText
 10
-0.147593784038827
 20
-0.5531148782019115
 30
0.0
 40
0.1422194935674756
  1
CEP7-E__B
 41
0.65
  7
SIMPLEX
 72
     4
 11
0.2661972186741615
 21
-0.48877748825472
 31
0.0
100
AcDbText
1001
AcDbBlockRepETag
1070
     1
1071
       90
1005
1BC
  0
POINT
  5
1BD
330
158
100
AcDbEntity
  8
0
 62
     1
100
AcDbPoint
 10
0.0
 20
0.0
 30
0.0
1001
AcDbBlockRepETag
1070
     1
1071
       91
1005
1BD
  0
LINE
  5
1BE
330
158
100
AcDbEntity
  8
0
100
AcDbLine
 10
-0.1516707667885504
 20
-0.3087597747702953
 30
0.0
 11
-0.1516707667885502
 21
0.0410110755649837
 31
0.0
1001
AcDbBlockRepETag
1070
     1
1071
       92
1005
1BE
  0
ENDBLK
  5
1BF
330
158
100
AcDbEntity
  8
0
 62
     1
100
AcDbBlockEnd
  0
BLOCK
  5
1C6
330
1C3
100
AcDbEntity
  8
0
100
AcDbBlockBegin
  2
*U2
 70
     1
 10
0.0
 20
0.0
 30
0.0
  3
*U2
  1

  0
LINE
  5
1C7
330
1C3
100
AcDbEntity
  8
0
 60
     1
100
AcDbLine
 10
1.000617572721301
 20
0.0410110755649837
 30
0.0
 11
1.000617572721301
 21
0.4745505749301407
 31
0.0
1001
AcDbBlockRepETag
1070
     1
1071
        0
1005
1C7
  0
LINE
  5
1C8
330
1C3
100
AcDbEntity
  8
0
 60
     1
100
AcDbLine
 10
1.000617572721301
 20
0.4745505749301407
 30
0.0
 11
0.9339945536098195
 21
0.4745505749301407
 31
0.0
1001
AcDbBlockRepETag
1070
     1
1071
        1
1005
1C8
  0
LINE
  5
1C9
330
1C3
100
AcDbEntity
  8
0
 60
     1
100
AcDbLine
 10
0.5675679484966701
 20
0.4745505749301407
 30
0.0
 11
0.5004550542446627
 21
0.4745505749301407
 31
0.0
1001
AcDbBlockRepETag
1070
     1
1071
        2
1005
1C9
  0
LINE
  5
1CA
330
1C3
100
AcDbEntity
  8
0
100
AcDbLine
 10
1.517435845975809
 20
-0.3087597747702953
 30
0.0
 11
1.517435845975809
 21
-0.0755792078801116
 31
0.0
1001
AcDbBlockRepETag
1070
     1
1071
        3
1005
1CA
  0
LINE
  5
1CB
330
1C3
100
AcDbEntity
  8
0
100
AcDbLine
 10
0.3005859969102183
 20
-0.0755792078801116
 30
0.0
 11
0.2506187325766085
 21
-0.0755792078801116
 31
0.0
1001
AcDbBlockRepETag
1070
     1
1071
        4
1005
1CB
  0
LINE
  5
1CC
330
1C3
100
AcDbEntity
  8
0
100
AcDbLine
 10
1.300911033863494
 20
-0.2921040199924265
 30
0.0
 11
1.417501317308586
 21
-0.2921040199924265
 31
0.0
1001
AcDbBlockRepETag
1070
     1
1071
        5
1005
1CC
  0
LINE
  5
1CD
330
1C3
100
AcDbEntity
  8
0
100
AcDbLine
 10
1.417501317308586
 20
-0.2921040199924265
 30
0.0
 11
1.417501317308586
 21
-0.1422022269915937
 31
0.0
1001
AcDbBlockRepETag
1070
     1
1071
        6
1005
1CD
  0
LINE
  5
1CE
330
1C3
100
AcDbEntity
  8
0
100
AcDbLine
 10
1.417501317308586
 20
-0.1422022269915937
 30
0.0
 11
1.300911033863494
 21
-0.1422022269915937
 31
0.0
1001
AcDbBlockRepETag
1070
     1
1071
        7
1005
1CE
  0
LINE
  5
1CF
330
1C3
100
AcDbEntity
  8
0
100
AcDbLine
 10
1.300911033863494
 20
-0.3592169142444321
 30
0.0
 11
1.300911033863494
 21
-0.0755792078801081
 31
0.0
1001
AcDbBlockRepETag
1070
     1
1071
        8
1005
1CF
  0
LINE
  5
1D0
330
1C3
100
AcDbEntity
  8
0
100
AcDbLine
 10
0.2506187325766067
 20
-0.3087597747702953
 30
0.0
 11
0.2506187325766085
 21
-0.0755792078801116
 31
0.0
1001
AcDbBlockRepETag
1070
     1
1071
        9
1005
1D0
  0
LINE
  5
1D1
330
1C3
100
AcDbEntity
  8
0
100
AcDbLine
 10
0.3005859969102183
 20
-0.2088252461030757
 30
0.0
 11
0.3005859969102183
 21
-0.0755792078801116
 31
0.0
1001
AcDbBlockRepETag
1070
     1
1071
       10
1005
1D1
  0
LINE
  5
1D2
330
1C3
100
AcDbEntity
  8
0
100
AcDbLine
 10
0.4504877899110511
 20
-0.2088252461030757
 30
0.0
 11
0.3005859969102183
 21
-0.2088252461030757
 31
0.0
1001
AcDbBlockRepETag
1070
     1
1071
       11
1005
1D2
  0
LINE
  5
1D3
330
1C3
100
AcDbEntity
  8
0
100
AcDbLine
 10
1.517435845975809
 20
-0.0755792078801116
 30
0.0
 11
1.034418957417567
 21
-0.0755792078801116
 31
0.0
1001
AcDbBlockRepETag
1070
     1
1071
       12
1005
1D3
  0
LINE
  5
1D4
330
1C3
100
AcDbEntity
  8
0
100
AcDbLine
 10
0.3005859969102183
 20
-0.3087597747702953
 30
0.0
 11
0.3005859969102183
 21
-0.2587925104366855
 31
0.0
1001
AcDbBlockRepETag
1070
     1
1071
       13
1005
1D4
  0
LINE
  5
1D5
330
1C3
100
AcDbEntity
  8
0
100
AcDbLine
 10
0.3005859969102183
 20
-0.2587925104366855
 30
0.0
 11
0.4504877899110511
 21
-0.2587925104366819
 31
0.0
1001
AcDbBlockRepETag
1070
     1
1071
       14
1005
1D5
  0
LINE
  5
1D6
330
1C3
100
AcDbEntity
  8
0
100
AcDbLine
 10
0.4504877899110511
 20
-0.3087597747702953
 30
0.0
 11
0.4504877899110529
 21
0.0410110755649837
 31
0.0
1001
AcDbBlockRepETag
1070
     1
1071
       15
1005
1D6
  0
LINE
  5
1D7
330
1C3
100
AcDbEntity
  8
0
100
AcDbLine
 10
0.6008794580524111
 20
0.0410110755649837
 30
0.0
 11
0.4504877899110529
 21
0.0410110755649837
 31
0.0
1001
AcDbBlockRepETag
1070
     1
1071
       16
1005
1D7
  0
LINE
  5
1D8
330
1C3
100
AcDbEntity
  8
0
100
AcDbLine
 10
0.6175352128302816
 20
-0.3087597747702953
 30
0.0
 11
0.6175352128302816
 21
-0.0922349626579768
 31
0.0
1001
AcDbBlockRepETag
1070
     1
1071
       17
1005
1D8
  0
LINE
  5
1D9
330
1C3
100
AcDbEntity
  8
0
100
AcDbLine
 10
0.6008794580524129
 20
-0.0922349626579768
 30
0.0
 11
0.6175352128302816
 21
-0.0922349626579768
 31
0.0
1001
AcDbBlockRepETag
1070
     1
1071
       18
1005
1D9
  0
LINE
  5
1DA
330
1C3
100
AcDbEntity
  8
0
100
AcDbLine
 10
0.6008794580524111
 20
0.0410110755649837
 30
0.0
 11
0.6008794580524129
 21
-0.0922349626579768
 31
0.0
1001
AcDbBlockRepETag
1070
     1
1071
       19
1005
1DA
  0
LINE
  5
1DB
330
1C3
100
AcDbEntity
  8
0
100
AcDbLine
 10
0.8840272892762079
 20
-0.2088252461030757
 30
0.0
 11
0.6175352128302816
 21
-0.2088252461030722
 31
0.0
1001
AcDbBlockRepETag
1070
     1
1071
       20
1005
1DB
  0
LINE
  5
1DC
330
1C3
100
AcDbEntity
  8
0
100
AcDbLine
 10
0.6175352128302816
 20
-0.258792510436689
 30
0.0
 11
0.8840272892762079
 21
-0.2587925104366784
 31
0.0
1001
AcDbBlockRepETag
1070
     1
1071
       21
1005
1DC
  0
LINE
  5
1DD
330
1C3
100
AcDbEntity
  8
0
100
AcDbLine
 10
0.8840272892762079
 20
-0.3592169142444321
 30
0.0
 11
0.8840272892762079
 21
0.0410110755649802
 31
0.0
1001
AcDbBlockRepETag
1070
     1
1071
       22
1005
1DD
  0
LINE
  5
1DE
330
1C3
100
AcDbEntity
  8
0
100
AcDbLine
 10
1.051074712195438
 20
-0.3592169142444321
 30
0.0
 11
1.051074712195442
 21
-0.0922349626579839
 31
0.0
1001
AcDbBlockRepETag
1070
     1
1071
       23
1005
1DE
  0
LINE
  5
1DF
330
1C3
100
AcDbEntity
  8
0
100
AcDbLine
 10
1.034418957417567
 20
-0.0922349626579839
 30
0.0
 11
1.051074712195442
 21
-0.0922349626579839
 31
0.0
1001
AcDbBlockRepETag
1070
     1
1071
       24
1005
1DF
  0
LINE
  5
1E0
330
1C3
100
AcDbEntity
  8
0
100
AcDbLine
 10
1.034418957417567
 20
-0.0922349626579839
 30
0.0
 11
1.034418957417567
 21
0.0410110755649873
 31
0.0
1001
AcDbBlockRepETag
1070
     1
1071
       25
1005
1E0
  0
LINE
  5
1E1
330
1C3
100
AcDbEntity
  8
0
100
AcDbLine
 10
1.034418957417567
 20
0.0410110755649873
 30
0.0
 11
0.8840272892762079
 21
0.0410110755649802
 31
0.0
1001
AcDbBlockRepETag
1070
     1
1071
       26
1005
1E1
  0
LINE
  5
1E2
330
1C3
100
AcDbEntity
  8
0
100
AcDbLine
 10
1.450812826864327
 20
-0.3592169142444321
 30
0.0
 11
1.450812826864327
 21
-0.3087597747702953
 31
0.0
1001
AcDbBlockRepETag
1070
     1
1071
       27
1005
1E2
  0
LINE
  5
1E3
330
1C3
100
AcDbEntity
  8
0
100
AcDbLine
 10
1.450812826864327
 20
-0.3087597747702953
 30
0.0
 11
1.567892985449947
 21
-0.3087597747702953
 31
0.0
1001
AcDbBlockRepETag
1070
     1
1071
       28
1005
1E3
  0
LINE
  5
1E4
330
1C3
100
AcDbEntity
  8
0
100
AcDbLine
 10
1.567892985449947
 20
-0.3087597747702953
 30
0.0
 11
1.567892985449912
 21
-2.793406487516141
 31
0.0
1001
AcDbBlockRepETag
1070
     1
1071
       29
1005
1E4
  0
LWPOLYLINE
  5
1E5
330
1C3
100
AcDbEntity
  8
0
100
AcDbPolyline
 90
        8
 70
     1
 43
0.0
 10
0.7674370058311144
 20
-0.6590205002461014
 10
1.450812826864327
 20
-0.6590205002461014
 10
1.450812826864327
 20
-0.3592169142444321
 10
0.7674370058311144
 20
-0.3592169142444321
 10
0.7674370058311144
 20
-0.4258399333559142
 10
0.7174697414975047
 20
-0.4258399333559142
 10
0.7174697414975047
 20
-0.6090532359124881
 10
0.7674370058311144
 20
-0.6090532359124881
1001
AcDbBlockRepETag
1070
     1
1071
       30
1005
1E5
  0
LINE
  5
1E6
330
1C3
100
AcDbEntity
  8
0
100
AcDbLine
 10
0.7674370058311144
 20
-0.3592169142444321
 30
0.0
 11
0.7674370058311127
 21
-0.3087597747702953
 31
0.0
1001
AcDbBlockRepETag
1070
     1
1071
       31
1005
1E6
  0
LINE
  5
1E7
330
1C3
100
AcDbEntity
  8
0
100
AcDbLine
 10
-0.1829207667885502
 20
-0.3087597747702953
 30
0.0
 11
0.7674370058311127
 21
-0.3087597747702953
 31
0.0
1001
AcDbBlockRepETag
1070
     1
1071
       32
1005
1E7
  0
LINE
  5
1E8
330
1C3
100
AcDbEntity
  8
0
 60
     1
100
AcDbLine
 10
0.5675679484966701
 20
0.4745505749301407
 30
0.0
 11
0.5675679484966736
 21
0.0410110755649837
 31
0.0
1001
AcDbBlockRepETag
1070
     1
1071
       33
1005
1E8
  0
LINE
  5
1E9
330
1C3
100
AcDbEntity
  8
0
 60
     1
100
AcDbLine
 10
0.5004550542446627
 20
0.4745505749301407
 30
0.0
 11
0.5004550542446627
 21
0.0410110755649837
 31
0.0
1001
AcDbBlockRepETag
1070
     1
1071
       34
1005
1E9
  0
LINE
  5
1EA
330
1C3
100
AcDbEntity
  8
0
 60
     1
100
AcDbLine
 10
0.9339945536098195
 20
0.4745505749301407
 30
0.0
 11
0.9339945536098195
 21
0.0410110755649802
 31
0.0
1001
AcDbBlockRepETag
1070
     1
1071
       35
1005
1EA
  0
LINE
  5
1EB
330
1C3
100
AcDbEntity
  8
0
100
AcDbLine
 10
-0.0017689737877156
 20
-0.3087597747702953
 30
0.0
 11
-0.0017689737877156
 21
0.0410110755649837
 31
0.0
1001
AcDbBlockRepETag
1070
     1
1071
       36
1005
1EB
  0
LINE
  5
1EC
330
1C3
100
AcDbEntity
  8
0
100
AcDbLine
 10
-0.0017689737877156
 20
0.0410110755649837
 30
0.0
 11
-0.1516707667885502
 21
0.0410110755649837
 31
0.0
1001
AcDbBlockRepETag
1070
     1
1071
       37
1005
1EC
  0
LINE
  5
1ED
330
1C3
100
AcDbEntity
  8
0
100
AcDbLine
 10
-0.1829207667885519
 20
-2.793406487516143
 30
0.0
 11
-0.1829207667885504
 21
-0.3087597747702953
 31
0.0
1001
AcDbBlockRepETag
1070
     1
1071
       38
1005
1ED
  0
LINE
  5
1EE
330
1C3
100
AcDbEntity
  8
0
 60
     1
100
AcDbLine
 10
-0.1183592572328092
 20
0.4745505749301407
 30
0.0
 11
-0.0350804833434566
 21
0.4745505749301407
 31
0.0
1001
AcDbBlockRepETag
1070
     1
1071
       39
1005
1EE
  0
LINE
  5
1EF
330
1C3
100
AcDbEntity
  8
0
 60
     1
100
AcDbLine
 10
-0.0350804833434566
 20
0.4745505749301407
 30
0.0
 11
-0.0350804833434548
 21
0.0410110755649837
 31
0.0
1001
AcDbBlockRepETag
1070
     1
1071
       40
1005
1EF
  0
LINE
  5
1F0
330
1C3
100
AcDbEntity
  8
0
 60
     1
100
AcDbLine
 10
-0.1183592572328092
 20
0.4745505749301407
 30
0.0
 11
-0.1183592572328092
 21
0.0410110755649837
 31
0.0
1001
AcDbBlockRepETag
1070
     1
1071
       41
1005
1F0
  0
LINE
  5
1F1
330
1C3
100
AcDbEntity
  8
0
100
AcDbLine
 10
-0.1829207667885502
 20
-2.710127713626786
 30
0.0
 11
1.567892985449946
 21
-2.710127713626786
 31
0.0
1001
AcDbBlockRepETag
1070
     1
1071
       42
1005
1F1
  0
LINE
  5
1F2
330
1C3
100
AcDbEntity
  8
0
100
AcDbLine
 10
1.567892985449946
 20
-2.793406487516141
 30
0.0
 11
-0.1829207667885502
 21
-2.793406487516141
 31
0.0
1001
AcDbBlockRepETag
1070
     1
1071
       43
1005
1F2
  0
LWPOLYLINE
  5
1F3
330
1C3
100
AcDbEntity
  8
0
100
AcDbPolyline
 90
        4
 70
     1
 43
0.0
 10
0.4005205255774414
 20
-2.793406487516141
 10
0.4338320351331806
 20
-2.793406487516141
 10
0.4338320351331806
 20
-2.893830891323887
 10
0.4005205255774414
 20
-2.893830891323887
1001
AcDbBlockRepETag
1070
     1
1071
       44
1005
1F3
  0
LWPOLYLINE
  5
1F4
330
1C3
100
AcDbEntity
  8
0
100
AcDbPolyline
 90
        4
 70
     1
 43
0.0
 10
0.95065030838769
 20
-2.793406487516141
 10
0.9839618179434292
 20
-2.793406487516141
 10
0.9839618179434292
 20
-2.893830891323887
 10
0.95065030838769
 20
-2.893830891323887
1001
AcDbBlockRepETag
1070
     1
1071
       45
1005
1F4
  0
CIRCLE
  5
1F5
330
1C3
100
AcDbEntity
  8
0
100
AcDbCircle
 10
0.5450063639590717
 20
-0.9676418387772303
 30
0.0
 40
0.1356449509899573
1001
AcDbBlockRepETag
1070
     1
1071
       46
1005
1F5
  0
CIRCLE
  5
1F6
330
1C3
100
AcDbEntity
  8
0
100
AcDbCircle
 10
0.5450063639590717
 20
-0.9676418387772303
 30
0.0
 40
0.1966396604955086
1001
AcDbBlockRepETag
1070
     1
1071
       47
1005
1F6
  0
LWPOLYLINE
  5
1F7
330
1C3
100
AcDbEntity
  8
0
100
AcDbPolyline
 90
        4
 70
     1
 43
0.0
 10
0.0037921131971252
 20
-1.164281499272751
 10
0.1881417949116653
 20
-1.164281499272751
 10
0.1881417949116653
 20
-0.8442868665682583
 10
0.0037921131971252
 20
-0.8442868665682583
1001
AcDbBlockRepETag
1070
     1
1071
       48
1005
1F7
  0
LWPOLYLINE
  5
1F8
330
1C3
100
AcDbEntity
  8
0
100
AcDbPolyline
 90
        4
 70
     1
 43
0.0
 10
0.0160820919780953
 20
-1.151991520491766
 10
0.1758518161306952
 20
-1.151991520491766
 10
0.1758518161306952
 20
-0.8565768453492141
 10
0.0160820919780953
 20
-0.8565768453492141
1001
AcDbBlockRepETag
1070
     1
1071
       49
1005
1F8
  0
CIRCLE
  5
1F9
330
1C3
100
AcDbEntity
  8
0
100
AcDbCircle
 10
1.221410381311674
 20
-1.250311350739527
 30
0.0
 40
0.1720597029335703
1001
AcDbBlockRepETag
1070
     1
1071
       50
1005
1F9
  0
CIRCLE
  5
1FA
330
1C3
100
AcDbEntity
  8
0
100
AcDbCircle
 10
1.221410381311674
 20
-1.250311350739527
 30
0.0
 40
0.1597697241526006
1001
AcDbBlockRepETag
1070
     1
1071
       51
1005
1FA
  0
LWPOLYLINE
  5
1FB
330
1C3
100
AcDbEntity
  8
0
100
AcDbPolyline
 90
       16
 70
     1
 43
0.0
 10
1.09851059350198
 20
-1.225731393177587
 10
1.09851059350198
 20
-1.274891308301467
 10
1.196830423749734
 20
-1.274891308301467
 10
1.196830423749734
 20
-1.324506407824647
 10
1.245990338873614
 20
-1.324506407824647
 10
1.245990338873614
 20
-1.274891308301467
 10
1.307440232778457
 20
-1.274891308301467
 10
1.307440232778457
 20
-1.312216429043663
 10
1.381180105464277
 20
-1.262601329520511
 10
1.381180105464277
 20
-1.238021371958571
 10
1.307440232778457
 20
-1.188406272435391
 10
1.307440232778457
 20
-1.225731393177587
 10
1.245990338873614
 20
-1.225731393177587
 10
1.245990338873614
 20
-1.176571478053706
 10
1.196830423749734
 20
-1.176571478053706
 10
1.196830423749734
 20
-1.225731393177587
1001
AcDbBlockRepETag
1070
     1
1071
       52
1005
1FB
  0
LINE
  5
1FC
330
1C3
100
AcDbEntity
  8
0
100
AcDbLine
 10
-0.1829207667885519
 20
-1.521146068320139
 30
0.0
 11
1.567892985449931
 21
-1.521146068320136
 31
0.0
1001
AcDbBlockRepETag
1070
     1
1071
       53
1005
1FC
  0
LINE
  5
1FD
330
1C3
100
AcDbEntity
  8
0
100
AcDbLine
 10
1.56789298544993
 20
-1.533436047101123
 30
0.0
 11
-0.1829207667885502
 21
-1.533436047101123
 31
0.0
1001
AcDbBlockRepETag
1070
     1
1071
       54
1005
1FD
  0
LINE
  5
1FE
330
1C3
100
AcDbEntity
  8
0
100
AcDbLine
 10
1.393470084245247
 20
-1.533436047101123
 30
0.0
 11
1.393470084245247
 21
-1.594885941005959
 31
0.0
1001
AcDbBlockRepETag
1070
     1
1071
       55
1005
1FE
  0
LINE
  5
1FF
330
1C3
100
AcDbEntity
  8
0
100
AcDbLine
 10
1.393470084245247
 20
-1.594885941005959
 30
0.0
 11
1.492245098892293
 21
-1.594885941005959
 31
0.0
1001
AcDbBlockRepETag
1070
     1
1071
       56
1005
1FF
  0
LINE
  5
200
330
1C3
100
AcDbEntity
  8
0
100
AcDbLine
 10
1.492245098892293
 20
-1.594885941005959
 30
0.0
 11
1.492245098892293
 21
-1.533436047101123
 31
0.0
1001
AcDbBlockRepETag
1070
     1
1071
       57
1005
200
  0
LINE
  5
201
330
1C3
100
AcDbEntity
  8
0
100
AcDbLine
 10
-0.0084978655838448
 20
-1.533436047101123
 30
0.0
 11
-0.0084978655838448
 21
-1.594885941005959
 31
0.0
1001
AcDbBlockRepETag
1070
     1
1071
       58
1005
201
  0
LINE
  5
202
330
1C3
100
AcDbEntity
  8
0
100
AcDbLine
 10
-0.0084978655838448
 20
-1.594885941005959
 30
0.0
 11
-0.1072728802308944
 21
-1.594885941005959
 31
0.0
1001
AcDbBlockRepETag
1070
     1
1071
       59
1005
202
  0
LINE
  5
203
330
1C3
100
AcDbEntity
  8
0
100
AcDbLine
 10
-0.1072728802308944
 20
-1.594885941005959
 30
0.0
 11
-0.1072728802308944
 21
-1.533436047101123
 31
0.0
1001
AcDbBlockRepETag
1070
     1
1071
       60
1005
203
  0
LWPOLYLINE
  5
204
330
1C3
100
AcDbEntity
  8
0
100
AcDbPolyline
 90
        4
 70
     1
 43
0.0
 10
-0.082237738269658
 20
-2.111975418605273
 10
0.1266919010068186
 20
-2.111975418605273
 10
0.1266919010068186
 20
-2.013200403958212
 10
-0.082237738269658
 20
-2.013200403958212
1001
AcDbBlockRepETag
1070
     1
1071
       61
1005
204
  0
LWPOLYLINE
  5
205
330
1C3
100
AcDbEntity
  8
0
100
AcDbPolyline
 90
        4
 70
     1
 43
0.0
 10
1.467209956931061
 20
-2.111975418605273
 10
1.258280317654584
 20
-2.111975418605273
 10
1.258280317654584
 20
-2.013200403958212
 10
1.467209956931061
 20
-2.013200403958212
1001
AcDbBlockRepETag
1070
     1
1071
       62
1005
205
  0
CIRCLE
  5
206
330
1C3
100
AcDbEntity
  8
0
100
AcDbCircle
 10
0.1266919010068186
 20
-1.810415754072228
 30
0.0
 40
0.1172099828185033
1001
AcDbBlockRepETag
1070
     1
1071
       63
1005
206
  0
CIRCLE
  5
207
330
1C3
100
AcDbEntity
  8
0
100
AcDbCircle
 10
0.5019914382256765
 20
-1.810415754072228
 30
0.0
 40
0.1172099828185033
1001
AcDbBlockRepETag
1070
     1
1071
       64
1005
207
  0
CIRCLE
  5
208
330
1C3
100
AcDbEntity
  8
0
100
AcDbCircle
 10
0.8768357910452415
 20
-1.810415754072228
 30
0.0
 40
0.1172099828185033
1001
AcDbBlockRepETag
1070
     1
1071
       65
1005
208
  0
CIRCLE
  5
209
330
1C3
100
AcDbEntity
  8
0
100
AcDbCircle
 10
1.252135328264099
 20
-1.810415754072228
 30
0.0
 40
0.1172099828185033
1001
AcDbBlockRepETag
1070
     1
1071
       66
1005
209
  0
LWPOLYLINE
  5
20A
330
1C3
100
AcDbEntity
  8
0
100
AcDbPolyline
 90
       13
 70
     1
 43
0.0
 10
0.0652420071019719
 20
-1.79198078590078
 10
0.0652420071019719
 20
-1.828850722243676
 10
0.1144019222258485
 20
-1.828850722243676
 10
0.1144019222258485
 20
-1.902590594929496
 10
0.1389818797877886
 20
-1.902590594929496
 10
0.1389818797877886
 20
-1.828850722243676
 10
0.1881417949116653
 20
-1.828850722243676
 10
0.1881417949116653
 20
-1.79198078590078
 10
0.1389818797877886
 20
-1.79198078590078
 10
0.1389818797877886
 20
-1.71824091321496
 10
0.1144019222258485
 20
-1.71824091321496
 10
0.1144019222258485
 20
-1.79198078590078
 10
0.0652420071019719
 20
-1.79198078590078
1001
AcDbBlockRepETag
1070
     1
1071
       67
1005
20A
  0
LWPOLYLINE
  5
20B
330
1C3
100
AcDbEntity
  8
0
100
AcDbPolyline
 90
       13
 70
     1
 43
0.0
 10
0.4405415443208299
 20
-1.79198078590078
 10
0.4405415443208299
 20
-1.828850722243676
 10
0.4897014594447065
 20
-1.828850722243676
 10
0.4897014594447065
 20
-1.902590594929496
 10
0.5142814170066466
 20
-1.902590594929496
 10
0.5142814170066466
 20
-1.828850722243676
 10
0.5634413321305232
 20
-1.828850722243676
 10
0.5634413321305232
 20
-1.79198078590078
 10
0.5142814170066466
 20
-1.79198078590078
 10
0.5142814170066466
 20
-1.71824091321496
 10
0.4897014594447065
 20
-1.71824091321496
 10
0.4897014594447065
 20
-1.79198078590078
 10
0.4405415443208299
 20
-1.79198078590078
1001
AcDbBlockRepETag
1070
     1
1071
       68
1005
20B
  0
LWPOLYLINE
  5
20C
330
1C3
100
AcDbEntity
  8
0
100
AcDbPolyline
 90
       13
 70
     1
 43
0.0
 10
0.8153858971403913
 20
-1.79198078590078
 10
0.8153858971403913
 20
-1.828850722243676
 10
0.8645458122642715
 20
-1.828850722243676
 10
0.8645458122642715
 20
-1.902590594929496
 10
0.8891257698262116
 20
-1.902590594929496
 10
0.8891257698262116
 20
-1.828850722243676
 10
0.9382856849500846
 20
-1.828850722243676
 10
0.9382856849500846
 20
-1.79198078590078
 10
0.8891257698262116
 20
-1.79198078590078
 10
0.8891257698262116
 20
-1.71824091321496
 10
0.8645458122642715
 20
-1.71824091321496
 10
0.8645458122642715
 20
-1.79198078590078
 10
0.8153858971403913
 20
-1.79198078590078
1001
AcDbBlockRepETag
1070
     1
1071
       69
1005
20C
  0
LWPOLYLINE
  5
20D
330
1C3
100
AcDbEntity
  8
0
100
AcDbPolyline
 90
       13
 70
     1
 43
0.0
 10
1.190685434359249
 20
-1.79198078590078
 10
1.190685434359249
 20
-1.828850722243676
 10
1.239845349483129
 20
-1.828850722243676
 10
1.239845349483129
 20
-1.902590594929496
 10
1.264425307045069
 20
-1.902590594929496
 10
1.264425307045069
 20
-1.828850722243676
 10
1.313585222168942
 20
-1.828850722243676
 10
1.313585222168942
 20
-1.79198078590078
 10
1.264425307045069
 20
-1.79198078590078
 10
1.264425307045069
 20
-1.71824091321496
 10
1.239845349483129
 20
-1.71824091321496
 10
1.239845349483129
 20
-1.79198078590078
 10
1.190685434359249
 20
-1.79198078590078
1001
AcDbBlockRepETag
1070
     1
1071
       70
1005
20D
  0
LWPOLYLINE
  5
20E
330
1C3
100
AcDbEntity
  8
0
100
AcDbPolyline
 90
        4
 70
     1
 43
0.0
 10
0.3729466610254981
 20
-1.410536259291423
 10
0.5327163851781016
 20
-1.410536259291423
 10
0.5327163851781016
 20
-1.250311350739527
 10
0.3729466610254981
 20
-1.250311350739527
1001
AcDbBlockRepETag
1070
     1
1071
       71
1005
20E
  0
CIRCLE
  5
20F
330
1C3
100
AcDbEntity
  8
0
100
AcDbCircle
 10
0.1144019222258485
 20
-1.274891308301467
 30
0.0
 40
0.073739872685816
1001
AcDbBlockRepETag
1070
     1
1071
       72
1005
20F
  0
CIRCLE
  5
210
330
1C3
100
AcDbEntity
  8
0
100
AcDbCircle
 10
0.1144019222258485
 20
-1.274891308301467
 30
0.0
 40
0.061449893904846
1001
AcDbBlockRepETag
1070
     1
1071
       73
1005
210
  0
LWPOLYLINE
  5
211
330
1C3
100
AcDbEntity
  8
0
100
AcDbPolyline
 90
       13
 70
     1
 43
0.0
 10
0.073459756120922
 20
-1.262608658470004
 10
0.073459756120922
 20
-1.287173958132957
 10
0.1062134890048618
 20
-1.287173958132957
 10
0.1062134890048618
 20
-1.336304557458864
 10
0.1225903554468353
 20
-1.336304557458864
 10
0.1225903554468353
 20
-1.287173958132957
 10
0.1553440883307751
 20
-1.287173958132957
 10
0.1553440883307751
 20
-1.262608658470004
 10
0.1225903554468353
 20
-1.262608658470004
 10
0.1225903554468353
 20
-1.21347805914407
 10
0.1062134890048618
 20
-1.21347805914407
 10
0.1062134890048618
 20
-1.262608658470004
 10
0.073459756120922
 20
-1.262608658470004
1001
AcDbBlockRepETag
1070
     1
1071
       74
1005
211
  0
LINE
  5
212
330
1C3
100
AcDbEntity
  8
0
100
AcDbLine
 10
1.221410381311674
 20
-0.9676418387772303
 30
0.0
 11
1.221410381311674
 21
-0.7336770575395138
 31
0.0
1001
AcDbBlockRepETag
1070
     1
1071
       75
1005
212
  0
LWPOLYLINE
  5
213
330
1C3
100
AcDbEntity
  8
0
100
AcDbPolyline
 90
        4
 70
     1
 43
0.0
 10
1.184540444968764
 20
-0.9676418387772303
 10
1.258280317654584
 20
-0.9676418387772303
 10
1.258280317654584
 20
-0.7336770575395138
 10
1.184540444968764
 20
-0.7336770575395138
1001
AcDbBlockRepETag
1070
     1
1071
       76
1005
213
  0
LINE
  5
214
330
1C3
100
AcDbEntity
  8
0
100
AcDbLine
 10
1.567892985449921
 20
-2.148845354948165
 30
0.0
 11
-0.1829207667885519
 21
-2.148845354948165
 31
0.0
1001
AcDbBlockRepETag
1070
     1
1071
       77
1005
214
  0
TEXT
  5
215
330
1C3
100
AcDbEntity
  8
0
100
AcDbText
 10
-0.0076360963147817
 20
-2.692064345101838
 30
0.0
 40
0.0983210632
  1
2
100
AcDbText
1001
AcDbBlockRepETag
1070
     1
1071
       78
1005
215
  0
TEXT
  5
216
330
1C3
100
AcDbEntity
  8
0
100
AcDbText
 10
0.1821788322663416
 20
-2.692064345101838
 30
0.0
 40
0.0983210632
  1
T1
100
AcDbText
1001
AcDbBlockRepETag
1070
     1
1071
       79
1005
216
  0
TEXT
  5
217
330
1C3
100
AcDbEntity
  8
0
100
AcDbText
 10
0.5424936864954671
 20
-2.692064345101838
 30
0.0
 40
0.0983210632
  1
4
100
AcDbText
1001
AcDbBlockRepETag
1070
     1
1071
       80
1005
217
  0
TEXT
  5
218
330
1C3
100
AcDbEntity
  8
0
100
AcDbText
 10
0.7323086150765903
 20
-2.692064345101838
 30
0.0
 40
0.0983210632
  1
T2
100
AcDbText
1001
AcDbBlockRepETag
1070
     1
1071
       81
1005
218
  0
TEXT
  5
219
330
1C3
100
AcDbEntity
  8
0
100
AcDbText
 10
1.092623469305715
 20
-2.692064345101838
 30
0.0
 40
0.0983210632
  1
6
100
AcDbText
1001
AcDbBlockRepETag
1070
     1
1071
       82
1005
219
  0
TEXT
  5
21A
330
1C3
100
AcDbEntity
  8
0
100
AcDbText
 10
1.282438397886838
 20
-2.692064345101838
 30
0.0
 40
0.0983210632
  1
T3
100
AcDbText
1001
AcDbBlockRepETag
1070
     1
1071
       83
1005
21A
  0
CIRCLE
  5
21B
330
1C3
100
AcDbEntity
  8
0
100
AcDbCircle
 10
0.692486109330698
 20
-2.39366837284725
 30
0.0
 40
0.147934929770927
1001
AcDbBlockRepETag
1070
     1
1071
       84
1005
21B
  0
LWPOLYLINE
  5
21C
330
1C3
100
AcDbEntity
  8
0
100
AcDbPolyline
 90
       13
 70
     1
 43
0.0
 10
0.6740511411592483
 20
-2.4551182667521
 10
0.7109210775021442
 20
-2.4551182667521
 10
0.7109210775021442
 20
-2.40595835162822
 10
0.7846609501879645
 20
-2.40595835162822
 10
0.7846609501879645
 20
-2.38137839406628
 10
0.7109210775021442
 20
-2.38137839406628
 10
0.7109210775021442
 20
-2.332218478942407
 10
0.6740511411592483
 20
-2.332218478942407
 10
0.6740511411592483
 20
-2.38137839406628
 10
0.600311268473428
 20
-2.38137839406628
 10
0.600311268473428
 20
-2.40595835162822
 10
0.6740511411592483
 20
-2.40595835162822
 10
0.6740511411592483
 20
-2.4551182667521
1001
AcDbBlockRepETag
1070
     1
1071
       85
1005
21C
  0
CIRCLE
  5
21D
330
1C3
100
AcDbEntity
  8
0
100
AcDbCircle
 10
1.242615892140948
 20
-2.39366837284725
 30
0.0
 40
0.147934929770927
1001
AcDbBlockRepETag
1070
     1
1071
       86
1005
21D
  0
LWPOLYLINE
  5
21E
330
1C3
100
AcDbEntity
  8
0
100
AcDbPolyline
 90
       13
 70
     1
 43
0.0
 10
1.224180923969498
 20
-2.4551182667521
 10
1.261050860312394
 20
-2.4551182667521
 10
1.261050860312394
 20
-2.40595835162822
 10
1.334790732998214
 20
-2.40595835162822
 10
1.334790732998214
 20
-2.38137839406628
 10
1.261050860312394
 20
-2.38137839406628
 10
1.261050860312394
 20
-2.332218478942407
 10
1.224180923969498
 20
-2.332218478942407
 10
1.224180923969498
 20
-2.38137839406628
 10
1.150441051283678
 20
-2.38137839406628
 10
1.150441051283678
 20
-2.40595835162822
 10
1.224180923969498
 20
-2.40595835162822
 10
1.224180923969498
 20
-2.4551182667521
1001
AcDbBlockRepETag
1070
     1
1071
       87
1005
21E
  0
CIRCLE
  5
21F
330
1C3
100
AcDbEntity
  8
0
100
AcDbCircle
 10
0.1423563265204475
 20
-2.39366837284725
 30
0.0
 40
0.147934929770927
1001
AcDbBlockRepETag
1070
     1
1071
       88
1005
21F
  0
LWPOLYLINE
  5
220
330
1C3
100
AcDbEntity
  8
0
100
AcDbPolyline
 90
       13
 70
     1
 43
0.0
 10
0.1607912946918972
 20
-2.4551182667521
 10
0.1239213583490013
 20
-2.4551182667521
 10
0.1239213583490013
 20
-2.40595835162822
 10
0.050181485663181
 20
-2.40595835162822
 10
0.050181485663181
 20
-2.38137839406628
 10
0.1239213583490013
 20
-2.38137839406628
 10
0.1239213583490013
 20
-2.332218478942407
 10
0.1607912946918972
 20
-2.332218478942407
 10
0.1607912946918972
 20
-2.38137839406628
 10
0.2345311673777175
 20
-2.38137839406628
 10
0.2345311673777175
 20
-2.40595835162822
 10
0.1607912946918972
 20
-2.40595835162822
 10
0.1607912946918972
 20
-2.4551182667521
1001
AcDbBlockRepETag
1070
     1
1071
       89
1005
220
  0
TEXT
  5
221
330
1C3
100
AcDbEntity
  8
SS-A
 62
     4
100
AcDbText
 10
-0.147593784038827
 20
-0.5531148782019115
 30
0.0
 40
0.1422194935674756
  1
CEP7-E__B
 41
0.65
  7
SIMPLEX
 72
     4
 11
0.2661972186741615
 21
-0.48877748825472
 31
0.0
100
AcDbText
1001
AcDbBlockRepETag
1070
     1
1071
       90
1005
221
  0
POINT
  5
222
330
1C3
100
AcDbEntity
  8
0
 62
     1
100
AcDbPoint
 10
0.0
 20
0.0
 30
0.0
1001
AcDbBlockRepETag
1070
     1
1071
       91
1005
222
  0
LINE
  5
223
330
1C3
100
AcDbEntity
  8
0
100
AcDbLine
 10
-0.1516707667885504
 20
-0.3087597747702953
 30
0.0
 11
-0.1516707667885502
 21
0.0410110755649837
 31
0.0
1001
AcDbBlockRepETag
1070
     1
1071
       92
1005
223
  0
ENDBLK
  5
224
330
1C3
100
AcDbEntity
  8
0
100
AcDbBlockEnd
  0
BLOCK
  5
E3
330
E1
100
AcDbEntity
  8
0
 62
     1
100
AcDbBlockBegin
  2
*U3
 70
     1
 10
0.0
 20
0.0
 30
0.0
  3
*U3
  1

  0
LWPOLYLINE
  5
E4
330
E1
100
AcDbEntity
  8
0
100
AcDbPolyline
 90
        2
 70
   128
 43
0.0
 10
0.8870231193762965
 20
-0.3390355380760681
 10
0.4879768806237
 20
-0.3390355380760681
1001
AcDbBlockRepETag
1070
     1
1071
        0
1005
E4
  0
LWPOLYLINE
  5
E5
330
E1
100
AcDbEntity
  8
0
100
AcDbPolyline
 90
        2
 70
   129
 43
0.0
 10
0.4879768806237
 20
-0.3390355380760681
 10
0.4879768806237
 20
-0.1794170425750288
1001
AcDbBlockRepETag
1070
     1
1071
        1
1005
E5
  0
LWPOLYLINE
  5
E6
330
E1
100
AcDbEntity
  8
0
100
AcDbPolyline
 90
        2
 70
   129
 43
0.0
 10
0.8870231193762965
 20
-0.1794170425750288
 10
0.8870231193762965
 20
-0.3390355380760681
1001
AcDbBlockRepETag
1070
     1
1071
        2
1005
E6
  0
LWPOLYLINE
  5
E7
330
E1
100
AcDbEntity
  8
0
100
AcDbPolyline
 90
        2
 70
   128
 43
0.0
 10
0.4879768806237
 20
-0.3390355380760681
 10
0.8870231193762965
 20
-0.3390355380760681
1001
AcDbBlockRepETag
1070
     1
1071
        3
1005
E7
  0
LWPOLYLINE
  5
E8
330
E1
100
AcDbEntity
  8
0
100
AcDbPolyline
 90
        4
 70
   128
 43
0.0
 10
0.5677861283742214
 20
-0.1794170425750288
 10
0.5677861283742214
 20
-0.2592262903255467
 10
0.8072138716257786
 20
-0.2592262903255467
 10
0.8072138716257786
 20
-0.1794170425750288
1001
AcDbBlockRepETag
1070
     1
1071
        4
1005
E8
  0
LINE
  5
E9
330
E1
100
AcDbEntity
  8
0
100
AcDbLine
 10
1.24733839966173
 20
2.497713753291659
 30
0.0
 11
1.24733839966173
 21
2.856855368168996
 31
0.0
1001
AcDbBlockRepETag
1070
     1
1071
        5
1005
E9
  0
LINE
  5
EA
330
E1
100
AcDbEntity
  8
0
100
AcDbLine
 10
0.1288352657463623
 20
2.856855368168996
 30
0.0
 11
0.1288352657463623
 21
2.497713753291659
 31
0.0
1001
AcDbBlockRepETag
1070
     1
1071
        6
1005
EA
  0
LINE
  5
EB
330
E1
100
AcDbEntity
  8
0
100
AcDbLine
 10
1.24733839966173
 20
2.856855368168996
 30
0.0
 11
0.1288352657463623
 21
2.856855368168996
 31
0.0
1001
AcDbBlockRepETag
1070
     1
1071
        7
1005
EB
  0
LINE
  5
EC
330
E1
100
AcDbEntity
  8
0
100
AcDbLine
 10
0.5484206491406365
 20
2.497713753291655
 30
0.0
 11
0.5484206491406365
 21
2.657332248792695
 31
0.0
1001
AcDbBlockRepETag
1070
     1
1071
        8
1005
EC
  0
LINE
  5
ED
330
E1
100
AcDbEntity
  8
0
100
AcDbLine
 10
0.5484206491406365
 20
2.657332248792695
 30
0.0
 11
0.8277530162674562
 21
2.657332248792695
 31
0.0
1001
AcDbBlockRepETag
1070
     1
1071
        9
1005
ED
  0
LINE
  5
EE
330
E1
100
AcDbEntity
  8
0
100
AcDbLine
 10
0.8277530162674562
 20
2.657332248792695
 30
0.0
 11
0.8277530162674562
 21
2.497713753291655
 31
0.0
1001
AcDbBlockRepETag
1070
     1
1071
       10
1005
EE
  0
LINE
  5
EF
330
E1
100
AcDbEntity
  8
0
100
AcDbLine
 10
0.8870231193762965
 20
-0.2592262903255467
 30
0.0
 11
1.566575390663809
 21
-0.2592262903255467
 31
0.0
1001
AcDbBlockRepETag
1070
     1
1071
       11
1005
EF
  0
LINE
  5
F0
330
E1
100
AcDbEntity
  8
0
100
AcDbLine
 10
1.566575390663809
 20
0.0611843660846248
 30
0.0
 11
1.566575390663809
 21
-0.2592262903255467
 31
0.0
1001
AcDbBlockRepETag
1070
     1
1071
       12
1005
F0
  0
LINE
  5
F1
330
E1
100
AcDbEntity
  8
0
100
AcDbLine
 10
-0.1915753906638091
 20
2.617427624917436
 30
0.0
 11
-0.1915753906638091
 21
2.298190633915361
 31
0.0
1001
AcDbBlockRepETag
1070
     1
1071
       13
1005
F1
  0
LWPOLYLINE
  5
F2
330
E1
100
AcDbEntity
  8
0
100
AcDbPolyline
 90
        4
 70
   128
 43
0.0
 10
1.486766142913287
 20
-0.1794170425750288
 10
1.486766142913287
 20
-0.2193216664502877
 10
1.287243023536989
 20
-0.2193216664502877
 10
1.287243023536989
 20
-0.1794170425750288
1001
AcDbBlockRepETag
1070
     1
1071
       14
1005
F2
  0
LWPOLYLINE
  5
F3
330
E1
100
AcDbEntity
  8
0
100
AcDbPolyline
 90
        4
 70
   128
 43
0.0
 10
1.24733839966173
 20
-0.1794170425750288
 10
1.24733839966173
 20
-0.2193216664502877
 10
1.006736991002076
 20
-0.2193216664502877
 10
1.006736991002076
 20
-0.1794170425750288
1001
AcDbBlockRepETag
1070
     1
1071
       15
1005
F3
  0
LWPOLYLINE
  5
F4
330
E1
100
AcDbEntity
  8
0
100
AcDbPolyline
 90
        3
 70
   128
 43
0.0
 10
0.9668323671268179
 20
-0.1794170425750288
 10
0.9668323671268179
 20
-0.2193216664502877
 10
0.8870231193762965
 20
-0.2193216664502877
1001
AcDbBlockRepETag
1070
     1
1071
       16
1005
F4
  0
LWPOLYLINE
  5
F5
330
E1
100
AcDbEntity
  8
0
100
AcDbPolyline
 90
        2
 70
   129
 43
0.0
 10
0.6475953761247393
 20
-0.0996077948245109
 10
0.6475953761247393
 20
0.0611843660846248
1001
AcDbBlockRepETag
1070
     1
1071
       17
1005
F5
  0
LWPOLYLINE
  5
F6
330
E1
100
AcDbEntity
  8
0
100
AcDbPolyline
 90
        3
 70
   128
 43
0.0
 10
0.6874999999999983
 20
0.0611843660846248
 10
0.6874999999999983
 20
-0.0996077948245109
 10
0.6475953761247393
 20
-0.0996077948245109
1001
AcDbBlockRepETag
1070
     1
1071
       18
1005
F6
  0
LWPOLYLINE
  5
F7
330
E1
100
AcDbEntity
  8
0
100
AcDbPolyline
 90
        2
 70
   129
 43
0.0
 10
1.126450862627857
 20
0.0611843660846248
 10
1.126450862627857
 20
-0.0996077948245109
1001
AcDbBlockRepETag
1070
     1
1071
       19
1005
F7
  0
LWPOLYLINE
  5
F8
330
E1
100
AcDbEntity
  8
0
100
AcDbPolyline
 90
        4
 70
   129
 43
0.0
 10
1.086546238752594
 20
-0.0996077948245109
 10
1.086546238752594
 20
0.0611843660846248
 10
1.086546238752594
 20
-0.0996077948245109
 10
1.126450862627857
 20
-0.0996077948245109
1001
AcDbBlockRepETag
1070
     1
1071
       20
1005
F8
  0
LINE
  5
F9
330
E1
100
AcDbEntity
  8
0
100
AcDbLine
 10
-0.1516707667885502
 20
0.0611843660846248
 30
0.0
 11
-0.1516707667885502
 21
-0.1794170425750288
 31
0.0
1001
AcDbBlockRepETag
1070
     1
1071
       21
1005
F9
  0
LINE
  5
FA
330
E1
100
AcDbEntity
  8
0
100
AcDbLine
 10
1.52667076678855
 20
0.0611843660846248
 30
0.0
 11
1.52667076678855
 21
-0.1794170425750288
 31
0.0
1001
AcDbBlockRepETag
1070
     1
1071
       22
1005
FA
  0
LWPOLYLINE
  5
FB
330
E1
100
AcDbEntity
  8
0
100
AcDbPolyline
 90
        2
 70
   129
 43
0.0
 10
0.2884537612474016
 20
0.0611843660846248
 10
0.2884537612474016
 20
-0.0996077948245109
1001
AcDbBlockRepETag
1070
     1
1071
       23
1005
FB
  0
LWPOLYLINE
  5
FC
330
E1
100
AcDbEntity
  8
0
100
AcDbPolyline
 90
        3
 70
   128
 43
0.0
 10
0.2485491373721427
 20
0.0611843660846248
 10
0.2485491373721427
 20
-0.0996077948245109
 10
0.2884537612474016
 20
-0.0996077948245109
1001
AcDbBlockRepETag
1070
     1
1071
       24
1005
FC
  0
LINE
  5
FD
330
E1
100
AcDbEntity
  8
0
100
AcDbLine
 10
1.566575390663809
 20
2.298190633915361
 30
0.0
 11
1.566575390663809
 21
2.4578091294164
 31
0.0
1001
AcDbBlockRepETag
1070
     1
1071
       25
1005
FD
  0
LINE
  5
FE
330
E1
100
AcDbEntity
  8
0
100
AcDbLine
 10
1.52667076678855
 20
2.497713753291655
 30
0.0
 11
1.52667076678855
 21
2.298190633915361
 31
0.0
1001
AcDbBlockRepETag
1070
     1
1071
       26
1005
FE
  0
LWPOLYLINE
  5
FF
330
E1
100
AcDbEntity
  8
0
100
AcDbPolyline
 90
        2
 70
   129
 43
0.0
 10
1.126450862627857
 20
2.4578091294164
 10
1.126450862627857
 20
2.298190633915361
1001
AcDbBlockRepETag
1070
     1
1071
       27
1005
FF
  0
LWPOLYLINE
  5
100
330
E1
100
AcDbEntity
  8
0
100
AcDbPolyline
 90
        4
 70
   129
 43
0.0
 10
1.086546238752594
 20
2.4578091294164
 10
1.126450862627857
 20
2.4578091294164
 10
1.086546238752594
 20
2.4578091294164
 10
1.086546238752594
 20
2.298190633915361
1001
AcDbBlockRepETag
1070
     1
1071
       28
1005
100
  0
LWPOLYLINE
  5
101
330
E1
100
AcDbEntity
  8
0
100
AcDbPolyline
 90
        6
 70
   129
 43
0.0
 10
0.6475953761247393
 20
2.4578091294164
 10
0.6874999999999983
 20
2.4578091294164
 10
0.6874999999999983
 20
2.298190633915361
 10
0.6874999999999983
 20
2.4578091294164
 10
0.6475953761247393
 20
2.4578091294164
 10
0.6475953761247393
 20
2.298190633915361
1001
AcDbBlockRepETag
1070
     1
1071
       29
1005
101
  0
LWPOLYLINE
  5
102
330
E1
100
AcDbEntity
  8
0
100
AcDbPolyline
 90
        2
 70
   129
 43
0.0
 10
0.2884537612474016
 20
2.4578091294164
 10
0.2884537612474016
 20
2.298190633915361
1001
AcDbBlockRepETag
1070
     1
1071
       30
1005
102
  0
LWPOLYLINE
  5
103
330
E1
100
AcDbEntity
  8
0
100
AcDbPolyline
 90
        4
 70
   129
 43
0.0
 10
0.2884537612474016
 20
2.4578091294164
 10
0.2485491373721427
 20
2.4578091294164
 10
0.2485491373721427
 20
2.298190633915361
 10
0.2485491373721427
 20
2.4578091294164
1001
AcDbBlockRepETag
1070
     1
1071
       31
1005
103
  0
LINE
  5
104
330
E1
100
AcDbEntity
  8
0
100
AcDbLine
 10
-0.1516707667885502
 20
2.298190633915361
 30
0.0
 11
-0.1516707667885502
 21
2.537618377166918
 31
0.0
1001
AcDbBlockRepETag
1070
     1
1071
       32
1005
104
  0
LINE
  5
105
330
E1
100
AcDbEntity
  8
0
100
AcDbLine
 10
-0.1516707667885502
 20
2.537618377166918
 30
0.0
 11
0.0889306418711034
 21
2.537618377166918
 31
0.0
1001
AcDbBlockRepETag
1070
     1
1071
       33
1005
105
  0
LINE
  5
106
330
E1
100
AcDbEntity
  8
0
100
AcDbLine
 10
0.0889306418711034
 20
2.537618377166918
 30
0.0
 11
0.0889306418711034
 21
2.497713753291659
 31
0.0
1001
AcDbBlockRepETag
1070
     1
1071
       34
1005
106
  0
LINE
  5
107
330
E1
100
AcDbEntity
  8
0
100
AcDbLine
 10
1.52667076678855
 20
2.497713753291659
 30
0.0
 11
-0.1516707667885502
 21
2.497713753291659
 31
0.0
1001
AcDbBlockRepETag
1070
     1
1071
       35
1005
107
  0
LWPOLYLINE
  5
108
330
E1
100
AcDbEntity
  8
0
100
AcDbPolyline
 90
        2
 70
   129
 43
0.0
 10
0.4879768806237
 20
-0.2592262903255467
 10
0.0490260179958444
 20
-0.2592262903255467
1001
AcDbBlockRepETag
1070
     1
1071
       36
1005
108
  0
LWPOLYLINE
  5
109
330
E1
100
AcDbEntity
  8
0
100
AcDbPolyline
 90
        5
 70
   128
 43
0.0
 10
0.0490260179958444
 20
-0.2592262903255467
 10
0.0490260179958444
 20
-0.2193216664502877
 10
0.4879768806237
 20
-0.2193216664502877
 10
0.3682630089979231
 20
-0.2193216664502877
 10
0.3682630089979231
 20
-0.1794170425750288
1001
AcDbBlockRepETag
1070
     1
1071
       37
1005
109
  0
LWPOLYLINE
  5
10A
330
E1
100
AcDbEntity
  8
0
100
AcDbPolyline
 90
        4
 70
   128
 43
0.0
 10
0.0490260179958444
 20
-0.2592262903255467
 10
0.0490260179958444
 20
-0.2193216664502877
 10
0.4879768806237
 20
-0.2193216664502877
 10
0.0490260179958444
 20
-0.2193216664502877
1001
AcDbBlockRepETag
1070
     1
1071
       38
1005
10A
  0
LWPOLYLINE
  5
10B
330
E1
100
AcDbEntity
  8
0
100
AcDbPolyline
 90
        2
 70
   129
 43
0.0
 10
0.4879768806237
 20
-0.2193216664502877
 10
0.3283583851226606
 20
-0.2193216664502877
1001
AcDbBlockRepETag
1070
     1
1071
       39
1005
10B
  0
LWPOLYLINE
  5
10C
330
E1
100
AcDbEntity
  8
0
100
AcDbPolyline
 90
        2
 70
   129
 43
0.0
 10
0.3283583851226606
 20
-0.2193216664502877
 10
0.3283583851226606
 20
-0.1794170425750288
1001
AcDbBlockRepETag
1070
     1
1071
       40
1005
10C
  0
LINE
  5
10D
330
E1
100
AcDbEntity
  8
0
100
AcDbLine
 10
-0.1915753906638091
 20
-0.1794170425750288
 30
0.0
 11
1.566575390663809
 21
-0.1794170425750252
 31
0.0
1001
AcDbBlockRepETag
1070
     1
1071
       41
1005
10D
  0
LINE
  5
10E
330
E1
100
AcDbEntity
  8
0
100
AcDbLine
 10
-0.1915753906638091
 20
0.0611843660846248
 30
0.0
 11
-0.1915753906638091
 21
-0.1794170425750288
 31
0.0
1001
AcDbBlockRepETag
1070
     1
1071
       42
1005
10E
  0
LINE
  5
10F
330
E1
100
AcDbEntity
  8
0
100
AcDbLine
 10
1.046641614877334
 20
1.459019867126805
 30
0.0
 11
1.046641614877335
 21
1.818161482004146
 31
0.0
1001
AcDbBlockRepETag
1070
     1
1071
       43
1005
10F
  0
LINE
  5
110
330
E1
100
AcDbEntity
  8
0
100
AcDbLine
 10
0.8870231193762965
 20
1.818161482004146
 30
0.0
 11
0.8870231193762965
 21
1.459019867126809
 31
0.0
1001
AcDbBlockRepETag
1070
     1
1071
       44
1005
110
  0
LINE
  5
111
330
E1
100
AcDbEntity
  8
0
100
AcDbLine
 10
0.926927743251559
 20
1.020069004498953
 30
0.0
 11
0.926927743251559
 21
1.339305995501035
 31
0.0
1001
AcDbBlockRepETag
1070
     1
1071
       45
1005
111
  0
LINE
  5
112
330
E1
100
AcDbEntity
  8
0
100
AcDbLine
 10
0.926927743251559
 20
1.339305995501035
 30
0.0
 11
0.448072256748441
 21
1.339305995501018
 31
0.0
1001
AcDbBlockRepETag
1070
     1
1071
       46
1005
112
  0
LINE
  5
113
330
E1
100
AcDbEntity
  8
0
100
AcDbLine
 10
0.8072138716257786
 20
1.339305995501032
 30
0.0
 11
0.8072138716257786
 21
1.020069004498953
 31
0.0
1001
AcDbBlockRepETag
1070
     1
1071
       47
1005
113
  0
LWPOLYLINE
  5
114
330
E1
100
AcDbEntity
  8
0
100
AcDbPolyline
 90
        4
 70
   129
 43
0.0
 10
-0.1915753906638091
 20
2.298190633915361
 10
-0.1915753906638091
 20
0.0611843660846248
 10
1.566575390663809
 20
0.0611843660846248
 10
1.566575390663809
 20
2.298190633915361
1001
AcDbBlockRepETag
1070
     1
1071
       48
1005
114
  0
LINE
  5
115
330
E1
100
AcDbEntity
  8
0
100
AcDbLine
 10
0.2884537612474016
 20
0.8193722197145625
 30
0.0
 11
0.2884537612474016
 21
0.5400398525877428
 31
0.0
1001
AcDbBlockRepETag
1070
     1
1071
       49
1005
115
  0
LINE
  5
116
330
E1
100
AcDbEntity
  8
0
100
AcDbLine
 10
0.2884537612474016
 20
0.5400398525877428
 30
0.0
 11
1.086546238752594
 21
0.5400398525877428
 31
0.0
1001
AcDbBlockRepETag
1070
     1
1071
       50
1005
116
  0
LINE
  5
117
330
E1
100
AcDbEntity
  8
0
100
AcDbLine
 10
1.086546238752594
 20
0.5400398525877428
 30
0.0
 11
1.086546238752594
 21
0.8193722197145625
 31
0.0
1001
AcDbBlockRepETag
1070
     1
1071
       51
1005
117
  0
LINE
  5
118
330
E1
100
AcDbEntity
  8
0
100
AcDbLine
 10
1.086546238752594
 20
0.8193722197145625
 30
0.0
 11
0.2884537612474016
 21
0.8193722197145625
 31
0.0
1001
AcDbBlockRepETag
1070
     1
1071
       52
1005
118
  0
LINE
  5
119
330
E1
100
AcDbEntity
  8
0
100
AcDbLine
 10
0.3283583851226606
 20
1.459019867126809
 30
0.0
 11
1.046641614877334
 21
1.459019867126805
 31
0.0
1001
AcDbBlockRepETag
1070
     1
1071
       53
1005
119
  0
LINE
  5
11A
330
E1
100
AcDbEntity
  8
0
100
AcDbLine
 10
1.046641614877335
 20
1.818161482004146
 30
0.0
 11
0.3283583851226606
 21
1.818161482004146
 31
0.0
1001
AcDbBlockRepETag
1070
     1
1071
       54
1005
11A
  0
LINE
  5
11B
330
E1
100
AcDbEntity
  8
0
100
AcDbLine
 10
0.3283583851226606
 20
1.818161482004146
 30
0.0
 11
0.3283583851226606
 21
1.459019867126809
 31
0.0
1001
AcDbBlockRepETag
1070
     1
1071
       55
1005
11B
  0
LINE
  5
11C
330
E1
100
AcDbEntity
  8
0
100
AcDbLine
 10
0.4879768806237
 20
1.459019867126809
 30
0.0
 11
0.4879768806237
 21
1.818161482004146
 31
0.0
1001
AcDbBlockRepETag
1070
     1
1071
       56
1005
11C
  0
LINE
  5
11D
330
E1
100
AcDbEntity
  8
0
100
AcDbLine
 10
0.5677861283742214
 20
1.020069004498953
 30
0.0
 11
0.5677861283742214
 21
1.339305995501032
 31
0.0
1001
AcDbBlockRepETag
1070
     1
1071
       57
1005
11D
  0
LINE
  5
11E
330
E1
100
AcDbEntity
  8
0
100
AcDbLine
 10
0.448072256748441
 20
1.339305995501018
 30
0.0
 11
0.448072256748441
 21
1.020069004498949
 31
0.0
1001
AcDbBlockRepETag
1070
     1
1071
       58
1005
11E
  0
LINE
  5
11F
330
E1
100
AcDbEntity
  8
0
100
AcDbLine
 10
0.448072256748441
 20
1.020069004498949
 30
0.0
 11
0.926927743251559
 21
1.020069004498953
 31
0.0
1001
AcDbBlockRepETag
1070
     1
1071
       59
1005
11F
  0
CIRCLE
  5
120
330
E1
100
AcDbEntity
  8
0
100
AcDbCircle
 10
0.0484391852917963
 20
0.3165843054954465
 30
0.0
 40
0.147934929770927
1001
AcDbBlockRepETag
1070
     1
1071
       60
1005
120
  0
LWPOLYLINE
  5
121
330
E1
100
AcDbEntity
  8
0
100
AcDbPolyline
 90
       13
 70
     1
 43
0.0
 10
-0.0437356555654756
 20
0.288931853238271
 10
-0.0437356555654756
 20
0.3442367577526149
 10
0.0300042171203447
 20
0.3442367577526149
 10
0.0300042171203447
 20
0.4548465667813453
 10
0.0668741534632549
 20
0.4548465667813453
 10
0.0668741534632549
 20
0.3442367577526149
 10
0.1406140261490609
 20
0.3442367577526149
 10
0.1406140261490609
 20
0.288931853238271
 10
0.0668741534632549
 20
0.288931853238271
 10
0.0668741534632549
 20
0.1783220442095406
 10
0.0300042171203447
 20
0.1783220442095406
 10
0.0300042171203447
 20
0.288931853238271
 10
-0.0437356555654756
 20
0.288931853238271
1001
AcDbBlockRepETag
1070
     1
1071
       61
1005
121
  0
CIRCLE
  5
122
330
E1
100
AcDbEntity
  8
0
100
AcDbCircle
 10
0.4680245686860705
 20
0.3165843054954465
 30
0.0
 40
0.147934929770927
1001
AcDbBlockRepETag
1070
     1
1071
       62
1005
122
  0
LWPOLYLINE
  5
123
330
E1
100
AcDbEntity
  8
0
100
AcDbPolyline
 90
       13
 70
     1
 43
0.0
 10
0.3758497278287987
 20
0.288931853238271
 10
0.3758497278287987
 20
0.3442367577526149
 10
0.449589600514619
 20
0.3442367577526149
 10
0.449589600514619
 20
0.4548465667813453
 10
0.4864595368575291
 20
0.4548465667813453
 10
0.4864595368575291
 20
0.3442367577526149
 10
0.5601994095433352
 20
0.3442367577526149
 10
0.5601994095433352
 20
0.288931853238271
 10
0.4864595368575291
 20
0.288931853238271
 10
0.4864595368575291
 20
0.1783220442095406
 10
0.449589600514619
 20
0.1783220442095406
 10
0.449589600514619
 20
0.288931853238271
 10
0.3758497278287987
 20
0.288931853238271
1001
AcDbBlockRepETag
1070
     1
1071
       63
1005
123
  0
CIRCLE
  5
124
330
E1
100
AcDbEntity
  8
0
100
AcDbCircle
 10
1.326560814708201
 20
0.3165843054954465
 30
0.0
 40
0.147934929770927
1001
AcDbBlockRepETag
1070
     1
1071
       64
1005
124
  0
LWPOLYLINE
  5
125
330
E1
100
AcDbEntity
  8
0
100
AcDbPolyline
 90
       13
 70
     1
 43
0.0
 10
1.418735655565473
 20
0.288931853238271
 10
1.418735655565473
 20
0.3442367577526149
 10
1.344995782879653
 20
0.3442367577526149
 10
1.344995782879653
 20
0.4548465667813453
 10
1.308125846536743
 20
0.4548465667813453
 10
1.308125846536743
 20
0.3442367577526149
 10
1.234385973850937
 20
0.3442367577526149
 10
1.234385973850937
 20
0.288931853238271
 10
1.308125846536743
 20
0.288931853238271
 10
1.308125846536743
 20
0.1783220442095406
 10
1.344995782879653
 20
0.1783220442095406
 10
1.344995782879653
 20
0.288931853238271
 10
1.418735655565473
 20
0.288931853238271
1001
AcDbBlockRepETag
1070
     1
1071
       65
1005
125
  0
CIRCLE
  5
126
330
E1
100
AcDbEntity
  8
0
100
AcDbCircle
 10
0.9069754313139277
 20
0.3165843054954465
 30
0.0
 40
0.147934929770927
1001
AcDbBlockRepETag
1070
     1
1071
       66
1005
126
  0
LWPOLYLINE
  5
127
330
E1
100
AcDbEntity
  8
0
100
AcDbPolyline
 90
       13
 70
     1
 43
0.0
 10
0.9991502721711995
 20
0.288931853238271
 10
0.9991502721711995
 20
0.3442367577526149
 10
0.9254103994853792
 20
0.3442367577526149
 10
0.9254103994853792
 20
0.4548465667813453
 10
0.8885404631424691
 20
0.4548465667813453
 10
0.8885404631424691
 20
0.3442367577526149
 10
0.814800590456663
 20
0.3442367577526149
 10
0.814800590456663
 20
0.288931853238271
 10
0.8885404631424691
 20
0.288931853238271
 10
0.8885404631424691
 20
0.1783220442095406
 10
0.9254103994853792
 20
0.1783220442095406
 10
0.9254103994853792
 20
0.288931853238271
 10
0.9991502721711995
 20
0.288931853238271
1001
AcDbBlockRepETag
1070
     1
1071
       67
1005
127
  0
TEXT
  5
128
330
E1
100
AcDbEntity
  8
0
100
AcDbText
 10
-0.0762796377160218
 20
0.0797617358231655
 30
0.0
 40
0.0737407974
  1
2
100
AcDbText
1001
AcDbBlockRepETag
1070
     1
1071
       68
1005
128
  0
TEXT
  5
129
330
E1
100
AcDbEntity
  8
0
100
AcDbText
 10
0.0961726638004645
 20
0.0797617358231655
 30
0.0
 40
0.0737407974
  1
T1
100
AcDbText
1001
AcDbBlockRepETag
1070
     1
1071
       69
1005
129
  0
TEXT
  5
12A
330
E1
100
AcDbEntity
  8
0
100
AcDbText
 10
0.3433057456782524
 20
0.0797617358231655
 30
0.0
 40
0.0737407974
  1
4
100
AcDbText
1001
AcDbBlockRepETag
1070
     1
1071
       70
1005
12A
  0
TEXT
  5
12B
330
E1
100
AcDbEntity
  8
0
100
AcDbText
 10
0.5157580471947388
 20
0.0797617358231655
 30
0.0
 40
0.0737407974
  1
T2
100
AcDbText
1001
AcDbBlockRepETag
1070
     1
1071
       71
1005
12B
  0
TEXT
  5
12C
330
E1
100
AcDbEntity
  8
0
100
AcDbText
 10
0.7822566083061098
 20
0.0797617358231655
 30
0.0
 40
0.0737407974
  1
6
100
AcDbText
1001
AcDbBlockRepETag
1070
     1
1071
       72
1005
12C
  0
TEXT
  5
12D
330
E1
100
AcDbEntity
  8
0
100
AcDbText
 10
0.954708909822596
 20
0.0797617358231655
 30
0.0
 40
0.0737407974
  1
T3
100
AcDbText
1001
AcDbBlockRepETag
1070
     1
1071
       73
1005
12D
  0
TEXT
  5
12E
330
E1
100
AcDbEntity
  8
0
100
AcDbText
 10
1.201841991700383
 20
0.0797617358231655
 30
0.0
 40
0.0737407974
  1
14
100
AcDbText
1001
AcDbBlockRepETag
1070
     1
1071
       74
1005
12E
  0
TEXT
  5
12F
330
E1
100
AcDbEntity
  8
0
100
AcDbText
 10
1.37429429321687
 20
0.0797617358231655
 30
0.0
 40
0.0737407974
  1
NO
100
AcDbText
1001
AcDbBlockRepETag
1070
     1
1071
       75
1005
12F
  0
CIRCLE
  5
130
330
E1
100
AcDbEntity
  8
0
100
AcDbCircle
 10
0.0484391852917963
 20
2.042790694504539
 30
0.0
 40
0.147934929770927
1001
AcDbBlockRepETag
1070
     1
1071
       76
1005
130
  0
LWPOLYLINE
  5
131
330
E1
100
AcDbEntity
  8
0
100
AcDbPolyline
 90
       13
 70
     1
 43
0.0
 10
-0.0437356555654756
 20
2.070443146761714
 10
-0.0437356555654756
 20
2.01513824224737
 10
0.0300042171203447
 20
2.01513824224737
 10
0.0300042171203447
 20
1.90452843321864
 10
0.0668741534632549
 20
1.90452843321864
 10
0.0668741534632549
 20
2.01513824224737
 10
0.1406140261490609
 20
2.01513824224737
 10
0.1406140261490609
 20
2.070443146761714
 10
0.0668741534632549
 20
2.070443146761714
 10
0.0668741534632549
 20
2.181052955790445
 10
0.0300042171203447
 20
2.181052955790445
 10
0.0300042171203447
 20
2.070443146761714
 10
-0.0437356555654756
 20
2.070443146761714
1001
AcDbBlockRepETag
1070
     1
1071
       77
1005
131
  0
CIRCLE
  5
132
330
E1
100
AcDbEntity
  8
0
100
AcDbCircle
 10
0.4680245686860705
 20
2.042790694504539
 30
0.0
 40
0.147934929770927
1001
AcDbBlockRepETag
1070
     1
1071
       78
1005
132
  0
LWPOLYLINE
  5
133
330
E1
100
AcDbEntity
  8
0
100
AcDbPolyline
 90
       13
 70
     1
 43
0.0
 10
0.3758497278287987
 20
2.070443146761714
 10
0.3758497278287987
 20
2.01513824224737
 10
0.449589600514619
 20
2.01513824224737
 10
0.449589600514619
 20
1.90452843321864
 10
0.4864595368575291
 20
1.90452843321864
 10
0.4864595368575291
 20
2.01513824224737
 10
0.5601994095433352
 20
2.01513824224737
 10
0.5601994095433352
 20
2.070443146761714
 10
0.4864595368575291
 20
2.070443146761714
 10
0.4864595368575291
 20
2.181052955790445
 10
0.449589600514619
 20
2.181052955790445
 10
0.449589600514619
 20
2.070443146761714
 10
0.3758497278287987
 20
2.070443146761714
1001
AcDbBlockRepETag
1070
     1
1071
       79
1005
133
  0
CIRCLE
  5
134
330
E1
100
AcDbEntity
  8
0
100
AcDbCircle
 10
1.326560814708201
 20
2.042790694504539
 30
0.0
 40
0.147934929770927
1001
AcDbBlockRepETag
1070
     1
1071
       80
1005
134
  0
LWPOLYLINE
  5
135
330
E1
100
AcDbEntity
  8
0
100
AcDbPolyline
 90
       13
 70
     1
 43
0.0
 10
1.418735655565473
 20
2.070443146761714
 10
1.418735655565473
 20
2.01513824224737
 10
1.344995782879653
 20
2.01513824224737
 10
1.344995782879653
 20
1.90452843321864
 10
1.308125846536743
 20
1.90452843321864
 10
1.308125846536743
 20
2.01513824224737
 10
1.234385973850937
 20
2.01513824224737
 10
1.234385973850937
 20
2.070443146761714
 10
1.308125846536743
 20
2.070443146761714
 10
1.308125846536743
 20
2.181052955790445
 10
1.344995782879653
 20
2.181052955790445
 10
1.344995782879653
 20
2.070443146761714
 10
1.418735655565473
 20
2.070443146761714
1001
AcDbBlockRepETag
1070
     1
1071
       81
1005
135
  0
CIRCLE
  5
136
330
E1
100
AcDbEntity
  8
0
100
AcDbCircle
 10
0.9069754313139277
 20
2.042790694504539
 30
0.0
 40
0.147934929770927
1001
AcDbBlockRepETag
1070
     1
1071
       82
1005
136
  0
LWPOLYLINE
  5
137
330
E1
100
AcDbEntity
  8
0
100
AcDbPolyline
 90
       13
 70
     1
 43
0.0
 10
0.9991502721711995
 20
2.070443146761714
 10
0.9991502721711995
 20
2.01513824224737
 10
0.9254103994853792
 20
2.01513824224737
 10
0.9254103994853792
 20
1.90452843321864
 10
0.8885404631424691
 20
1.90452843321864
 10
0.8885404631424691
 20
2.01513824224737
 10
0.814800590456663
 20
2.01513824224737
 10
0.814800590456663
 20
2.070443146761714
 10
0.8885404631424691
 20
2.070443146761714
 10
0.8885404631424691
 20
2.181052955790445
 10
0.9254103994853792
 20
2.181052955790445
 10
0.9254103994853792
 20
2.070443146761714
 10
0.9991502721711995
 20
2.070443146761714
1001
AcDbBlockRepETag
1070
     1
1071
       83
1005
137
  0
TEXT
  5
138
330
E1
100
AcDbEntity
  8
0
100
AcDbText
 10
-0.0762796377160218
 20
2.205872466776821
 30
0.0
 40
0.0737407974
  1
1
100
AcDbText
1001
AcDbBlockRepETag
1070
     1
1071
       84
1005
138
  0
TEXT
  5
139
330
E1
100
AcDbEntity
  8
0
100
AcDbText
 10
0.0961726638004645
 20
2.205872466776821
 30
0.0
 40
0.0737407974
  1
L1
100
AcDbText
1001
AcDbBlockRepETag
1070
     1
1071
       85
1005
139
  0
TEXT
  5
13A
330
E1
100
AcDbEntity
  8
0
100
AcDbText
 10
0.3433057456782524
 20
2.205872466776821
 30
0.0
 40
0.0737407974
  1
3
100
AcDbText
1001
AcDbBlockRepETag
1070
     1
1071
       86
1005
13A
  0
TEXT
  5
13B
330
E1
100
AcDbEntity
  8
0
100
AcDbText
 10
0.5157580471947388
 20
2.205872466776821
 30
0.0
 40
0.0737407974
  1
L2
100
AcDbText
1001
AcDbBlockRepETag
1070
     1
1071
       87
1005
13B
  0
TEXT
  5
13C
330
E1
100
AcDbEntity
  8
0
100
AcDbText
 10
0.7822566083061098
 20
2.205872466776821
 30
0.0
 40
0.0737407974
  1
5
100
AcDbText
1001
AcDbBlockRepETag
1070
     1
1071
       88
1005
13C
  0
TEXT
  5
13D
330
E1
100
AcDbEntity
  8
0
100
AcDbText
 10
0.954708909822596
 20
2.205872466776821
 30
0.0
 40
0.0737407974
  1
L3
100
AcDbText
1001
AcDbBlockRepETag
1070
     1
1071
       89
1005
13D
  0
TEXT
  5
13E
330
E1
100
AcDbEntity
  8
0
100
AcDbText
 10
1.201841991700383
 20
2.205872466776821
 30
0.0
 40
0.0737407974
  1
13
100
AcDbText
1001
AcDbBlockRepETag
1070
     1
1071
       90
1005
13E
  0
TEXT
  5
13F
330
E1
100
AcDbEntity
  8
0
100
AcDbText
 10
1.37429429321687
 20
2.205872466776821
 30
0.0
 40
0.0737407974
  1
NO
100
AcDbText
1001
AcDbBlockRepETag
1070
     1
1071
       91
1005
13F
  0
LINE
  5
140
330
E1
100
AcDbEntity
  8
0
100
AcDbLine
 10
-0.1915753906638091
 20
2.617427624917436
 30
0.0
 11
0.1288352657463623
 21
2.617427624917436
 31
0.0
1001
AcDbBlockRepETag
1070
     1
1071
       92
1005
140
  0
LINE
  5
141
330
E1
100
AcDbEntity
  8
0
100
AcDbLine
 10
1.566575390663809
 20
2.4578091294164
 30
0.0
 11
1.52667076678855
 21
2.4578091294164
 31
0.0
1001
AcDbBlockRepETag
1070
     1
1071
       93
1005
141
  0
CIRCLE
  5
142
330
E1
100
AcDbEntity
  8
0
100
AcDbCircle
 10
0.3386279574434994
 20
2.648476212138447
 30
0.0
 40
0.1172099828185033
1001
AcDbBlockRepETag
1070
     1
1071
       94
1005
142
  0
LWPOLYLINE
  5
143
330
E1
100
AcDbEntity
  8
0
100
AcDbPolyline
 90
       13
 70
     1
 43
0.0
 10
0.2771780635386527
 20
2.666911180309895
 10
0.2771780635386527
 20
2.630041243966999
 10
0.3263379786625293
 20
2.630041243966999
 10
0.3263379786625293
 20
2.556301371281179
 10
0.3509179362244694
 20
2.556301371281179
 10
0.3509179362244694
 20
2.630041243966999
 10
0.4000778513483461
 20
2.630041243966999
 10
0.4000778513483461
 20
2.666911180309895
 10
0.3509179362244694
 20
2.666911180309895
 10
0.3509179362244694
 20
2.740651052995715
 10
0.3263379786625293
 20
2.740651052995715
 10
0.3263379786625293
 20
2.666911180309895
 10
0.2771780635386527
 20
2.666911180309895
1001
AcDbBlockRepETag
1070
     1
1071
       95
1005
143
  0
CIRCLE
  5
144
330
E1
100
AcDbEntity
  8
0
100
AcDbCircle
 10
1.037545707964593
 20
2.648476212138447
 30
0.0
 40
0.1172099828185034
1001
AcDbBlockRepETag
1070
     1
1071
       96
1005
144
  0
LWPOLYLINE
  5
145
330
E1
100
AcDbEntity
  8
0
100
AcDbPolyline
 90
       13
 70
     1
 43
0.0
 10
1.09899560186944
 20
2.666911180309895
 10
1.09899560186944
 20
2.630041243966999
 10
1.049835686745563
 20
2.630041243966999
 10
1.049835686745563
 20
2.556301371281179
 10
1.025255729183623
 20
2.556301371281179
 10
1.025255729183623
 20
2.630041243966999
 10
0.9760958140597466
 20
2.630041243966999
 10
0.9760958140597466
 20
2.666911180309895
 10
1.025255729183623
 20
2.666911180309895
 10
1.025255729183623
 20
2.740651052995715
 10
1.049835686745563
 20
2.740651052995715
 10
1.049835686745563
 20
2.666911180309895
 10
1.09899560186944
 20
2.666911180309895
1001
AcDbBlockRepETag
1070
     1
1071
       97
1005
145
  0
TEXT
  5
146
330
E1
100
AcDbEntity
  8
0
100
AcDbText
 10
1.110275725668635
 20
2.76384911236887
 30
0.0
 40
0.0737407974
  1
A2
100
AcDbText
1001
AcDbBlockRepETag
1070
     1
1071
       98
1005
146
  0
TEXT
  5
147
330
E1
100
AcDbEntity
  8
0
100
AcDbText
 10
0.1429966107394573
 20
2.76384911236887
 30
0.0
 40
0.0737407974
  1
A1
100
AcDbText
1001
AcDbBlockRepETag
1070
     1
1071
       99
1005
147
  0
CIRCLE
  5
148
330
E1
100
AcDbEntity
  8
0
  6
HIDDEN2
100
AcDbCircle
 10
1.374999999999996
 20
2.359374999999985
 30
0.0
 40
0.09375
1001
AcDbBlockRepETag
1070
     1
1071
      100
1005
148
  0
CIRCLE
  5
149
330
E1
100
AcDbEntity
  8
0
  6
HIDDEN2
100
AcDbCircle
 10
0.0
 20
0.0
 30
0.0
 40
0.09375
1001
AcDbBlockRepETag
1070
     1
1071
      101
1005
149
  0
POINT
  5
14A
330
E1
100
AcDbEntity
  8
0
 62
     1
100
AcDbPoint
 10
1.374999999999996
 20
2.359374999999985
 30
0.0
1001
AcDbBlockRepETag
1070
     1
1071
      102
1005
14A
  0
POINT
  5
14B
330
E1
100
AcDbEntity
  8
0
 62
     1
100
AcDbPoint
 10
0.0
 20
0.0
 30
0.0
1001
AcDbBlockRepETag
1070
     1
1071
      103
1005
14B
  0
TEXT
  5
14C
330
E1
100
AcDbEntity
  8
SS-A
 62
     4
100
AcDbText
 10
-0.0916821879566415
 20
0.8394595394734725
 30
0.0
 40
0.1422194935674756
  1
CA7
 41
0.75
  7
SIMPLEX
 72
     4
 11
0.053076939424539
 21
0.9105692862572103
 31
0.0
100
AcDbText
1001
AcDbBlockRepETag
1070
     1
1071
      104
1005
14C
  0
TEXT
  5
14D
330
E1
100
AcDbEntity
  8
SS-A
 62
     4
 60
     1
100
AcDbText
 10
-0.0993010893977563
 20
0.6635931879648062
 30
0.0
 40
0.1422194935674756
  1
-23
 41
0.75
  7
SIMPLEX
 72
     4
 11
0.053076939424539
 21
0.7347029347485439
 31
0.0
100
AcDbText
1001
AcDbBlockRepETag
1070
     1
1071
      105
1005
14D
  0
TEXT
  5
14E
330
E1
100
AcDbEntity
  8
SS-A
 62
     4
 60
     1
100
AcDbText
 10
-0.0866029203292317
 20
0.6635931879648061
 30
0.0
 40
0.1422194935674756
  1
-16
 41
0.75
  7
SIMPLEX
 72
     4
 11
0.053076939424539
 21
0.7347029347485439
 31
0.0
100
AcDbText
1001
AcDbBlockRepETag
1070
     1
1071
      106
1005
14E
  0
TEXT
  5
14F
330
E1
100
AcDbEntity
  8
SS-A
 62
     4
 60
     1
100
AcDbText
 10
-0.0891425541429367
 20
0.6635931879648061
 30
0.0
 40
0.1422194935674756
  1
-12
 41
0.75
  7
SIMPLEX
 72
     4
 11
0.053076939424539
 21
0.7347029347485439
 31
0.0
100
AcDbText
1001
AcDbBlockRepETag
1070
     1
1071
      107
1005
14F
  0
TEXT
  5
150
330
E1
100
AcDbEntity
  8
SS-A
 62
     4
100
AcDbText
 10
-0.0967614555840514
 20
0.6635931879648061
 30
0.0
 40
0.1422194935674756
  1
-09
 41
0.75
  7
SIMPLEX
 72
     4
 11
0.053076939424539
 21
0.7347029347485439
 31
0.0
100
AcDbText
1001
AcDbBlockRepETag
1070
     1
1071
      108
1005
150
  0
TEXT
  5
151
330
E1
100
AcDbEntity
  8
SS-A
 62
     4
 60
     1
100
AcDbText
 10
-0.0866029203292317
 20
0.8394595394734725
 30
0.0
 40
0.1422194935674756
  1
CS7
 41
0.75
  7
SIMPLEX
 72
     4
 11
0.053076939424539
 21
0.9105692862572103
 31
0.0
100
AcDbText
1001
AcDbBlockRepETag
1070
     1
1071
      109
1005
151
  0
ENDBLK
  5
152
330
E1
100
AcDbEntity
  8
0
 62
     1
100
AcDbBlockEnd
  0
ENDSEC
  0
SECTION
  2
ENTITIES
  0
INSERT
  5
5A
102
{ACAD_XDICTIONARY
360
5B
102
}
330
2
100
AcDbEntity
  8
0
 62
     1
100
AcDbBlockReference
  2
*U3
 10
0.0
 20
0.0
 30
0.0
  0
INSERT
  5
154
102
{ACAD_XDICTIONARY
360
155
102
}
330
2
100
AcDbEntity
  8
0
 62
     1
100
AcDbBlockReference
  2
*U2
 10
0.0
 20
0.0
 30
0.0
  0
ENDSEC
  0
SECTION
  2
OBJECTS
  0
DICTIONARY
  5
B
330
0
100
AcDbDictionary
281
     1
  3
ACAD_2007HEADERVARS_RT
350
2A6
  3
ACAD_CIP_PREVIOUS_PRODUCT_INFO
350
252
  3
ACAD_COLOR
350
2F
  3
ACAD_DETAILVIEWSTYLE
350
24D
  3
ACAD_GROUP
350
2A
  3
ACAD_LAYOUT
350
11
  3
ACAD_MATERIAL
350
D
  3
ACAD_MLEADERSTYLE
350
249
  3
ACAD_MLINESTYLE
350
2B
  3
ACAD_PLOTSETTINGS
350
2C
  3
ACAD_PLOTSTYLENAME
350
A
  3
ACAD_SCALELIST
350
30
  3
ACAD_SECTIONVIEWSTYLE
350
24B
  3
ACAD_TABLESTYLE
350
31
  3
ACAD_VISUALSTYLE
350
24
  3
ACDB_RECOMPOSE_DATA
350
2A5
  3
AcDbVariableDictionary
350
22D
  0
DICTIONARY
  5
17
330
16
100
AcDbDictionary
280
     1
281
     1
  3
ACAD_LAYERSTATES
360
18
  0
DICTIONARY
  5
7
330
6
100
AcDbDictionary
280
     1
281
     1
  3
ADSK_XREC_LAYER_RECONCILED
360
8
  0
DICTIONARY
  5
33
330
32
100
AcDbDictionary
280
     1
281
     1
  3
ADSK_XREC_LAYER_RECONCILED
360
34
  0
DICTIONARY
  5
D3
330
D2
100
AcDbDictionary
280
     1
281
     1
  3
ADSK_XREC_LAYER_RECONCILED
360
D4
  0
DICTIONARY
  5
3
330
2
100
AcDbDictionary
280
     1
281
     1
  3
ACAD_SORTENTS
360
227
  0
DICTIONARY
  5
5F
330
5E
100
AcDbDictionary
280
     1
281
     1
  3
ACAD_ENHANCEDBLOCK
360
60
  3
AcDbDynamicBlockRoundTripPurgePreventer
360
65
  0
DICTIONARY
  5
159
330
158
100
AcDbDictionary
280
     1
281
     1
  3
ACAD_ENHANCEDBLOCK
360
15A
  3
ACAD_SORTENTS
360
225
  3
AcDbDynamicBlockRoundTripPurgePreventer
360
160
  0
DICTIONARY
  5
1C4
330
1C3
100
AcDbDictionary
280
     1
281
     1
  3
ACAD_SORTENTS
360
226
  0
DICTIONARY
  5
E2
330
E1
100
AcDbDictionary
280
     1
281
     1
  0
DICTIONARY
  5
5B
330
5A
100
AcDbDictionary
280
     1
281
     1
  3
AcDbBlockRepresentation
360
5C
  0
DICTIONARY
  5
155
330
154
100
AcDbDictionary
280
     1
281
     1
  3
AcDbBlockRepresentation
360
156
  0
DICTIONARY
  5
2A6
102
{ACAD_REACTORS
330
B
102
}
330
B
100
AcDbDictionary
281
     1
  3
INTERFEREVPVS
350
2A7
  0
XRECORD
  5
252
102
{ACAD_REACTORS
330
B
102
}
330
B
100
AcDbXrecord
280
     1
300
ACAD_E
300
2014
300
ACAD_E_F_S
  0
DICTIONARY
  5
2F
102
{ACAD_REACTORS
330
B
102
}
330
B
100
AcDbDictionary
281
     1
  0
DICTIONARY
  5
24D
102
{ACAD_REACTORS
330
B
102
}
330
B
100
AcDbDictionary
281
     1
  3
Imperial24
350
24E
  0
DICTIONARY
  5
2A
102
{ACAD_REACTORS
330
B
102
}
330
B
100
AcDbDictionary
281
     1
  0
DICTIONARY
  5
11
102
{ACAD_REACTORS
330
B
102
}
330
B
100
AcDbDictionary
281
     1
  3
Layout1
350
15
  3
Model
350
10
  0
DICTIONARY
  5
D
102
{ACAD_REACTORS
330
B
102
}
330
B
100
AcDbDictionary
281
     1
  3
ByBlock
350
2E
  3
ByLayer
350
2D
  3
Global
350
C
  0
DICTIONARY
  5
249
102
{ACAD_REACTORS
330
B
102
}
330
B
100
AcDbDictionary
281
     1
  3
Standard
350
24A
  0
DICTIONARY
  5
2B
102
{ACAD_REACTORS
330
B
102
}
330
B
100
AcDbDictionary
281
     1
  3
Standard
350
35
  0
DICTIONARY
  5
2C
102
{ACAD_REACTORS
330
B
102
}
330
B
100
AcDbDictionary
281
     1
  0
ACDBDICTIONARYWDFLT
  5
A
102
{ACAD_REACTORS
330
B
102
}
330
B
100
AcDbDictionary
281
     1
  3
Normal
350
9
100
AcDbDictionaryWithDefault
340
9
  0
DICTIONARY
  5
30
102
{ACAD_REACTORS
330
B
102
}
330
B
100
AcDbDictionary
281
     1
  3
A0
350
39
  3
A1
350
3A
  3
A2
350
3B
  3
A3
350
3C
  3
A4
350
3D
  3
A5
350
3E
  3
A6
350
3F
  3
A7
350
40
  3
A8
350
41
  3
A9
350
42
  3
B0
350
43
  3
B1
350
44
  3
B2
350
45
  3
B3
350
46
  3
B4
350
47
  3
B5
350
48
  3
B6
350
49
  3
B7
350
4A
  3
B8
350
4B
  3
B9
350
4C
  3
C0
350
4D
  3
C1
350
4E
  3
C2
350
4F
  3
C3
350
50
  3
C4
350
51
  3
C5
350
52
  3
C6
350
53
  3
C7
350
54
  3
C8
350
55
  3
C9
350
56
  3
D0
350
57
  3
D1
350
58
  3
D2
350
59
  0
DICTIONARY
  5
24B
102
{ACAD_REACTORS
330
B
102
}
330
B
100
AcDbDictionary
281
     1
  3
Imperial24
350
24C
  0
DICTIONARY
  5
31
102
{ACAD_REACTORS
330
B
102
}
330
B
100
AcDbDictionary
281
     1
  3
Standard
350
36
  0
DICTIONARY
  5
24
102
{ACAD_REACTORS
330
B
102
}
330
B
100
AcDbDictionary
281
     1
  3
2dWireframe
350
23
  3
3dWireframe
350
38
  3
Basic
350
237
  3
Brighten
350
23C
  3
ColorChange
350
240
  3
Conceptual
350
23A
  3
Dim
350
23B
  3
EdgeColorOff
350
248
  3
Facepattern
350
23F
  3
Flat
350
233
  3
FlatWithEdges
350
234
  3
Gouraud
350
235
  3
GouraudWithEdges
350
236
  3
Hidden
350
239
  3
JitterOff
350
246
  3
Linepattern
350
23E
  3
OverhangOff
350
247
  3
Realistic
350
37
  3
Shaded
350
245
  3
Shaded with edges
350
244
  3
Shades of Gray
350
241
  3
Sketchy
350
242
  3
Thicken
350
23D
  3
Wireframe
350
238
  3
X-Ray
350
243
  0
XRECORD
  5
2A5
102
{ACAD_REACTORS
330
B
102
}
330
B
100
AcDbXrecord
280
     1
 90
        1
330
36
  0
DICTIONARY
  5
22D
102
{ACAD_REACTORS
330
B
102
}
330
B
100
AcDbDictionary
281
     1
  3
CANNOSCALE
350
230
  3
CMLEADERSTYLE
350
22F
  3
CTABLESTYLE
350
22E
  3
CVIEWDETAILSTYLE
350
2A0
  3
CVIEWSECTIONSTYLE
350
2A1
  3
LIGHTINGUNITS
350
231
  3
MSLTSCALE
350
2A2
  3
SOLIDHIST
350
2A3
  0
DICTIONARY
  5
18
102
{ACAD_REACTORS
330
17
102
}
330
17
100
AcDbDictionary
281
     1
  0
XRECORD
  5
8
102
{ACAD_REACTORS
330
7
102
}
330
7
100
AcDbXrecord
280
     1
290
     1
  0
XRECORD
  5
34
102
{ACAD_REACTORS
330
33
102
}
330
33
100
AcDbXrecord
280
     1
290
     1
  0
XRECORD
  5
D4
102
{ACAD_REACTORS
330
D3
102
}
330
D3
100
AcDbXrecord
280
     1
290
     1
  0
SORTENTSTABLE
  5
227
102
{ACAD_REACTORS
330
3
102
}
330
3
100
AcDbSortentsTable
330
2
  0
ACAD_EVALUATION_GRAPH
  5
60
102
{ACAD_REACTORS
330
5F
102
}
330
5F
100
AcDbEvalGraph
 96
        4
 97
        4
 91
        0
 93
       32
 95
        1
360
61
 92
        0
 92
        0
 92
        1
 92
        2
 91
        1
 93
       32
 95
        2
360
62
 92
       -1
 92
       -1
 92
        0
 92
        0
 91
        2
 93
       32
 95
        3
360
63
 92
        1
 92
        1
 92
       -1
 92
       -1
 91
        3
 93
       32
 95
        4
360
64
 92
        2
 92
        2
 92
       -1
 92
       -1
 92
        0
 93
        0
 94
        1
 91
        1
 91
        0
 92
       -1
 92
       -1
 92
       -1
 92
       -1
 92
       -1
 92
        1
 93
        0
 94
        1
 91
        0
 91
        2
 92
       -1
 92
       -1
 92
       -1
 92
        2
 92
       -1
 92
        2
 93
        0
 94
        1
 91
        0
 91
        3
 92
       -1
 92
       -1
 92
        1
 92
       -1
 92
       -1
  0
ACDB_DYNAMICBLOCKPURGEPREVENTER_VERSION
  5
65
102
{ACAD_REACTORS
330
5F
102
}
330
5F
100
AcDbDynamicBlockPurgePreventer
 70
     1
  0
ACAD_EVALUATION_GRAPH
  5
15A
102
{ACAD_REACTORS
330
159
102
}
330
159
100
AcDbEvalGraph
 96
        4
 97
        4
 91
        0
 93
       32
 95
        1
360
15B
 92
        0
 92
        0
 92
        1
 92
        2
 91
        1
 93
       32
 95
        2
360
15C
 92
       -1
 92
       -1
 92
        0
 92
        0
 91
        2
 93
       32
 95
        3
360
15D
 92
        1
 92
        1
 92
       -1
 92
       -1
 91
        3
 93
       32
 95
        4
360
15E
 92
        2
 92
        2
 92
       -1
 92
       -1
 92
        0
 93
        0
 94
        1
 91
        1
 91
        0
 92
       -1
 92
       -1
 92
       -1
 92
       -1
 92
       -1
 92
        1
 93
        0
 94
        1
 91
        0
 91
        2
 92
       -1
 92
       -1
 92
       -1
 92
        2
 92
       -1
 92
        2
 93
        0
 94
        1
 91
        0
 91
        3
 92
       -1
 92
       -1
 92
        1
 92
       -1
 92
       -1
  0
SORTENTSTABLE
  5
225
102
{ACAD_REACTORS
330
159
102
}
330
159
100
AcDbSortentsTable
330
158
331
197
  5
198
331
19D
  5
19E
331
19E
  5
19F
331
19F
  5
1A0
331
1A0
  5
1A1
331
1A1
  5
1A2
331
1A8
  5
1A9
331
1A2
  5
1A3
331
1A9
  5
1AA
331
1A3
  5
1A4
331
1AA
  5
1AB
331
1A4
  5
1A5
331
1AB
  5
1AC
331
1A5
  5
1A6
331
1AC
  5
1AD
331
1A6
  5
1A7
331
1AD
  5
1AE
331
1A7
  5
1A8
331
1AE
  5
1AF
331
1AF
  5
1B0
331
189
  5
18A
331
1B0
  5
1B1
331
1B1
  5
1B2
331
18A
  5
18B
331
18B
  5
18C
331
1B2
  5
1B3
331
1B8
  5
1B9
331
1B9
  5
1BA
331
1B3
  5
1B4
331
18C
  5
18D
331
18D
  5
18E
331
1B4
  5
1B5
331
1BA
  5
1BB
331
1B5
  5
1B6
331
18E
  5
18F
331
1BB
  5
1BC
331
18F
  5
190
331
1B6
  5
1B7
331
1BC
  5
1BD
331
1B7
  5
1B8
331
190
  5
191
331
1BD
  5
1BE
331
191
  5
192
331
1BE
  5
189
331
192
  5
193
331
198
  5
199
331
193
  5
194
331
199
  5
19A
331
194
  5
195
331
19A
  5
19B
331
195
  5
196
331
19B
  5
19C
331
196
  5
197
331
19C
  5
19D
  0
ACDB_DYNAMICBLOCKPURGEPREVENTER_VERSION
  5
160
102
{ACAD_REACTORS
330
159
102
}
330
159
100
AcDbDynamicBlockPurgePreventer
 70
     1
  0
SORTENTSTABLE
  5
226
102
{ACAD_REACTORS
330
1C4
102
}
330
1C4
100
AcDbSortentsTable
330
1C3
331
20E
  5
20F
331
214
  5
215
331
20F
  5
210
331
215
  5
216
331
216
  5
217
331
217
  5
218
331
1F0
  5
1F1
331
1F1
  5
1F2
331
218
  5
219
331
1F2
  5
1F3
331
219
  5
21A
331
220
  5
221
331
1F3
  5
1F4
331
21A
  5
21B
331
221
  5
222
331
1F4
  5
1F5
331
1EE
  5
1EF
331
21B
  5
21C
331
222
  5
223
331
1F5
  5
1F6
331
1EF
  5
1F0
331
21C
  5
21D
331
223
  5
1EE
331
1F6
  5
1F7
331
21D
  5
21E
331
21E
  5
21F
331
1F7
  5
1F8
331
1F8
  5
1F9
331
21F
  5
220
331
1F9
  5
1FA
331
200
  5
201
331
1FA
  5
1FB
331
1FB
  5
1FC
331
201
  5
202
331
202
  5
203
331
1FC
  5
1FD
331
1FD
  5
1FE
331
203
  5
204
331
204
  5
205
331
1FE
  5
1FF
331
1FF
  5
200
331
205
  5
206
331
206
  5
207
331
207
  5
208
331
208
  5
209
331
209
  5
20A
331
20A
  5
20B
331
210
  5
211
331
20B
  5
20C
331
211
  5
212
331
20C
  5
20D
331
212
  5
213
331
20D
  5
20E
331
213
  5
214
  0
DICTIONARY
  5
5C
102
{ACAD_REACTORS
330
5B
102
}
330
5B
100
AcDbDictionary
280
     1
281
     1
  3
AcDbRepData
360
5D
  3
AppDataCache
360
DE
  0
DICTIONARY
  5
156
102
{ACAD_REACTORS
330
155
102
}
330
155
100
AcDbDictionary
280
     1
281
     1
  3
AcDbRepData
360
157
  3
AppDataCache
360
1C0
  0
XRECORD
  5
2A7
102
{ACAD_REACTORS
330
2A6
102
}
330
2A6
100
AcDbXrecord
280
     1
340
38
  0
ACDBDETAILVIEWSTYLE
  5
24E
102
{ACAD_XDICTIONARY
360
2E6
102
}
102
{ACAD_REACTORS
330
24D
102
}
330
24D
100
AcDbModelDocViewStyle
 70
     0
  3
Imperial24
290
     0
100
AcDbDetailViewStyle
 70
     0
 71
     0
 90
        3
 71
     1
340
1A
 62
   256
 40
0.24
340
0
 62
   256
 40
0.24
300

 40
0.36
280
     3
 71
     2
340
E
 90
       25
 62
   256
 71
     3
340
1A
 62
   256
 40
0.24
 90
        1
 40
0.75
 90
        1
300
%<\AcVar ViewType \f "%tc1">% %<\AcVar ViewDetailId>%\PSCALE %<\AcVar ViewScale \f "%sn">%
 71
     4
340
E
 90
       25
 62
   256
340
E
 90
       25
 62
   256
280
     0
  0
LAYOUT
  5
15
102
{ACAD_REACTORS
330
11
102
}
330
11
100
AcDbPlotSettings
  1

  2
C:\Documents and Settings\meburrig\Application Data\Autodesk\AutoCAD Electrical 2007\R17.0\enu\plotters\HP LaserJet 5100.pc3
  4

  6

 40
0.0
 41
0.0
 42
0.0
 43
0.0
 44
0.0
 45
0.0
 46
0.0
 47
0.0
 48
0.0
 49
0.0
140
0.0
141
0.0
142
1.0
143
1.0
 70
   688
 72
     0
 73
     0
 74
     5
  7
R14Import.ctb
 75
    16
147
1.0
 76
     0
 77
     2
 78
   300
148
0.0
149
0.0
100
AcDbLayout
  1
Layout1
 70
     1
 71
     1
 10
0.0
 20
0.0
 11
12.0
 21
9.0
 12
0.0
 22
0.0
 32
0.0
 14
1.000000000000000E+20
 24
1.000000000000000E+20
 34
1.000000000000000E+20
 15
-1.000000000000000E+20
 25
-1.000000000000000E+20
 35
-1.000000000000000E+20
146
0.0
 13
0.0
 23
0.0
 33
0.0
 16
1.0
 26
0.0
 36
0.0
 17
0.0
 27
1.0
 37
0.0
 76
     0
330
12
  0
LAYOUT
  5
10
102
{ACAD_REACTORS
330
11
102
}
330
11
100
AcDbPlotSettings
  1

  2
C:\Documents and Settings\meburrig\Application Data\Autodesk\AutoCAD Electrical 2007\R17.0\enu\plotters\HP LaserJet 5100.pc3
  4

  6

 40
0.0
 41
0.0
 42
0.0
 43
0.0
 44
0.0
 45
0.0
 46
0.0
 47
0.0
 48
0.0
 49
0.0
140
0.0
141
0.0
142
1.0
143
1.0
 70
  1712
 72
     0
 73
     0
 74
     0
  7
R14Import.ctb
 75
     0
147
1.0
 76
     0
 77
     2
 78
   300
148
0.0
149
0.0
100
AcDbLayout
  1
Model
 70
     1
 71
     0
 10
0.0
 20
0.0
 11
12.0
 21
9.0
 12
0.0
 22
0.0
 32
0.0
 14
0.0
 24
0.0
 34
0.0
 15
0.0
 25
0.0
 35
0.0
146
0.0
 13
0.0
 23
0.0
 33
0.0
 16
1.0
 26
0.0
 36
0.0
 17
0.0
 27
1.0
 37
0.0
 76
     0
330
2
331
22
  0
MATERIAL
  5
2E
102
{ACAD_XDICTIONARY
360
2AE
102
}
102
{ACAD_REACTORS
330
D
102
}
330
D
100
AcDbMaterial
  1
ByBlock
 73
     1
 78
     1
172
     1
176
     1
270
     1
274
     1
  0
MATERIAL
  5
2D
102
{ACAD_XDICTIONARY
360
2AC
102
}
102
{ACAD_REACTORS
330
D
102
}
330
D
100
AcDbMaterial
  1
ByLayer
 73
     1
 78
     1
172
     1
176
     1
270
     1
274
     1
  0
MATERIAL
  5
C
102
{ACAD_XDICTIONARY
360
2A8
102
}
102
{ACAD_REACTORS
330
D
102
}
330
D
100
AcDbMaterial
  1
Global
 73
     1
 78
     1
172
     1
176
     1
270
     1
274
     1
  0
MLEADERSTYLE
  5
24A
102
{ACAD_XDICTIONARY
360
2E2
102
}
102
{ACAD_REACTORS
330
249
102
}
330
249
100
AcDbMLeaderStyle
170
     2
171
     1
172
     0
 90
        2
 40
0.0
 41
0.0
173
     1
 91
-1056964608
340
1D
 92
       -2
290
     1
 42
0.09
291
     1
 43
0.36
  3
Standard
 44
0.18
300

342
1A
174
     1
178
     6
175
     1
176
     0
 93
-1056964608
 45
0.18
292
     0
297
     0
 46
0.18
 94
-1056964608
 47
1.0
 49
1.0
140
1.0
293
     1
141
0.0
294
     1
177
     0
142
1.0
295
     0
296
     0
143
0.125
1001
ACAD_MLEADERVER
1070
     2
  0
MLINESTYLE
  5
35
102
{ACAD_REACTORS
330
2B
102
}
330
2B
100
AcDbMlineStyle
  2
STANDARD
 70
     0
  3

 62
   256
 51
90.0
 52
90.0
 71
     2
 49
0.5
 62
   256
  6
BYLAYER
 49
-0.5
 62
   256
  6
BYLAYER
  0
ACDBPLACEHOLDER
  5
9
102
{ACAD_REACTORS
330
A
102
}
330
A
  0
SCALE
  5
39
102
{ACAD_REACTORS
330
30
102
}
330
30
100
AcDbScale
 70
     0
300
1:1
140
1.0
141
1.0
290
     1
  0
SCALE
  5
3A
102
{ACAD_REACTORS
330
30
102
}
330
30
100
AcDbScale
 70
     0
300
1:2
140
1.0
141
2.0
290
     0
  0
SCALE
  5
3B
102
{ACAD_REACTORS
330
30
102
}
330
30
100
AcDbScale
 70
     0
300
1:4
140
1.0
141
4.0
290
     0
  0
SCALE
  5
3C
102
{ACAD_REACTORS
330
30
102
}
330
30
100
AcDbScale
 70
     0
300
1:5
140
1.0
141
5.0
290
     0
  0
SCALE
  5
3D
102
{ACAD_REACTORS
330
30
102
}
330
30
100
AcDbScale
 70
     0
300
1:8
140
1.0
141
8.0
290
     0
  0
SCALE
  5
3E
102
{ACAD_REACTORS
330
30
102
}
330
30
100
AcDbScale
 70
     0
300
1:10
140
1.0
141
10.0
290
     0
  0
SCALE
  5
3F
102
{ACAD_REACTORS
330
30
102
}
330
30
100
AcDbScale
 70
     0
300
1:16
140
1.0
141
16.0
290
     0
  0
SCALE
  5
40
102
{ACAD_REACTORS
330
30
102
}
330
30
100
AcDbScale
 70
     0
300
1:20
140
1.0
141
20.0
290
     0
  0
SCALE
  5
41
102
{ACAD_REACTORS
330
30
102
}
330
30
100
AcDbScale
 70
     0
300
1:30
140
1.0
141
30.0
290
     0
  0
SCALE
  5
42
102
{ACAD_REACTORS
330
30
102
}
330
30
100
AcDbScale
 70
     0
300
1:40
140
1.0
141
40.0
290
     0
  0
SCALE
  5
43
102
{ACAD_REACTORS
330
30
102
}
330
30
100
AcDbScale
 70
     0
300
1:50
140
1.0
141
50.0
290
     0
  0
SCALE
  5
44
102
{ACAD_REACTORS
330
30
102
}
330
30
100
AcDbScale
 70
     0
300
1:100
140
1.0
141
100.0
290
     0
  0
SCALE
  5
45
102
{ACAD_REACTORS
330
30
102
}
330
30
100
AcDbScale
 70
     0
300
2:1
140
2.0
141
1.0
290
     0
  0
SCALE
  5
46
102
{ACAD_REACTORS
330
30
102
}
330
30
100
AcDbScale
 70
     0
300
4:1
140
4.0
141
1.0
290
     0
  0
SCALE
  5
47
102
{ACAD_REACTORS
330
30
102
}
330
30
100
AcDbScale
 70
     0
300
8:1
140
8.0
141
1.0
290
     0
  0
SCALE
  5
48
102
{ACAD_REACTORS
330
30
102
}
330
30
100
AcDbScale
 70
     0
300
10:1
140
10.0
141
1.0
290
     0
  0
SCALE
  5
49
102
{ACAD_REACTORS
330
30
102
}
330
30
100
AcDbScale
 70
     0
300
100:1
140
100.0
141
1.0
290
     0
  0
SCALE
  5
4A
102
{ACAD_REACTORS
330
30
102
}
330
30
100
AcDbScale
 70
     0
300
1/128" = 1'-0"
140
0.0078125
141
12.0
290
     0
  0
SCALE
  5
4B
102
{ACAD_REACTORS
330
30
102
}
330
30
100
AcDbScale
 70
     0
300
1/64" = 1'-0"
140
0.015625
141
12.0
290
     0
  0
SCALE
  5
4C
102
{ACAD_REACTORS
330
30
102
}
330
30
100
AcDbScale
 70
     0
300
1/32" = 1'-0"
140
0.03125
141
12.0
290
     0
  0
SCALE
  5
4D
102
{ACAD_REACTORS
330
30
102
}
330
30
100
AcDbScale
 70
     0
300
1/16" = 1'-0"
140
0.0625
141
12.0
290
     0
  0
SCALE
  5
4E
102
{ACAD_REACTORS
330
30
102
}
330
30
100
AcDbScale
 70
     0
300
3/32" = 1'-0"
140
0.09375
141
12.0
290
     0
  0
SCALE
  5
4F
102
{ACAD_REACTORS
330
30
102
}
330
30
100
AcDbScale
 70
     0
300
1/8" = 1'-0"
140
0.125
141
12.0
290
     0
  0
SCALE
  5
50
102
{ACAD_REACTORS
330
30
102
}
330
30
100
AcDbScale
 70
     0
300
3/16" = 1'-0"
140
0.1875
141
12.0
290
     0
  0
SCALE
  5
51
102
{ACAD_REACTORS
330
30
102
}
330
30
100
AcDbScale
 70
     0
300
1/4" = 1'-0"
140
0.25
141
12.0
290
     0
  0
SCALE
  5
52
102
{ACAD_REACTORS
330
30
102
}
330
30
100
AcDbScale
 70
     0
300
3/8" = 1'-0"
140
0.375
141
12.0
290
     0
  0
SCALE
  5
53
102
{ACAD_REACTORS
330
30
102
}
330
30
100
AcDbScale
 70
     0
300
1/2" = 1'-0"
140
0.5
141
12.0
290
     0
  0
SCALE
  5
54
102
{ACAD_REACTORS
330
30
102
}
330
30
100
AcDbScale
 70
     0
300
3/4" = 1'-0"
140
0.75
141
12.0
290
     0
  0
SCALE
  5
55
102
{ACAD_REACTORS
330
30
102
}
330
30
100
AcDbScale
 70
     0
300
1" = 1'-0"
140
1.0
141
12.0
290
     0
  0
SCALE
  5
56
102
{ACAD_REACTORS
330
30
102
}
330
30
100
AcDbScale
 70
     0
300
1-1/2" = 1'-0"
140
1.5
141
12.0
290
     0
  0
SCALE
  5
57
102
{ACAD_REACTORS
330
30
102
}
330
30
100
AcDbScale
 70
     0
300
3" = 1'-0"
140
3.0
141
12.0
290
     0
  0
SCALE
  5
58
102
{ACAD_REACTORS
330
30
102
}
330
30
100
AcDbScale
 70
     0
300
6" = 1'-0"
140
6.0
141
12.0
290
     0
  0
SCALE
  5
59
102
{ACAD_REACTORS
330
30
102
}
330
30
100
AcDbScale
 70
     0
300
1'-0" = 1'-0"
140
12.0
141
12.0
290
     0
  0
ACDBSECTIONVIEWSTYLE
  5
24C
102
{ACAD_XDICTIONARY
360
2E4
102
}
102
{ACAD_REACTORS
330
24B
102
}
330
24B
100
AcDbModelDocViewStyle
 70
     0
  3
Imperial24
290
     0
100
AcDbSectionViewStyle
 70
     0
 71
     0
 90
       78
 71
     1
340
1A
 62
   256
 40
0.24
340
0
340
0
 62
   256
 40
0.24
300
I, O, Q, S, X, Z
 40
0.48
 90
        3
 40
0.18
 90
        1
 71
     2
340
E
 90
       25
 62
   256
340
E
 90
       50
 62
   256
 40
0.24
 40
0.0
 40
0.24
 71
     3
340
1A
 62
   256
 40
0.24
 90
        1
 40
0.75
 90
        1
300
%<\AcVar ViewType \f "%tc1">% %<\AcVar ViewSectionStartId>%-%<\AcVar ViewSectionEndId>%\PSCALE %<\AcVar ViewScale \f "%sn">%
 71
     4
 62
   256
 62
   257
300
ANSI31
 40
1.0
 90
        0
290
     0
290
     0
 90
        6
 40
0.0
 40
1.570796326794896
 40
0.2617993877991494
 40
1.308996938995747
 40
-0.2617993877991494
 40
1.832595714594046
  0
TABLESTYLE
  5
36
102
{ACAD_XDICTIONARY
360
22A
102
}
102
{ACAD_REACTORS
330
31
102
}
330
31
100
AcDbTableStyle
  3
Standard
 70
     0
 71
     0
 40
0.06
 41
0.06
280
     0
281
     0
  7
STANDARD
140
0.18
170
     2
 62
     0
 63
     7
283
     0
274
    -2
284
     1
 64
     0
275
    -2
285
     1
 65
     0
276
    -2
286
     1
 66
     0
277
    -2
287
     1
 67
     0
278
    -2
288
     1
 68
     0
279
    -2
289
     1
 69
     0
  7
STANDARD
140
0.25
170
     5
 62
     0
 63
     7
283
     0
274
    -2
284
     1
 64
     0
275
    -2
285
     1
 65
     0
276
    -2
286
     1
 66
     0
277
    -2
287
     1
 67
     0
278
    -2
288
     1
 68
     0
279
    -2
289
     1
 69
     0
  7
STANDARD
140
0.18
170
     5
 62
     0
 63
     7
283
     0
274
    -2
284
     1
 64
     0
275
    -2
285
     1
 65
     0
276
    -2
286
     1
 66
     0
277
    -2
287
     1
 67
     0
278
    -2
288
     1
 68
     0
279
    -2
289
     1
 69
     0
  0
VISUALSTYLE
  5
23
102
{ACAD_XDICTIONARY
360
2AA
102
}
102
{ACAD_REACTORS
330
24
102
}
330
24
100
AcDbVisualStyle
  2
2dWireframe
 70
     4
 71
     0
 72
     2
 73
     0
 90
        0
 40
-0.6
 41
-30.0
 62
     5
 63
     7
421
 16777215
 74
     1
 91
        4
 64
     7
 65
   257
 75
     1
175
     1
 42
1.0
 92
        0
 66
   257
 43
1.0
 76
     1
 77
     6
 78
     2
 67
     7
 79
     5
170
     0
171
     0
290
     0
174
     0
 93
        1
 44
0.0
173
     0
291
     0
 45
0.0
1001
ACAD
1000
AcDbSavedByObjectVersion
1070
     0
  0
VISUALSTYLE
  5
38
102
{ACAD_XDICTIONARY
360
2B3
102
}
102
{ACAD_REACTORS
330
24
102
}
330
24
100
AcDbVisualStyle
  2
3dWireframe
 70
     5
 71
     0
 72
     2
 73
     0
 90
        0
 40
-0.6
 41
-30.0
 62
     5
 63
     7
421
 16777215
 74
     1
 91
        4
 64
     7
 65
   257
 75
     1
175
     1
 42
1.0
 92
        0
 66
   257
 43
1.0
 76
     1
 77
     6
 78
     2
 67
     7
 79
     5
170
     0
171
     0
290
     0
174
     0
 93
        1
 44
0.0
173
     0
291
     0
 45
0.0
1001
ACAD
1000
AcDbSavedByObjectVersion
1070
     0
  0
VISUALSTYLE
  5
237
102
{ACAD_XDICTIONARY
360
2BD
102
}
102
{ACAD_REACTORS
330
24
102
}
330
24
100
AcDbVisualStyle
  2
Basic
 70
     7
 71
     1
 72
     0
 73
     1
 90
        0
 40
-0.6
 41
-30.0
 62
     5
 63
     7
421
 16777215
 74
     0
 91
        4
 64
     7
 65
   257
 75
     1
175
     1
 42
1.0
 92
        8
 66
     7
 43
1.0
 76
     1
 77
     6
 78
     2
 67
     7
 79
     5
170
     0
171
     0
290
     0
174
     0
 93
        1
 44
0.0
173
     0
291
     1
 45
0.0
1001
ACAD
1000
AcDbSavedByObjectVersion
1070
     0
  0
VISUALSTYLE
  5
23C
102
{ACAD_XDICTIONARY
360
2C7
102
}
102
{ACAD_REACTORS
330
24
102
}
330
24
100
AcDbVisualStyle
  2
Brighten
 70
    12
 71
     2
 72
     2
 73
     0
 90
        0
 40
-0.6
 41
-30.0
 62
     5
 63
     7
421
 16777215
 74
     1
 91
        4
 64
     7
 65
   257
 75
     1
175
     1
 42
1.0
 92
        8
 66
     7
 43
1.0
 76
     1
 77
     6
 78
     2
 67
     7
 79
     5
170
     0
171
     0
290
     0
174
     0
 93
        1
 44
50.0
173
     0
291
     1
 45
0.0
1001
ACAD
1000
AcDbSavedByObjectVersion
1070
     0
  0
VISUALSTYLE
  5
240
102
{ACAD_XDICTIONARY
360
2CF
102
}
102
{ACAD_REACTORS
330
24
102
}
330
24
100
AcDbVisualStyle
  2
ColorChange
 70
    16
 71
     2
 72
     2
 73
     3
 90
        0
 40
-0.6
 41
-30.0
 62
     5
 63
     8
421
  8421504
 74
     1
 91
        4
 64
     7
 65
   257
 75
     1
175
     1
 42
1.0
 92
        8
 66
     8
424
  8421504
 43
1.0
 76
     1
 77
     6
 78
     2
 67
     7
 79
     5
170
     0
171
     0
290
     0
174
     0
 93
        1
 44
0.0
173
     0
291
     1
 45
0.0
1001
ACAD
1000
AcDbSavedByObjectVersion
1070
     0
  0
VISUALSTYLE
  5
23A
102
{ACAD_XDICTIONARY
360
2C3
102
}
102
{ACAD_REACTORS
330
24
102
}
330
24
100
AcDbVisualStyle
  2
Conceptual
 70
     9
 71
     3
 72
     2
 73
     0
 90
        0
 40
-0.6
 41
-30.0
 62
     5
 63
     7
421
 16777215
 74
     2
 91
        2
 64
     7
 65
   257
 75
     1
175
     1
 42
179.0
 92
        8
 66
     7
 43
1.0
 76
     1
 77
     6
 78
     2
 67
     7
 79
     3
170
     0
171
     0
290
     0
174
     0
 93
        1
 44
0.0
173
     0
291
     0
 45
0.0
1001
ACAD
1000
AcDbSavedByObjectVersion
1070
     0
  0
VISUALSTYLE
  5
23B
102
{ACAD_XDICTIONARY
360
2C5
102
}
102
{ACAD_REACTORS
330
24
102
}
330
24
100
AcDbVisualStyle
  2
Dim
 70
    11
 71
     2
 72
     2
 73
     0
 90
        0
 40
-0.6
 41
-30.0
 62
     5
 63
     7
421
 16777215
 74
     1
 91
        4
 64
     7
 65
   257
 75
     1
175
     1
 42
1.0
 92
        8
 66
     7
 43
1.0
 76
     1
 77
     6
 78
     2
 67
     7
 79
     5
170
     0
171
     0
290
     0
174
     0
 93
        1
 44
-50.0
173
     0
291
     1
 45
0.0
1001
ACAD
1000
AcDbSavedByObjectVersion
1070
     0
  0
VISUALSTYLE
  5
248
102
{ACAD_XDICTIONARY
360
2DF
102
}
102
{ACAD_REACTORS
330
24
102
}
330
24
100
AcDbVisualStyle
  2
EdgeColorOff
 70
    22
 71
     2
 72
     2
 73
     0
 90
        0
 40
-0.6
 41
-30.0
 62
     5
 63
     7
421
 16777215
 74
     1
 91
        4
 64
     7
 65
   257
 75
     1
175
     1
 42
1.0
 92
        8
 66
     7
 43
1.0
 76
     1
 77
     6
 78
     2
 67
     7
 79
     5
170
     0
171
     0
290
     0
174
     0
 93
        1
 44
0.0
173
     0
291
     1
 45
0.0
1001
ACAD
1000
AcDbSavedByObjectVersion
1070
     0
  0
VISUALSTYLE
  5
23F
102
{ACAD_XDICTIONARY
360
2CD
102
}
102
{ACAD_REACTORS
330
24
102
}
330
24
100
AcDbVisualStyle
  2
Facepattern
 70
    15
 71
     2
 72
     2
 73
     0
 90
        0
 40
-0.6
 41
-30.0
 62
     5
 63
     7
421
 16777215
 74
     1
 91
        4
 64
     7
 65
   257
 75
     1
175
     1
 42
1.0
 92
        8
 66
     7
 43
1.0
 76
     1
 77
     6
 78
     2
 67
     7
 79
     5
170
     0
171
     0
290
     0
174
     0
 93
        1
 44
0.0
173
     0
291
     1
 45
0.0
1001
ACAD
1000
AcDbSavedByObjectVersion
1070
     0
  0
VISUALSTYLE
  5
233
102
{ACAD_XDICTIONARY
360
2B5
102
}
102
{ACAD_REACTORS
330
24
102
}
330
24
100
AcDbVisualStyle
  2
Flat
 70
     0
 71
     2
 72
     1
 73
     1
 90
        2
 40
-0.6
 41
30.0
 62
     5
 63
     7
421
 16777215
 74
     0
 91
        0
 64
     7
 65
   257
 75
     1
175
     1
 42
1.0
 92
        8
 66
     7
 43
1.0
 76
     1
 77
     6
 78
     2
 67
     7
 79
     5
170
     0
171
     0
290
     0
174
     0
 93
       13
 44
0.0
173
     0
291
     1
 45
0.0
1001
ACAD
1000
AcDbSavedByObjectVersion
1070
     0
  0
VISUALSTYLE
  5
234
102
{ACAD_XDICTIONARY
360
2B7
102
}
102
{ACAD_REACTORS
330
24
102
}
330
24
100
AcDbVisualStyle
  2
FlatWithEdges
 70
     1
 71
     2
 72
     1
 73
     1
 90
        2
 40
-0.6
 41
30.0
 62
     5
 63
     7
421
 16777215
 74
     1
 91
        0
 64
     7
 65
   257
 75
     1
175
     1
 42
1.0
 92
        0
 66
   257
 43
1.0
 76
     1
 77
     6
 78
     2
 67
     7
 79
     5
170
     0
171
     0
290
     0
174
     0
 93
       13
 44
0.0
173
     0
291
     1
 45
0.0
1001
ACAD
1000
AcDbSavedByObjectVersion
1070
     0
  0
VISUALSTYLE
  5
235
102
{ACAD_XDICTIONARY
360
2B9
102
}
102
{ACAD_REACTORS
330
24
102
}
330
24
100
AcDbVisualStyle
  2
Gouraud
 70
     2
 71
     2
 72
     2
 73
     1
 90
        2
 40
-0.6
 41
30.0
 62
     5
 63
     7
421
 16777215
 74
     0
 91
        0
 64
     7
 65
   257
 75
     1
175
     1
 42
1.0
 92
        0
 66
     7
 43
1.0
 76
     1
 77
     6
 78
     2
 67
     7
 79
     5
170
     0
171
     0
290
     0
174
     0
 93
       13
 44
0.0
173
     0
291
     1
 45
0.0
1001
ACAD
1000
AcDbSavedByObjectVersion
1070
     0
  0
VISUALSTYLE
  5
236
102
{ACAD_XDICTIONARY
360
2BB
102
}
102
{ACAD_REACTORS
330
24
102
}
330
24
100
AcDbVisualStyle
  2
GouraudWithEdges
 70
     3
 71
     2
 72
     2
 73
     1
 90
        2
 40
-0.6
 41
30.0
 62
     5
 63
     7
421
 16777215
 74
     1
 91
        0
 64
     7
 65
   257
 75
     1
175
     1
 42
1.0
 92
        0
 66
   257
 43
1.0
 76
     1
 77
     6
 78
     2
 67
     7
 79
     5
170
     0
171
     0
290
     0
174
     0
 93
       13
 44
0.0
173
     0
291
     1
 45
0.0
1001
ACAD
1000
AcDbSavedByObjectVersion
1070
     0
  0
VISUALSTYLE
  5
239
102
{ACAD_XDICTIONARY
360
2C1
102
}
102
{ACAD_REACTORS
330
24
102
}
330
24
100
AcDbVisualStyle
  2
Hidden
 70
     6
 71
     1
 72
     2
 73
     2
 90
        0
 40
-0.6
 41
-30.0
 62
     5
 63
     7
421
 16777215
 74
     2
 91
        2
 64
     7
 65
   257
 75
     2
175
     1
 42
40.0
 92
        0
 66
   257
 43
1.0
 76
     1
 77
     6
 78
     2
 67
     7
 79
     3
170
     0
171
     0
290
     0
174
     0
 93
        1
 44
0.0
173
     0
291
     0
 45
0.0
1001
ACAD
1000
AcDbSavedByObjectVersion
1070
     0
  0
VISUALSTYLE
  5
246
102
{ACAD_XDICTIONARY
360
2DB
102
}
102
{ACAD_REACTORS
330
24
102
}
330
24
100
AcDbVisualStyle
  2
JitterOff
 70
    20
 71
     2
 72
     2
 73
     0
 90
        0
 40
-0.6
 41
-30.0
 62
     5
 63
     7
421
 16777215
 74
     1
 91
        4
 64
     7
 65
   257
 75
     1
175
     1
 42
1.0
 92
       10
 66
     7
 43
1.0
 76
     1
 77
     6
 78
     2
 67
     7
 79
     5
170
     0
171
     0
290
     0
174
     0
 93
        1
 44
0.0
173
     0
291
     1
 45
0.0
1001
ACAD
1000
AcDbSavedByObjectVersion
1070
     0
  0
VISUALSTYLE
  5
23E
102
{ACAD_XDICTIONARY
360
2CB
102
}
102
{ACAD_REACTORS
330
24
102
}
330
24
100
AcDbVisualStyle
  2
Linepattern
 70
    14
 71
     2
 72
     2
 73
     0
 90
        0
 40
-0.6
 41
-30.0
 62
     5
 63
     7
421
 16777215
 74
     1
 91
        4
 64
     7
 65
   257
 75
     7
175
     7
 42
1.0
 92
        8
 66
     7
 43
1.0
 76
     1
 77
     6
 78
     2
 67
     7
 79
     5
170
     0
171
     0
290
     0
174
     0
 93
        1
 44
0.0
173
     0
291
     1
 45
0.0
1001
ACAD
1000
AcDbSavedByObjectVersion
1070
     0
  0
VISUALSTYLE
  5
247
102
{ACAD_XDICTIONARY
360
2DD
102
}
102
{ACAD_REACTORS
330
24
102
}
330
24
100
AcDbVisualStyle
  2
OverhangOff
 70
    21
 71
     2
 72
     2
 73
     0
 90
        0
 40
-0.6
 41
-30.0
 62
     5
 63
     7
421
 16777215
 74
     1
 91
        4
 64
     7
 65
   257
 75
     1
175
     1
 42
1.0
 92
        9
 66
     7
 43
1.0
 76
     1
 77
     6
 78
     2
 67
     7
 79
     5
170
     0
171
     0
290
     0
174
     0
 93
        1
 44
0.0
173
     0
291
     1
 45
0.0
1001
ACAD
1000
AcDbSavedByObjectVersion
1070
     0
  0
VISUALSTYLE
  5
37
102
{ACAD_XDICTIONARY
360
2B1
102
}
102
{ACAD_REACTORS
330
24
102
}
330
24
100
AcDbVisualStyle
  2
Realistic
 70
     8
 71
     2
 72
     2
 73
     0
 90
        0
 40
-0.6
 41
-30.0
 62
     5
 63
     7
421
 16777215
 74
     1
 91
        0
 64
     7
 65
   257
 75
     1
175
     1
 42
1.0
 92
        8
 66
     8
424
  7895160
 43
1.0
 76
     1
 77
     6
 78
     2
 67
     7
 79
     5
170
     0
171
     0
290
     0
174
     0
 93
       13
 44
0.0
173
     0
291
     0
 45
0.0
1001
ACAD
1000
AcDbSavedByObjectVersion
1070
     0
  0
VISUALSTYLE
  5
245
102
{ACAD_XDICTIONARY
360
2D9
102
}
102
{ACAD_REACTORS
330
24
102
}
330
24
100
AcDbVisualStyle
  2
Shaded
 70
    27
 71
     2
 72
     2
 73
     1
 90
        2
 40
-0.6
 41
30.0
 62
     5
 63
     7
421
 16777215
 74
     0
 91
        4
 64
     7
 65
   257
 75
     1
175
     1
 42
1.0
 92
        8
 66
   257
 43
1.0
 76
     1
 77
     6
 78
     2
 67
     8
425
  7895160
 79
     3
170
     0
171
     0
290
     0
174
     0
 93
        5
 44
0.0
173
     0
291
     0
 45
0.0
1001
ACAD
1000
AcDbSavedByObjectVersion
1070
     0
  0
VISUALSTYLE
  5
244
102
{ACAD_XDICTIONARY
360
2D7
102
}
102
{ACAD_REACTORS
330
24
102
}
330
24
100
AcDbVisualStyle
  2
Shaded with edges
 70
    26
 71
     2
 72
     2
 73
     1
 90
        2
 40
-0.6
 41
30.0
 62
     5
 63
     7
421
 16777215
 74
     1
 91
       10
 64
     7
 65
   257
 75
     2
175
     1
 42
1.0
 92
        8
 66
   257
 43
1.0
 76
     1
 77
     6
 78
     2
 67
     7
 79
     3
170
     0
171
     0
290
     0
174
     0
 93
        5
 44
0.0
173
     0
291
     0
 45
0.0
1001
ACAD
1000
AcDbSavedByObjectVersion
1070
     0
  0
VISUALSTYLE
  5
241
102
{ACAD_XDICTIONARY
360
2D1
102
}
102
{ACAD_REACTORS
330
24
102
}
330
24
100
AcDbVisualStyle
  2
Shades of Gray
 70
    23
 71
     2
 72
     2
 73
     3
 90
        0
 40
-0.6
 41
-30.0
 62
     5
 63
     7
421
 16777215
 74
     2
 91
        2
 64
     7
 65
     7
 75
     1
175
     1
 42
40.0
 92
        8
 66
     7
 43
1.0
 76
     1
 77
     6
 78
     2
 67
     7
 79
     3
170
     0
171
     0
290
     0
174
     0
 93
        1
 44
0.0
173
     0
291
     0
 45
0.0
1001
ACAD
1000
AcDbSavedByObjectVersion
1070
     0
  0
VISUALSTYLE
  5
242
102
{ACAD_XDICTIONARY
360
2D3
102
}
102
{ACAD_REACTORS
330
24
102
}
330
24
100
AcDbVisualStyle
  2
Sketchy
 70
    24
 71
     1
 72
     2
 73
     2
 90
        0
 40
-0.6
 41
-30.0
 62
     5
 63
     7
421
 16777215
 74
     2
 91
        2
 64
     7
 65
     7
 75
     1
175
     1
 42
40.0
 92
       11
 66
     7
 43
1.0
 76
     1
 77
     6
 78
     2
 67
     7
 79
     6
170
     0
171
     0
290
     0
174
     0
 93
        1
 44
0.0
173
     0
291
     0
 45
0.0
1001
ACAD
1000
AcDbSavedByObjectVersion
1070
     0
  0
VISUALSTYLE
  5
23D
102
{ACAD_XDICTIONARY
360
2C9
102
}
102
{ACAD_REACTORS
330
24
102
}
330
24
100
AcDbVisualStyle
  2
Thicken
 70
    13
 71
     2
 72
     2
 73
     0
 90
        0
 40
-0.6
 41
-30.0
 62
     5
 63
     7
421
 16777215
 74
     1
 91
        4
 64
     7
 65
   257
 75
     1
175
     1
 42
1.0
 92
       12
 66
     7
 43
1.0
 76
     1
 77
     6
 78
     2
 67
     7
 79
     5
170
     0
171
     0
290
     0
174
     0
 93
        1
 44
0.0
173
     0
291
     1
 45
0.0
1001
ACAD
1000
AcDbSavedByObjectVersion
1070
     0
  0
VISUALSTYLE
  5
238
102
{ACAD_XDICTIONARY
360
2BF
102
}
102
{ACAD_REACTORS
330
24
102
}
330
24
100
AcDbVisualStyle
  2
Wireframe
 70
     5
 71
     0
 72
     2
 73
     0
 90
        0
 40
-0.6
 41
-30.0
 62
     5
 63
     7
421
 16777215
 74
     1
 91
        4
 64
     7
 65
   257
 75
     1
175
     1
 42
1.0
 92
        0
 66
   257
 43
1.0
 76
     1
 77
     6
 78
     2
 67
     7
 79
     3
170
     0
171
     0
290
     0
174
     0
 93
        1
 44
0.0
173
     0
291
     0
 45
0.0
1001
ACAD
1000
AcDbSavedByObjectVersion
1070
     0
  0
VISUALSTYLE
  5
243
102
{ACAD_XDICTIONARY
360
2D5
102
}
102
{ACAD_REACTORS
330
24
102
}
330
24
100
AcDbVisualStyle
  2
X-Ray
 70
    25
 71
     2
 72
     2
 73
     1
 90
        1
 40
0.5
 41
-30.0
 62
     5
 63
     7
421
 16777215
 74
     1
 91
        0
 64
     7
 65
   257
 75
     1
175
     1
 42
1.0
 92
        8
 66
     7
 43
1.0
 76
     1
 77
     6
 78
     2
 67
     7
 79
     3
170
     0
171
     0
290
     0
174
     0
 93
       13
 44
0.0
173
     0
291
     0
 45
0.0
1001
ACAD
1000
AcDbSavedByObjectVersion
1070
     0
  0
DICTIONARYVAR
  5
230
102
{ACAD_REACTORS
330
22D
102
}
330
22D
100
DictionaryVariables
280
     0
  1
1:1
  0
DICTIONARYVAR
  5
22F
102
{ACAD_REACTORS
330
22D
102
}
330
22D
100
DictionaryVariables
280
     0
  1
STANDARD
  0
DICTIONARYVAR
  5
22E
102
{ACAD_REACTORS
330
22D
102
}
330
22D
100
DictionaryVariables
280
     0
  1
STANDARD
  0
DICTIONARYVAR
  5
2A0
102
{ACAD_REACTORS
330
22D
102
}
330
22D
100
DictionaryVariables
280
     0
  1
Imperial24
  0
DICTIONARYVAR
  5
2A1
102
{ACAD_REACTORS
330
22D
102
}
330
22D
100
DictionaryVariables
280
     0
  1
Imperial24
  0
DICTIONARYVAR
  5
231
102
{ACAD_REACTORS
330
22D
102
}
330
22D
100
DictionaryVariables
280
     0
  1
0
  0
DICTIONARYVAR
  5
2A2
102
{ACAD_REACTORS
330
22D
102
}
330
22D
100
DictionaryVariables
280
     0
  1
1
  0
DICTIONARYVAR
  5
2A3
102
{ACAD_REACTORS
330
22D
102
}
330
22D
100
DictionaryVariables
280
     0
  1
1
  0
BLOCKVISIBILITYPARAMETER
  5
61
330
60
100
AcDbEvalExpr
 90
        1
 98
       31
 99
       55
100
AcDbBlockElement
300
Visibility State
 98
       25
 99
      104
1071
        0
100
AcDbBlockParameter
280
     1
281
     0
100
AcDbBlock1PtParameter
1010
0.0
1020
0.0
1030
0.0
 93
        2
170
     0
171
     0
100
AcDbBlockVisibilityParameter
281
     1
301
Visibility
302

 91
        0
 93
      110
331
67
331
69
331
6A
331
6B
331
6C
331
6D
331
6E
331
6F
331
70
331
71
331
72
331
73
331
74
331
75
331
76
331
77
331
78
331
79
331
7A
331
7B
331
7C
331
7D
331
7E
331
7F
331
80
331
81
331
82
331
83
331
84
331
85
331
86
331
87
331
88
331
89
331
8A
331
8B
331
8C
331
8D
331
8E
331
8F
331
90
331
91
331
92
331
93
331
94
331
95
331
96
331
97
331
98
331
99
331
9A
331
9B
331
9C
331
9D
331
9E
331
9F
331
A0
331
A1
331
A2
331
A3
331
A4
331
A5
331
A6
331
A7
331
A8
331
A9
331
AA
331
AB
331
AC
331
AD
331
AE
331
AF
331
B0
331
B1
331
B2
331
B3
331
B4
331
B5
331
B6
331
B7
331
B8
331
B9
331
BA
331
BB
331
BC
331
BD
331
BE
331
BF
331
C0
331
C1
331
C2
331
C3
331
C4
331
C5
331
C6
331
C7
331
C8
331
C9
331
CA
331
CB
331
CC
331
CE
331
CF
331
D0
331
D1
331
D7
331
D8
331
D9
331
D6
331
DA
 92
        5
303
CA7-09
 94
      106
332
67
332
69
332
6A
332
6B
332
6C
332
6D
332
6E
332
6F
332
70
332
71
332
72
332
73
332
74
332
75
332
76
332
77
332
78
332
79
332
7A
332
7B
332
7C
332
7D
332
7E
332
7F
332
80
332
81
332
82
332
83
332
84
332
85
332
86
332
87
332
88
332
89
332
8A
332
8B
332
8C
332
8D
332
8E
332
8F
332
90
332
91
332
92
332
93
332
94
332
95
332
96
332
97
332
98
332
99
332
9A
332
9B
332
9C
332
9D
332
9E
332
9F
332
A0
332
A1
332
A2
332
A3
332
A4
332
A5
332
A6
332
A7
332
A8
332
A9
332
AA
332
AB
332
AC
332
AD
332
AE
332
AF
332
B0
332
B1
332
B2
332
B3
332
B4
332
B5
332
B6
332
B7
332
B8
332
B9
332
BA
332
BB
332
BC
332
BD
332
BE
332
BF
332
C0
332
C1
332
C2
332
C3
332
C4
332
C5
332
C6
332
C7
332
C8
332
C9
332
CA
332
CB
332
CC
332
CE
332
CF
332
D0
332
D1
332
D9
 95
        0
303
CA7-12
 94
      106
332
67
332
69
332
6A
332
6B
332
6C
332
6D
332
6E
332
6F
332
70
332
71
332
72
332
73
332
74
332
75
332
76
332
77
332
78
332
79
332
7A
332
7B
332
7C
332
7D
332
7E
332
7F
332
80
332
81
332
82
332
83
332
84
332
85
332
86
332
87
332
88
332
89
332
8A
332
8B
332
8C
332
8D
332
8E
332
8F
332
90
332
91
332
92
332
93
332
94
332
95
332
96
332
97
332
98
332
99
332
9A
332
9B
332
9C
332
9D
332
9E
332
9F
332
A0
332
A1
332
A2
332
A3
332
A4
332
A5
332
A6
332
A7
332
A8
332
A9
332
AA
332
AB
332
AC
332
AD
332
AE
332
AF
332
B0
332
B1
332
B2
332
B3
332
B4
332
B5
332
B6
332
B7
332
B8
332
B9
332
BA
332
BB
332
BC
332
BD
332
BE
332
BF
332
C0
332
C1
332
C2
332
C3
332
C4
332
C5
332
C6
332
C7
332
C8
332
C9
332
CA
332
CB
332
CC
332
CE
332
CF
332
D0
332
D1
332
D8
 95
        0
303
CA7-16
 94
      106
332
67
332
69
332
6A
332
6B
332
6C
332
6D
332
6E
332
6F
332
70
332
71
332
72
332
73
332
74
332
75
332
76
332
77
332
78
332
79
332
7A
332
7B
332
7C
332
7D
332
7E
332
7F
332
80
332
81
332
82
332
83
332
84
332
85
332
86
332
87
332
88
332
89
332
8A
332
8B
332
8C
332
8D
332
8E
332
8F
332
90
332
91
332
92
332
93
332
94
332
95
332
96
332
97
332
98
332
99
332
9A
332
9B
332
9C
332
9D
332
9E
332
9F
332
A0
332
A1
332
A2
332
A3
332
A4
332
A5
332
A6
332
A7
332
A8
332
A9
332
AA
332
AB
332
AC
332
AD
332
AE
332
AF
332
B0
332
B1
332
B2
332
B3
332
B4
332
B5
332
B6
332
B7
332
B8
332
B9
332
BA
332
BB
332
BC
332
BD
332
BE
332
BF
332
C0
332
C1
332
C2
332
C3
332
C4
332
C5
332
C6
332
C7
332
C8
332
C9
332
CA
332
CB
332
CC
332
CE
332
CF
332
D0
332
D1
332
D7
 95
        0
303
CA7-23
 94
      106
332
67
332
69
332
6A
332
6B
332
6C
332
6D
332
6E
332
6F
332
70
332
71
332
72
332
73
332
74
332
75
332
76
332
77
332
78
332
79
332
7A
332
7B
332
7C
332
7D
332
7E
332
7F
332
80
332
81
332
82
332
83
332
84
332
85
332
86
332
87
332
88
332
89
332
8A
332
8B
332
8C
332
8D
332
8E
332
8F
332
90
332
91
332
92
332
93
332
94
332
95
332
96
332
97
332
98
332
99
332
9A
332
9B
332
9C
332
9D
332
9E
332
9F
332
A0
332
A1
332
A2
332
A3
332
A4
332
A5
332
A6
332
A7
332
A8
332
A9
332
AA
332
AB
332
AC
332
AD
332
AE
332
AF
332
B0
332
B1
332
B2
332
B3
332
B4
332
B5
332
B6
332
B7
332
B8
332
B9
332
BA
332
BB
332
BC
332
BD
332
BE
332
BF
332
C0
332
C1
332
C2
332
C3
332
C4
332
C5
332
C6
332
C7
332
C8
332
C9
332
CA
332
CB
332
CC
332
CE
332
CF
332
D0
332
D1
332
D6
 95
        0
303
CS7
 94
       89
332
67
332
69
332
6A
332
6B
332
6C
332
6D
332
6E
332
6F
332
70
332
71
332
72
332
73
332
74
332
75
332
76
332
77
332
78
332
79
332
7A
332
7B
332
7C
332
7D
332
7E
332
7F
332
80
332
81
332
82
332
83
332
84
332
85
332
86
332
87
332
88
332
89
332
8A
332
8B
332
8C
332
8D
332
8E
332
8F
332
90
332
91
332
92
332
93
332
94
332
95
332
96
332
97
332
98
332
99
332
9A
332
9B
332
9C
332
9D
332
9E
332
9F
332
A0
332
A1
332
A2
332
A3
332
A4
332
A5
332
A6
332
A7
332
A8
332
A9
332
AA
332
AB
332
B4
332
B5
332
B6
332
B7
332
B8
332
B9
332
BA
332
BB
332
C4
332
C5
332
C6
332
C7
332
C8
332
C9
332
CA
332
CB
332
CC
332
CE
332
CF
332
D0
332
DA
 95
        0
  0
BLOCKVISIBILITYGRIP
  5
62
330
60
100
AcDbEvalExpr
 90
        2
 98
       31
 99
       55
100
AcDbBlockElement
300
Grip
 98
       25
 99
      104
1071
        0
100
AcDbBlockGrip
 91
        3
 92
        4
1010
0.0
1020
0.0
1030
0.0
280
     0
 93
       -1
100
AcDbBlockVisibilityGrip
  0
BLOCKGRIPLOCATIONCOMPONENT
  5
63
330
60
100
AcDbEvalExpr
 90
        3
 98
       31
 99
       55
  1

 70
    40
140
0.0
100
AcDbBlockGripExpr
 91
        1
300
UpdatedX
  0
BLOCKGRIPLOCATIONCOMPONENT
  5
64
330
60
100
AcDbEvalExpr
 90
        4
 98
       31
 99
       55
  1

 70
    40
140
0.0
100
AcDbBlockGripExpr
 91
        1
300
UpdatedY
  0
BLOCKVISIBILITYPARAMETER
  5
15B
330
15A
100
AcDbEvalExpr
 90
        1
 98
       31
 99
       55
100
AcDbBlockElement
300
Visibility State
 98
       25
 99
      104
1071
        0
100
AcDbBlockParameter
280
     1
281
     0
100
AcDbBlock1PtParameter
1010
0.0
1020
0.0
1030
0.0
 93
        2
170
     0
171
     0
100
AcDbBlockVisibilityParameter
281
     1
301
Visibility
302

 91
        0
 93
       93
331
162
331
163
331
164
331
165
331
166
331
167
331
168
331
169
331
16A
331
16B
331
16C
331
16D
331
16E
331
16F
331
170
331
171
331
172
331
173
331
174
331
175
331
176
331
177
331
178
331
179
331
17A
331
17B
331
17C
331
17D
331
17E
331
17F
331
180
331
181
331
182
331
183
331
184
331
185
331
186
331
187
331
188
331
189
331
18A
331
18B
331
18C
331
18D
331
18E
331
18F
331
190
331
191
331
192
331
193
331
194
331
195
331
196
331
197
331
198
331
199
331
19A
331
19B
331
19C
331
19D
331
19E
331
19F
331
1A0
331
1A1
331
1A2
331
1A3
331
1A4
331
1A5
331
1A6
331
1A7
331
1A8
331
1A9
331
1AA
331
1AB
331
1AC
331
1AD
331
1AE
331
1AF
331
1B0
331
1B1
331
1B2
331
1B3
331
1B4
331
1B5
331
1B6
331
1B7
331
1B8
331
1B9
331
1BA
331
1BB
331
1BC
331
1BD
331
1BE
 92
        2
303
Terminals On
 94
       93
332
162
332
163
332
164
332
165
332
166
332
167
332
168
332
169
332
16A
332
16B
332
16C
332
16D
332
16E
332
16F
332
170
332
171
332
172
332
173
332
174
332
175
332
176
332
177
332
178
332
179
332
17A
332
17B
332
17C
332
17D
332
17E
332
17F
332
180
332
181
332
182
332
183
332
184
332
185
332
186
332
187
332
188
332
189
332
18A
332
18B
332
18C
332
18D
332
18E
332
18F
332
190
332
191
332
192
332
193
332
194
332
195
332
196
332
197
332
198
332
199
332
19A
332
19B
332
19C
332
19D
332
19E
332
19F
332
1A0
332
1A1
332
1A2
332
1A3
332
1A4
332
1A5
332
1A6
332
1A7
332
1A8
332
1A9
332
1AA
332
1AB
332
1AC
332
1AD
332
1AE
332
1AF
332
1B0
332
1B1
332
1B2
332
1B3
332
1B4
332
1B5
332
1B6
332
1B7
332
1B8
332
1B9
332
1BA
332
1BB
332
1BC
332
1BD
332
1BE
 95
        0
303
Terminals Off
 94
       84
332
17D
332
17E
332
17F
332
180
332
181
332
182
332
188
332
18C
332
18D
332
18E
332
18F
332
190
332
191
332
192
332
193
332
194
332
195
332
196
332
197
332
198
332
199
332
19A
332
19B
332
19C
332
19D
332
19E
332
19F
332
1A0
332
1A1
332
1A2
332
1A3
332
1A4
332
1A5
332
1A6
332
1A7
332
1A8
332
1A9
332
1AA
332
1AB
332
1AC
332
1AD
332
1AE
332
1AF
332
1B0
332
1B1
332
1B2
332
1B3
332
1B4
332
1B5
332
1B6
332
1B7
332
1B8
332
1B9
332
1BA
332
1BB
332
1BC
332
1BD
332
1BE
332
186
332
17B
332
17A
332
179
332
178
332
177
332
176
332
175
332
174
332
173
332
171
332
170
332
16F
332
16E
332
16D
332
16C
332
16B
332
16A
332
169
332
168
332
167
332
166
332
165
332
187
332
172
332
17C
 95
        0
  0
BLOCKVISIBILITYGRIP
  5
15C
330
15A
100
AcDbEvalExpr
 90
        2
 98
       31
 99
       55
100
AcDbBlockElement
300
Grip
 98
       25
 99
      104
1071
        0
100
AcDbBlockGrip
 91
        3
 92
        4
1010
0.0
1020
0.0
1030
0.0
280
     0
 93
       -1
100
AcDbBlockVisibilityGrip
  0
BLOCKGRIPLOCATIONCOMPONENT
  5
15D
330
15A
100
AcDbEvalExpr
 90
        3
 98
       31
 99
       55
  1

 70
    40
140
0.0
100
AcDbBlockGripExpr
 91
        1
300
UpdatedX
  0
BLOCKGRIPLOCATIONCOMPONENT
  5
15E
330
15A
100
AcDbEvalExpr
 90
        4
 98
       31
 99
       55
  1

 70
    40
140
0.0
100
AcDbBlockGripExpr
 91
        1
300
UpdatedY
  0
ACDB_BLOCKREPRESENTATION_DATA
  5
5D
102
{ACAD_REACTORS
330
5C
102
}
330
5C
100
AcDbBlockRepresentationData
 70
     1
340
5E
  0
DICTIONARY
  5
DE
102
{ACAD_REACTORS
330
5C
102
}
330
5C
100
AcDbDictionary
280
     1
281
     1
  3
ACAD_ENHANCEDBLOCKDATA
360
DF
  0
ACDB_BLOCKREPRESENTATION_DATA
  5
157
102
{ACAD_REACTORS
330
156
102
}
330
156
100
AcDbBlockRepresentationData
 70
     1
340
158
  0
DICTIONARY
  5
1C0
102
{ACAD_REACTORS
330
156
102
}
330
156
100
AcDbDictionary
280
     1
281
     1
  3
ACAD_ENHANCEDBLOCKDATA
360
1C1
  0
DICTIONARY
  5
2E6
330
24E
100
AcDbDictionary
280
     1
281
     1
  3
ACAD_XREC_ROUNDTRIP
360
2E7
  0
DICTIONARY
  5
2AE
330
2E
100
AcDbDictionary
280
     1
281
     1
  3
ACAD_XREC_ROUNDTRIP
360
2AF
  0
DICTIONARY
  5
2AC
330
2D
100
AcDbDictionary
280
     1
281
     1
  3
ACAD_XREC_ROUNDTRIP
360
2AD
  0
DICTIONARY
  5
2A8
330
C
100
AcDbDictionary
280
     1
281
     1
  3
ACAD_XREC_ROUNDTRIP
360
2A9
  0
DICTIONARY
  5
2E2
330
24A
100
AcDbDictionary
280
     1
281
     1
  3
ACAD_XREC_ROUNDTRIP
360
2E3
  0
DICTIONARY
  5
2E4
330
24C
100
AcDbDictionary
280
     1
281
     1
  3
ACAD_XREC_ROUNDTRIP
360
2E5
  0
DICTIONARY
  5
22A
330
36
100
AcDbDictionary
280
     1
281
     1
  3
ACAD_ROUNDTRIP_2008_TABLESTYLE_CELLSTYLEMAP
360
2A4
  3
ACAD_XREC_ROUNDTRIP
360
2B0
  0
DICTIONARY
  5
2AA
330
23
100
AcDbDictionary
280
     1
281
     1
  3
ACAD_XREC_ROUNDTRIP
360
2AB
  0
DICTIONARY
  5
2B3
330
38
100
AcDbDictionary
280
     1
281
     1
  3
ACAD_XREC_ROUNDTRIP
360
2B4
  0
DICTIONARY
  5
2BD
330
237
100
AcDbDictionary
280
     1
281
     1
  3
ACAD_XREC_ROUNDTRIP
360
2BE
  0
DICTIONARY
  5
2C7
330
23C
100
AcDbDictionary
280
     1
281
     1
  3
ACAD_XREC_ROUNDTRIP
360
2C8
  0
DICTIONARY
  5
2CF
330
240
100
AcDbDictionary
280
     1
281
     1
  3
ACAD_XREC_ROUNDTRIP
360
2D0
  0
DICTIONARY
  5
2C3
330
23A
100
AcDbDictionary
280
     1
281
     1
  3
ACAD_XREC_ROUNDTRIP
360
2C4
  0
DICTIONARY
  5
2C5
330
23B
100
AcDbDictionary
280
     1
281
     1
  3
ACAD_XREC_ROUNDTRIP
360
2C6
  0
DICTIONARY
  5
2DF
330
248
100
AcDbDictionary
280
     1
281
     1
  3
ACAD_XREC_ROUNDTRIP
360
2E0
  0
DICTIONARY
  5
2CD
330
23F
100
AcDbDictionary
280
     1
281
     1
  3
ACAD_XREC_ROUNDTRIP
360
2CE
  0
DICTIONARY
  5
2B5
330
233
100
AcDbDictionary
280
     1
281
     1
  3
ACAD_XREC_ROUNDTRIP
360
2B6
  0
DICTIONARY
  5
2B7
330
234
100
AcDbDictionary
280
     1
281
     1
  3
ACAD_XREC_ROUNDTRIP
360
2B8
  0
DICTIONARY
  5
2B9
330
235
100
AcDbDictionary
280
     1
281
     1
  3
ACAD_XREC_ROUNDTRIP
360
2BA
  0
DICTIONARY
  5
2BB
330
236
100
AcDbDictionary
280
     1
281
     1
  3
ACAD_XREC_ROUNDTRIP
360
2BC
  0
DICTIONARY
  5
2C1
330
239
100
AcDbDictionary
280
     1
281
     1
  3
ACAD_XREC_ROUNDTRIP
360
2C2
  0
DICTIONARY
  5
2DB
330
246
100
AcDbDictionary
280
     1
281
     1
  3
ACAD_XREC_ROUNDTRIP
360
2DC
  0
DICTIONARY
  5
2CB
330
23E
100
AcDbDictionary
280
     1
281
     1
  3
ACAD_XREC_ROUNDTRIP
360
2CC
  0
DICTIONARY
  5
2DD
330
247
100
AcDbDictionary
280
     1
281
     1
  3
ACAD_XREC_ROUNDTRIP
360
2DE
  0
DICTIONARY
  5
2B1
330
37
100
AcDbDictionary
280
     1
281
     1
  3
ACAD_XREC_ROUNDTRIP
360
2B2
  0
DICTIONARY
  5
2D9
330
245
100
AcDbDictionary
280
     1
281
     1
  3
ACAD_XREC_ROUNDTRIP
360
2DA
  0
DICTIONARY
  5
2D7
330
244
100
AcDbDictionary
280
     1
281
     1
  3
ACAD_XREC_ROUNDTRIP
360
2D8
  0
DICTIONARY
  5
2D1
330
241
100
AcDbDictionary
280
     1
281
     1
  3
ACAD_XREC_ROUNDTRIP
360
2D2
  0
DICTIONARY
  5
2D3
330
242
100
AcDbDictionary
280
     1
281
     1
  3
ACAD_XREC_ROUNDTRIP
360
2D4
  0
DICTIONARY
  5
2C9
330
23D
100
AcDbDictionary
280
     1
281
     1
  3
ACAD_XREC_ROUNDTRIP
360
2CA
  0
DICTIONARY
  5
2BF
330
238
100
AcDbDictionary
280
     1
281
     1
  3
ACAD_XREC_ROUNDTRIP
360
2C0
  0
DICTIONARY
  5
2D5
330
243
100
AcDbDictionary
280
     1
281
     1
  3
ACAD_XREC_ROUNDTRIP
360
2D6
  0
DICTIONARY
  5
DF
102
{ACAD_REACTORS
330
DE
102
}
330
DE
100
AcDbDictionary
280
     1
281
     1
  3
1
360
E0
  0
DICTIONARY
  5
1C1
102
{ACAD_REACTORS
330
1C0
102
}
330
1C0
100
AcDbDictionary
280
     1
281
     1
  3
1
360
1C2
  0
XRECORD
  5
2E7
102
{ACAD_REACTORS
330
2E6
102
}
330
2E6
100
AcDbXrecord
280
     1
102
DISPLAYNAME
  1
Imperial24
102
FLAGS
 90
        0
  0
XRECORD
  5
2AF
102
{ACAD_REACTORS
330
2AE
102
}
330
2AE
100
AcDbXrecord
280
     1
102
MATERIAL
148
0.0
149
0.0
149
0.0
 93
        0
 94
       63
282
     0
 72
     1
 77
     1
171
     1
175
     1
179
     1
273
     0
  0
XRECORD
  5
2AD
102
{ACAD_REACTORS
330
2AC
102
}
330
2AC
100
AcDbXrecord
280
     1
102
MATERIAL
148
0.0
149
0.0
149
0.0
 93
        0
 94
       63
282
     0
 72
     1
 77
     1
171
     1
175
     1
179
     1
273
     0
  0
XRECORD
  5
2A9
102
{ACAD_REACTORS
330
2A8
102
}
330
2A8
100
AcDbXrecord
280
     1
102
MATERIAL
148
0.0
149
0.0
149
0.0
 93
        0
 94
       63
282
     0
 72
     1
 77
     1
171
     1
175
     1
179
     1
273
     0
  0
XRECORD
  5
2E3
102
{ACAD_REACTORS
330
2E2
102
}
330
2E2
100
AcDbXrecord
280
     1
102
ACAD_ROUNDTRIP_2012_MLEADER_STYLE
298
     1
  0
XRECORD
  5
2E5
102
{ACAD_REACTORS
330
2E4
102
}
330
2E4
100
AcDbXrecord
280
     1
102
DISPLAYNAME
  1
Imperial24
102
FLAGS
 90
        0
  0
CELLSTYLEMAP
  5
2A4
102
{ACAD_REACTORS
330
22A
102
}
330
22A
100
AcDbCellStyleMap
 90
        3
300
CELLSTYLE
  1
TABLEFORMAT_BEGIN
 90
        5
170
     1
 91
        0
 92
    32768
 62
   257
 93
        1
300
CONTENTFORMAT
  1
CONTENTFORMAT_BEGIN
 90
        0
 91
        0
 92
      512
 93
        0
300

 40
0.0
140
1.0
 94
        5
 62
     0
340
1A
144
0.25
309
CONTENTFORMAT_END
171
     0
 94
        6
 95
        1
302
GRIDFORMAT
  1
GRIDFORMAT_BEGIN
 90
        0
 91
        1
 62
     0
 92
       -2
340
0
 93
        0
 40
0.045
309
GRIDFORMAT_END
 95
        2
302
GRIDFORMAT
  1
GRIDFORMAT_BEGIN
 90
        0
 91
        1
 62
     0
 92
       -2
340
0
 93
        0
 40
0.045
309
GRIDFORMAT_END
 95
        4
302
GRIDFORMAT
  1
GRIDFORMAT_BEGIN
 90
        0
 91
        1
 62
     0
 92
       -2
340
0
 93
        0
 40
0.045
309
GRIDFORMAT_END
 95
        8
302
GRIDFORMAT
  1
GRIDFORMAT_BEGIN
 90
        0
 91
        1
 62
     0
 92
       -2
340
0
 93
        0
 40
0.045
309
GRIDFORMAT_END
 95
       16
302
GRIDFORMAT
  1
GRIDFORMAT_BEGIN
 90
        0
 91
        1
 62
     0
 92
       -2
340
0
 93
        0
 40
0.045
309
GRIDFORMAT_END
 95
       32
302
GRIDFORMAT
  1
GRIDFORMAT_BEGIN
 90
        0
 91
        1
 62
     0
 92
       -2
340
0
 93
        0
 40
0.045
309
GRIDFORMAT_END
309
TABLEFORMAT_END
  1
CELLSTYLE_BEGIN
 90
        1
 91
        1
300
_TITLE
309
CELLSTYLE_END
300
CELLSTYLE
  1
TABLEFORMAT_BEGIN
 90
        5
170
     1
 91
        0
 92
        0
 62
   257
 93
        1
300
CONTENTFORMAT
  1
CONTENTFORMAT_BEGIN
 90
        0
 91
        0
 92
      512
 93
        0
300

 40
0.0
140
1.0
 94
        5
 62
     0
340
1A
144
0.18
309
CONTENTFORMAT_END
171
     0
 94
        6
 95
        1
302
GRIDFORMAT
  1
GRIDFORMAT_BEGIN
 90
        0
 91
        1
 62
     0
 92
       -2
340
0
 93
        0
 40
0.045
309
GRIDFORMAT_END
 95
        2
302
GRIDFORMAT
  1
GRIDFORMAT_BEGIN
 90
        0
 91
        1
 62
     0
 92
       -2
340
0
 93
        0
 40
0.045
309
GRIDFORMAT_END
 95
        4
302
GRIDFORMAT
  1
GRIDFORMAT_BEGIN
 90
        0
 91
        1
 62
     0
 92
       -2
340
0
 93
        0
 40
0.045
309
GRIDFORMAT_END
 95
        8
302
GRIDFORMAT
  1
GRIDFORMAT_BEGIN
 90
        0
 91
        1
 62
     0
 92
       -2
340
0
 93
        0
 40
0.045
309
GRIDFORMAT_END
 95
       16
302
GRIDFORMAT
  1
GRIDFORMAT_BEGIN
 90
        0
 91
        1
 62
     0
 92
       -2
340
0
 93
        0
 40
0.045
309
GRIDFORMAT_END
 95
       32
302
GRIDFORMAT
  1
GRIDFORMAT_BEGIN
 90
        0
 91
        1
 62
     0
 92
       -2
340
0
 93
        0
 40
0.045
309
GRIDFORMAT_END
309
TABLEFORMAT_END
  1
CELLSTYLE_BEGIN
 90
        2
 91
        1
300
_HEADER
309
CELLSTYLE_END
300
CELLSTYLE
  1
TABLEFORMAT_BEGIN
 90
        5
170
     1
 91
        0
 92
        0
 62
   257
 93
        1
300
CONTENTFORMAT
  1
CONTENTFORMAT_BEGIN
 90
        0
 91
        0
 92
      512
 93
        0
300

 40
0.0
140
1.0
 94
        2
 62
     0
340
1A
144
0.18
309
CONTENTFORMAT_END
171
     0
 94
        6
 95
        1
302
GRIDFORMAT
  1
GRIDFORMAT_BEGIN
 90
        0
 91
        1
 62
     0
 92
       -2
340
0
 93
        0
 40
0.045
309
GRIDFORMAT_END
 95
        2
302
GRIDFORMAT
  1
GRIDFORMAT_BEGIN
 90
        0
 91
        1
 62
     0
 92
       -2
340
0
 93
        0
 40
0.045
309
GRIDFORMAT_END
 95
        4
302
GRIDFORMAT
  1
GRIDFORMAT_BEGIN
 90
        0
 91
        1
 62
     0
 92
       -2
340
0
 93
        0
 40
0.045
309
GRIDFORMAT_END
 95
        8
302
GRIDFORMAT
  1
GRIDFORMAT_BEGIN
 90
        0
 91
        1
 62
     0
 92
       -2
340
0
 93
        0
 40
0.045
309
GRIDFORMAT_END
 95
       16
302
GRIDFORMAT
  1
GRIDFORMAT_BEGIN
 90
        0
 91
        1
 62
     0
 92
       -2
340
0
 93
        0
 40
0.045
309
GRIDFORMAT_END
 95
       32
302
GRIDFORMAT
  1
GRIDFORMAT_BEGIN
 90
        0
 91
        1
 62
     0
 92
       -2
340
0
 93
        0
 40
0.045
309
GRIDFORMAT_END
309
TABLEFORMAT_END
  1
CELLSTYLE_BEGIN
 90
        3
 91
        2
300
_DATA
309
CELLSTYLE_END
  0
XRECORD
  5
2B0
102
{ACAD_REACTORS
330
22A
102
}
330
22A
100
AcDbXrecord
280
     1
102
ACAD_ROUNDTRIP_PRE2007_TABLESTYLE
 90
      512
 91
        0
  1

 92
      512
 93
        0
  2

 94
      512
 95
        0
  3

  0
XRECORD
  5
2AB
102
{ACAD_REACTORS
330
2AA
102
}
330
2AA
100
AcDbXrecord
280
     1
102
RTVSPost2010Prop28
280
     1
102
RTVSPost2010PropOp28
 70
     1
102
RTVSPost2010Prop29
280
     1
102
RTVSPost2010PropOp29
 70
     1
102
RTVSPost2010Prop30
280
     0
102
RTVSPost2010PropOp30
 70
     1
102
RTVSPost2010Prop31
280
     0
102
RTVSPost2010PropOp31
 70
     1
102
RTVSPost2010Prop32
280
     0
102
RTVSPost2010PropOp32
 70
     1
102
RTVSPost2010Prop33
280
     0
102
RTVSPost2010PropOp33
 70
     1
102
RTVSPost2010Prop34
280
     0
102
RTVSPost2010PropOp34
 70
     1
102
RTVSPost2010Prop35
280
     0
102
RTVSPost2010PropOp35
 70
     1
102
RTVSPost2010Prop36
280
     0
102
RTVSPost2010PropOp36
 70
     1
102
RTVSPost2010Prop37
 90
       50
102
RTVSPost2010PropOp37
 70
     1
102
RTVSPost2010Prop38
140
0.0
102
RTVSPost2010PropOp38
 70
     1
102
RTVSPost2010Prop39
140
1.0
102
RTVSPost2010PropOp39
 70
     1
102
RTVSPost2010Prop40
 90
        0
102
RTVSPost2010PropOp40
 70
     1
102
RTVSPost2010Prop41ColorIndex
 90
       18
102
RTVSPost2010Prop41ColorRGB
 90
        0
102
RTVSPost2010PropOp41
 70
     1
102
RTVSPost2010Prop42
 90
       50
102
RTVSPost2010PropOp42
 70
     1
102
RTVSPost2010Prop43
 90
        3
102
RTVSPost2010PropOp43
 70
     1
102
RTVSPost2010Prop44ColorIndex
 90
        5
102
RTVSPost2010Prop44ColorRGB
 90
      255
102
RTVSPost2010PropOp44
 70
     1
102
RTVSPost2010Prop45
280
     0
102
RTVSPost2010PropOp45
 70
     1
102
RTVSPost2010Prop46
 90
       50
102
RTVSPost2010PropOp46
 70
     1
102
RTVSPost2010Prop47
 90
       50
102
RTVSPost2010PropOp47
 70
     1
102
RTVSPost2010Prop48
 90
       50
102
RTVSPost2010PropOp48
 70
     1
102
RTVSPost2010Prop49
280
     0
102
RTVSPost2010PropOp49
 70
     1
102
RTVSPost2010Prop50
 90
       50
102
RTVSPost2010PropOp50
 70
     1
102
RTVSPost2010Prop51ColorIndex
 90
      256
102
RTVSPost2010Prop51ColorRGB
 90
-16777216
102
RTVSPost2010PropOp51
 70
     0
102
RTVSPost2010Prop52
140
1.0
102
RTVSPost2010PropOp52
 70
     0
102
RTVSPost2010Prop53
 90
        2
102
RTVSPost2010PropOp53
 70
     1
102
RTVSPost2010Prop54
  1
strokes_ogs.tif
102
RTVSPost2010PropOp54
 70
     1
102
RTVSPost2010Prop55
280
     0
102
RTVSPost2010PropOp55
 70
     1
102
RTVSPost2010Prop56
140
1.0
102
RTVSPost2010PropOp56
 70
     1
102
RTVSPost2010Prop57
140
1.0
102
RTVSPost2010PropOp57
 70
     1
102
RTVSPropertyOp0
 70
     1
102
RTVSPropertyOp1
 70
     1
102
RTVSPropertyOp2
 70
     1
102
RTVSPropertyOp3
 70
     1
102
RTVSPropertyOp4
 70
     1
102
RTVSPropertyOp5
 70
     1
102
RTVSPropertyOp6
 70
     1
102
RTVSPropertyOp7
 70
     1
102
RTVSPropertyOp8
 70
     1
102
RTVSPropertyOp9
 70
     1
102
RTVSPropertyOp10
 70
     1
102
RTVSPropertyOp11
 70
     1
102
RTVSPropertyOp12
 70
     1
102
RTVSPropertyOp13
 70
     1
102
RTVSPropertyOp14
 70
     1
102
RTVSPropertyOp15
 70
     1
102
RTVSPropertyOp16
 70
     1
102
RTVSPropertyOp17
 70
     1
102
RTVSPropertyOp18
 70
     1
102
RTVSPropertyOp19
 70
     1
102
RTVSPropertyOp20
 70
     1
102
RTVSPropertyOp21
 70
     1
102
RTVSPropertyOp22
 70
     1
102
RTVSPropertyOp23
 70
     1
102
RTVSPropertyOp24
 70
     1
102
RTVSPropertyOp25
 70
     1
102
RTVSPropertyOp26
 70
     1
102
RTVSPropertyOp27
 70
     1
102
RTVSPropertyOp28
 70
     1
102
RTVSPropertyOp29
 70
     1
102
RTVSPropertyOp30
 70
     1
102
RTVSPropertyOp31
 70
     1
102
RTVSPropertyOp32
 70
     1
102
RTVSPropertyOp33
 70
     1
102
RTVSPropertyOp34
 70
     1
102
RTVSPropertyOp35
 70
     1
102
RTVSPropertyOp36
 70
     1
102
RTVSPropertyOp37
 70
     1
102
RTVSPropertyOp38
 70
     1
102
RTVSPropertyOp39
 70
     1
102
RTVSPropertyOp40
 70
     1
102
RTVSPropertyOp41
 70
     1
102
RTVSPropertyOp42
 70
     1
102
RTVSPropertyOp43
 70
     1
102
RTVSPropertyOp44
 70
     1
102
RTVSPropertyOp45
 70
     1
102
RTVSPropertyOp46
 70
     1
102
RTVSPropertyOp47
 70
     1
102
RTVSPropertyOp48
 70
     1
102
RTVSPropertyOp49
 70
     1
102
RTVSPropertyOp50
 70
     1
102
RTVSPropertyOp51
 70
     0
102
RTVSPropertyOp52
 70
     0
102
RTVSPropertyOp53
 70
     1
102
RTVSPropertyOp54
 70
     1
102
RTVSPropertyOp55
 70
     1
102
RTVSPropertyOp56
 70
     1
102
RTVSPropertyOp57
 70
     1
102
RTVSPropertyOp58
 70
     1
102
RTVSPropertyOp59
 70
     1
102
RTVSPropertyOp60
 70
     1
102
RTVSPropertyOp61
 70
     1
102
RTVSPropertyOp62
 70
     1
  0
XRECORD
  5
2B4
102
{ACAD_REACTORS
330
2B3
102
}
330
2B3
100
AcDbXrecord
280
     1
102
RTVSPost2010Prop28
280
     0
102
RTVSPost2010PropOp28
 70
     1
102
RTVSPost2010Prop29
280
     1
102
RTVSPost2010PropOp29
 70
     1
102
RTVSPost2010Prop30
280
     1
102
RTVSPost2010PropOp30
 70
     1
102
RTVSPost2010Prop31
280
     0
102
RTVSPost2010PropOp31
 70
     1
102
RTVSPost2010Prop32
280
     0
102
RTVSPost2010PropOp32
 70
     1
102
RTVSPost2010Prop33
280
     0
102
RTVSPost2010PropOp33
 70
     1
102
RTVSPost2010Prop34
280
     0
102
RTVSPost2010PropOp34
 70
     1
102
RTVSPost2010Prop35
280
     0
102
RTVSPost2010PropOp35
 70
     1
102
RTVSPost2010Prop36
280
     0
102
RTVSPost2010PropOp36
 70
     1
102
RTVSPost2010Prop37
 90
       50
102
RTVSPost2010PropOp37
 70
     1
102
RTVSPost2010Prop38
140
0.0
102
RTVSPost2010PropOp38
 70
     1
102
RTVSPost2010Prop39
140
1.0
102
RTVSPost2010PropOp39
 70
     1
102
RTVSPost2010Prop40
 90
        0
102
RTVSPost2010PropOp40
 70
     1
102
RTVSPost2010Prop41ColorIndex
 90
       18
102
RTVSPost2010Prop41ColorRGB
 90
        0
102
RTVSPost2010PropOp41
 70
     1
102
RTVSPost2010Prop42
 90
       50
102
RTVSPost2010PropOp42
 70
     1
102
RTVSPost2010Prop43
 90
        3
102
RTVSPost2010PropOp43
 70
     1
102
RTVSPost2010Prop44ColorIndex
 90
        5
102
RTVSPost2010Prop44ColorRGB
 90
      255
102
RTVSPost2010PropOp44
 70
     1
102
RTVSPost2010Prop45
280
     0
102
RTVSPost2010PropOp45
 70
     1
102
RTVSPost2010Prop46
 90
       50
102
RTVSPost2010PropOp46
 70
     1
102
RTVSPost2010Prop47
 90
       50
102
RTVSPost2010PropOp47
 70
     1
102
RTVSPost2010Prop48
 90
       50
102
RTVSPost2010PropOp48
 70
     1
102
RTVSPost2010Prop49
280
     0
102
RTVSPost2010PropOp49
 70
     1
102
RTVSPost2010Prop50
 90
       50
102
RTVSPost2010PropOp50
 70
     1
102
RTVSPost2010Prop51ColorIndex
 90
      256
102
RTVSPost2010Prop51ColorRGB
 90
-16777216
102
RTVSPost2010PropOp51
 70
     0
102
RTVSPost2010Prop52
140
1.0
102
RTVSPost2010PropOp52
 70
     0
102
RTVSPost2010Prop53
 90
        2
102
RTVSPost2010PropOp53
 70
     1
102
RTVSPost2010Prop54
  1
strokes_ogs.tif
102
RTVSPost2010PropOp54
 70
     1
102
RTVSPost2010Prop55
280
     0
102
RTVSPost2010PropOp55
 70
     1
102
RTVSPost2010Prop56
140
1.0
102
RTVSPost2010PropOp56
 70
     1
102
RTVSPost2010Prop57
140
1.0
102
RTVSPost2010PropOp57
 70
     1
102
RTVSPropertyOp0
 70
     1
102
RTVSPropertyOp1
 70
     1
102
RTVSPropertyOp2
 70
     1
102
RTVSPropertyOp3
 70
     1
102
RTVSPropertyOp4
 70
     1
102
RTVSPropertyOp5
 70
     1
102
RTVSPropertyOp6
 70
     1
102
RTVSPropertyOp7
 70
     1
102
RTVSPropertyOp8
 70
     1
102
RTVSPropertyOp9
 70
     1
102
RTVSPropertyOp10
 70
     1
102
RTVSPropertyOp11
 70
     1
102
RTVSPropertyOp12
 70
     1
102
RTVSPropertyOp13
 70
     1
102
RTVSPropertyOp14
 70
     1
102
RTVSPropertyOp15
 70
     1
102
RTVSPropertyOp16
 70
     1
102
RTVSPropertyOp17
 70
     1
102
RTVSPropertyOp18
 70
     1
102
RTVSPropertyOp19
 70
     1
102
RTVSPropertyOp20
 70
     1
102
RTVSPropertyOp21
 70
     1
102
RTVSPropertyOp22
 70
     1
102
RTVSPropertyOp23
 70
     1
102
RTVSPropertyOp24
 70
     1
102
RTVSPropertyOp25
 70
     1
102
RTVSPropertyOp26
 70
     1
102
RTVSPropertyOp27
 70
     1
102
RTVSPropertyOp28
 70
     1
102
RTVSPropertyOp29
 70
     1
102
RTVSPropertyOp30
 70
     1
102
RTVSPropertyOp31
 70
     1
102
RTVSPropertyOp32
 70
     1
102
RTVSPropertyOp33
 70
     1
102
RTVSPropertyOp34
 70
     1
102
RTVSPropertyOp35
 70
     1
102
RTVSPropertyOp36
 70
     1
102
RTVSPropertyOp37
 70
     1
102
RTVSPropertyOp38
 70
     1
102
RTVSPropertyOp39
 70
     1
102
RTVSPropertyOp40
 70
     1
102
RTVSPropertyOp41
 70
     1
102
RTVSPropertyOp42
 70
     1
102
RTVSPropertyOp43
 70
     1
102
RTVSPropertyOp44
 70
     1
102
RTVSPropertyOp45
 70
     1
102
RTVSPropertyOp46
 70
     1
102
RTVSPropertyOp47
 70
     1
102
RTVSPropertyOp48
 70
     1
102
RTVSPropertyOp49
 70
     1
102
RTVSPropertyOp50
 70
     1
102
RTVSPropertyOp51
 70
     0
102
RTVSPropertyOp52
 70
     0
102
RTVSPropertyOp53
 70
     1
102
RTVSPropertyOp54
 70
     1
102
RTVSPropertyOp55
 70
     1
102
RTVSPropertyOp56
 70
     1
102
RTVSPropertyOp57
 70
     1
102
RTVSPropertyOp58
 70
     1
102
RTVSPropertyOp59
 70
     1
102
RTVSPropertyOp60
 70
     1
102
RTVSPropertyOp61
 70
     1
102
RTVSPropertyOp62
 70
     1
  0
XRECORD
  5
2BE
102
{ACAD_REACTORS
330
2BD
102
}
330
2BD
100
AcDbXrecord
280
     1
102
RTVSPost2010Prop28
280
     0
102
RTVSPost2010PropOp28
 70
     1
102
RTVSPost2010Prop29
280
     1
102
RTVSPost2010PropOp29
 70
     1
102
RTVSPost2010Prop30
280
     1
102
RTVSPost2010PropOp30
 70
     1
102
RTVSPost2010Prop31
280
     0
102
RTVSPost2010PropOp31
 70
     1
102
RTVSPost2010Prop32
280
     0
102
RTVSPost2010PropOp32
 70
     1
102
RTVSPost2010Prop33
280
     0
102
RTVSPost2010PropOp33
 70
     1
102
RTVSPost2010Prop34
280
     0
102
RTVSPost2010PropOp34
 70
     1
102
RTVSPost2010Prop35
280
     0
102
RTVSPost2010PropOp35
 70
     1
102
RTVSPost2010Prop36
280
     0
102
RTVSPost2010PropOp36
 70
     1
102
RTVSPost2010Prop37
 90
       50
102
RTVSPost2010PropOp37
 70
     1
102
RTVSPost2010Prop38
140
0.0
102
RTVSPost2010PropOp38
 70
     1
102
RTVSPost2010Prop39
140
1.0
102
RTVSPost2010PropOp39
 70
     1
102
RTVSPost2010Prop40
 90
        0
102
RTVSPost2010PropOp40
 70
     1
102
RTVSPost2010Prop41ColorIndex
 90
       18
102
RTVSPost2010Prop41ColorRGB
 90
        0
102
RTVSPost2010PropOp41
 70
     1
102
RTVSPost2010Prop42
 90
       50
102
RTVSPost2010PropOp42
 70
     1
102
RTVSPost2010Prop43
 90
        3
102
RTVSPost2010PropOp43
 70
     1
102
RTVSPost2010Prop44ColorIndex
 90
        5
102
RTVSPost2010Prop44ColorRGB
 90
      255
102
RTVSPost2010PropOp44
 70
     1
102
RTVSPost2010Prop45
280
     0
102
RTVSPost2010PropOp45
 70
     1
102
RTVSPost2010Prop46
 90
       50
102
RTVSPost2010PropOp46
 70
     1
102
RTVSPost2010Prop47
 90
       50
102
RTVSPost2010PropOp47
 70
     1
102
RTVSPost2010Prop48
 90
       50
102
RTVSPost2010PropOp48
 70
     1
102
RTVSPost2010Prop49
280
     0
102
RTVSPost2010PropOp49
 70
     1
102
RTVSPost2010Prop50
 90
       50
102
RTVSPost2010PropOp50
 70
     1
102
RTVSPost2010Prop51ColorIndex
 90
      256
102
RTVSPost2010Prop51ColorRGB
 90
-16777216
102
RTVSPost2010PropOp51
 70
     0
102
RTVSPost2010Prop52
140
1.0
102
RTVSPost2010PropOp52
 70
     0
102
RTVSPost2010Prop53
 90
        2
102
RTVSPost2010PropOp53
 70
     1
102
RTVSPost2010Prop54
  1
strokes_ogs.tif
102
RTVSPost2010PropOp54
 70
     1
102
RTVSPost2010Prop55
280
     0
102
RTVSPost2010PropOp55
 70
     1
102
RTVSPost2010Prop56
140
1.0
102
RTVSPost2010PropOp56
 70
     1
102
RTVSPost2010Prop57
140
1.0
102
RTVSPost2010PropOp57
 70
     1
102
RTVSPropertyOp0
 70
     1
102
RTVSPropertyOp1
 70
     1
102
RTVSPropertyOp2
 70
     1
102
RTVSPropertyOp3
 70
     1
102
RTVSPropertyOp4
 70
     1
102
RTVSPropertyOp5
 70
     1
102
RTVSPropertyOp6
 70
     1
102
RTVSPropertyOp7
 70
     1
102
RTVSPropertyOp8
 70
     1
102
RTVSPropertyOp9
 70
     1
102
RTVSPropertyOp10
 70
     1
102
RTVSPropertyOp11
 70
     1
102
RTVSPropertyOp12
 70
     1
102
RTVSPropertyOp13
 70
     1
102
RTVSPropertyOp14
 70
     1
102
RTVSPropertyOp15
 70
     1
102
RTVSPropertyOp16
 70
     1
102
RTVSPropertyOp17
 70
     1
102
RTVSPropertyOp18
 70
     1
102
RTVSPropertyOp19
 70
     1
102
RTVSPropertyOp20
 70
     1
102
RTVSPropertyOp21
 70
     1
102
RTVSPropertyOp22
 70
     1
102
RTVSPropertyOp23
 70
     1
102
RTVSPropertyOp24
 70
     1
102
RTVSPropertyOp25
 70
     1
102
RTVSPropertyOp26
 70
     1
102
RTVSPropertyOp27
 70
     1
102
RTVSPropertyOp28
 70
     1
102
RTVSPropertyOp29
 70
     1
102
RTVSPropertyOp30
 70
     1
102
RTVSPropertyOp31
 70
     1
102
RTVSPropertyOp32
 70
     1
102
RTVSPropertyOp33
 70
     1
102
RTVSPropertyOp34
 70
     1
102
RTVSPropertyOp35
 70
     1
102
RTVSPropertyOp36
 70
     1
102
RTVSPropertyOp37
 70
     1
102
RTVSPropertyOp38
 70
     1
102
RTVSPropertyOp39
 70
     1
102
RTVSPropertyOp40
 70
     1
102
RTVSPropertyOp41
 70
     1
102
RTVSPropertyOp42
 70
     1
102
RTVSPropertyOp43
 70
     1
102
RTVSPropertyOp44
 70
     1
102
RTVSPropertyOp45
 70
     1
102
RTVSPropertyOp46
 70
     1
102
RTVSPropertyOp47
 70
     1
102
RTVSPropertyOp48
 70
     1
102
RTVSPropertyOp49
 70
     1
102
RTVSPropertyOp50
 70
     1
102
RTVSPropertyOp51
 70
     0
102
RTVSPropertyOp52
 70
     0
102
RTVSPropertyOp53
 70
     1
102
RTVSPropertyOp54
 70
     1
102
RTVSPropertyOp55
 70
     1
102
RTVSPropertyOp56
 70
     1
102
RTVSPropertyOp57
 70
     1
102
RTVSPropertyOp58
 70
     1
102
RTVSPropertyOp59
 70
     1
102
RTVSPropertyOp60
 70
     1
102
RTVSPropertyOp61
 70
     1
102
RTVSPropertyOp62
 70
     1
  0
XRECORD
  5
2C8
102
{ACAD_REACTORS
330
2C7
102
}
330
2C7
100
AcDbXrecord
280
     1
102
RTVSPost2010Prop28
280
     0
102
RTVSPost2010PropOp28
 70
     1
102
RTVSPost2010Prop29
280
     1
102
RTVSPost2010PropOp29
 70
     1
102
RTVSPost2010Prop30
280
     1
102
RTVSPost2010PropOp30
 70
     1
102
RTVSPost2010Prop31
280
     0
102
RTVSPost2010PropOp31
 70
     1
102
RTVSPost2010Prop32
280
     0
102
RTVSPost2010PropOp32
 70
     1
102
RTVSPost2010Prop33
280
     0
102
RTVSPost2010PropOp33
 70
     1
102
RTVSPost2010Prop34
280
     0
102
RTVSPost2010PropOp34
 70
     1
102
RTVSPost2010Prop35
280
     0
102
RTVSPost2010PropOp35
 70
     1
102
RTVSPost2010Prop36
280
     0
102
RTVSPost2010PropOp36
 70
     1
102
RTVSPost2010Prop37
 90
       50
102
RTVSPost2010PropOp37
 70
     1
102
RTVSPost2010Prop38
140
0.0
102
RTVSPost2010PropOp38
 70
     1
102
RTVSPost2010Prop39
140
1.0
102
RTVSPost2010PropOp39
 70
     1
102
RTVSPost2010Prop40
 90
        0
102
RTVSPost2010PropOp40
 70
     1
102
RTVSPost2010Prop41ColorIndex
 90
       18
102
RTVSPost2010Prop41ColorRGB
 90
        0
102
RTVSPost2010PropOp41
 70
     1
102
RTVSPost2010Prop42
 90
       50
102
RTVSPost2010PropOp42
 70
     1
102
RTVSPost2010Prop43
 90
        3
102
RTVSPost2010PropOp43
 70
     1
102
RTVSPost2010Prop44ColorIndex
 90
        5
102
RTVSPost2010Prop44ColorRGB
 90
      255
102
RTVSPost2010PropOp44
 70
     1
102
RTVSPost2010Prop45
280
     0
102
RTVSPost2010PropOp45
 70
     1
102
RTVSPost2010Prop46
 90
       50
102
RTVSPost2010PropOp46
 70
     1
102
RTVSPost2010Prop47
 90
       50
102
RTVSPost2010PropOp47
 70
     1
102
RTVSPost2010Prop48
 90
       50
102
RTVSPost2010PropOp48
 70
     1
102
RTVSPost2010Prop49
280
     0
102
RTVSPost2010PropOp49
 70
     1
102
RTVSPost2010Prop50
 90
       50
102
RTVSPost2010PropOp50
 70
     1
102
RTVSPost2010Prop51ColorIndex
 90
      256
102
RTVSPost2010Prop51ColorRGB
 90
-16777216
102
RTVSPost2010PropOp51
 70
     0
102
RTVSPost2010Prop52
140
1.0
102
RTVSPost2010PropOp52
 70
     0
102
RTVSPost2010Prop53
 90
        2
102
RTVSPost2010PropOp53
 70
     1
102
RTVSPost2010Prop54
  1
strokes_ogs.tif
102
RTVSPost2010PropOp54
 70
     1
102
RTVSPost2010Prop55
280
     0
102
RTVSPost2010PropOp55
 70
     1
102
RTVSPost2010Prop56
140
1.0
102
RTVSPost2010PropOp56
 70
     1
102
RTVSPost2010Prop57
140
1.0
102
RTVSPost2010PropOp57
 70
     1
102
RTVSPropertyOp0
 70
     1
102
RTVSPropertyOp1
 70
     1
102
RTVSPropertyOp2
 70
     1
102
RTVSPropertyOp3
 70
     1
102
RTVSPropertyOp4
 70
     1
102
RTVSPropertyOp5
 70
     1
102
RTVSPropertyOp6
 70
     1
102
RTVSPropertyOp7
 70
     1
102
RTVSPropertyOp8
 70
     1
102
RTVSPropertyOp9
 70
     1
102
RTVSPropertyOp10
 70
     1
102
RTVSPropertyOp11
 70
     1
102
RTVSPropertyOp12
 70
     1
102
RTVSPropertyOp13
 70
     1
102
RTVSPropertyOp14
 70
     1
102
RTVSPropertyOp15
 70
     1
102
RTVSPropertyOp16
 70
     1
102
RTVSPropertyOp17
 70
     1
102
RTVSPropertyOp18
 70
     1
102
RTVSPropertyOp19
 70
     1
102
RTVSPropertyOp20
 70
     1
102
RTVSPropertyOp21
 70
     1
102
RTVSPropertyOp22
 70
     1
102
RTVSPropertyOp23
 70
     1
102
RTVSPropertyOp24
 70
     1
102
RTVSPropertyOp25
 70
     1
102
RTVSPropertyOp26
 70
     1
102
RTVSPropertyOp27
 70
     1
102
RTVSPropertyOp28
 70
     1
102
RTVSPropertyOp29
 70
     1
102
RTVSPropertyOp30
 70
     1
102
RTVSPropertyOp31
 70
     1
102
RTVSPropertyOp32
 70
     1
102
RTVSPropertyOp33
 70
     1
102
RTVSPropertyOp34
 70
     1
102
RTVSPropertyOp35
 70
     1
102
RTVSPropertyOp36
 70
     1
102
RTVSPropertyOp37
 70
     1
102
RTVSPropertyOp38
 70
     1
102
RTVSPropertyOp39
 70
     1
102
RTVSPropertyOp40
 70
     1
102
RTVSPropertyOp41
 70
     1
102
RTVSPropertyOp42
 70
     1
102
RTVSPropertyOp43
 70
     1
102
RTVSPropertyOp44
 70
     1
102
RTVSPropertyOp45
 70
     1
102
RTVSPropertyOp46
 70
     1
102
RTVSPropertyOp47
 70
     1
102
RTVSPropertyOp48
 70
     1
102
RTVSPropertyOp49
 70
     1
102
RTVSPropertyOp50
 70
     1
102
RTVSPropertyOp51
 70
     0
102
RTVSPropertyOp52
 70
     0
102
RTVSPropertyOp53
 70
     1
102
RTVSPropertyOp54
 70
     1
102
RTVSPropertyOp55
 70
     1
102
RTVSPropertyOp56
 70
     1
102
RTVSPropertyOp57
 70
     1
102
RTVSPropertyOp58
 70
     1
102
RTVSPropertyOp59
 70
     1
102
RTVSPropertyOp60
 70
     1
102
RTVSPropertyOp61
 70
     1
102
RTVSPropertyOp62
 70
     1
  0
XRECORD
  5
2D0
102
{ACAD_REACTORS
330
2CF
102
}
330
2CF
100
AcDbXrecord
280
     1
102
RTVSPost2010Prop28
280
     0
102
RTVSPost2010PropOp28
 70
     1
102
RTVSPost2010Prop29
280
     1
102
RTVSPost2010PropOp29
 70
     1
102
RTVSPost2010Prop30
280
     1
102
RTVSPost2010PropOp30
 70
     1
102
RTVSPost2010Prop31
280
     0
102
RTVSPost2010PropOp31
 70
     1
102
RTVSPost2010Prop32
280
     0
102
RTVSPost2010PropOp32
 70
     1
102
RTVSPost2010Prop33
280
     0
102
RTVSPost2010PropOp33
 70
     1
102
RTVSPost2010Prop34
280
     0
102
RTVSPost2010PropOp34
 70
     1
102
RTVSPost2010Prop35
280
     0
102
RTVSPost2010PropOp35
 70
     1
102
RTVSPost2010Prop36
280
     0
102
RTVSPost2010PropOp36
 70
     1
102
RTVSPost2010Prop37
 90
       50
102
RTVSPost2010PropOp37
 70
     1
102
RTVSPost2010Prop38
140
0.0
102
RTVSPost2010PropOp38
 70
     1
102
RTVSPost2010Prop39
140
1.0
102
RTVSPost2010PropOp39
 70
     1
102
RTVSPost2010Prop40
 90
        0
102
RTVSPost2010PropOp40
 70
     1
102
RTVSPost2010Prop41ColorIndex
 90
       18
102
RTVSPost2010Prop41ColorRGB
 90
        0
102
RTVSPost2010PropOp41
 70
     1
102
RTVSPost2010Prop42
 90
       50
102
RTVSPost2010PropOp42
 70
     1
102
RTVSPost2010Prop43
 90
        3
102
RTVSPost2010PropOp43
 70
     1
102
RTVSPost2010Prop44ColorIndex
 90
        5
102
RTVSPost2010Prop44ColorRGB
 90
      255
102
RTVSPost2010PropOp44
 70
     1
102
RTVSPost2010Prop45
280
     0
102
RTVSPost2010PropOp45
 70
     1
102
RTVSPost2010Prop46
 90
       50
102
RTVSPost2010PropOp46
 70
     1
102
RTVSPost2010Prop47
 90
       50
102
RTVSPost2010PropOp47
 70
     1
102
RTVSPost2010Prop48
 90
       50
102
RTVSPost2010PropOp48
 70
     1
102
RTVSPost2010Prop49
280
     0
102
RTVSPost2010PropOp49
 70
     1
102
RTVSPost2010Prop50
 90
       50
102
RTVSPost2010PropOp50
 70
     1
102
RTVSPost2010Prop51ColorIndex
 90
      256
102
RTVSPost2010Prop51ColorRGB
 90
-16777216
102
RTVSPost2010PropOp51
 70
     0
102
RTVSPost2010Prop52
140
1.0
102
RTVSPost2010PropOp52
 70
     0
102
RTVSPost2010Prop53
 90
        2
102
RTVSPost2010PropOp53
 70
     1
102
RTVSPost2010Prop54
  1
strokes_ogs.tif
102
RTVSPost2010PropOp54
 70
     1
102
RTVSPost2010Prop55
280
     0
102
RTVSPost2010PropOp55
 70
     1
102
RTVSPost2010Prop56
140
1.0
102
RTVSPost2010PropOp56
 70
     1
102
RTVSPost2010Prop57
140
1.0
102
RTVSPost2010PropOp57
 70
     1
102
RTVSPropertyOp0
 70
     1
102
RTVSPropertyOp1
 70
     1
102
RTVSPropertyOp2
 70
     1
102
RTVSPropertyOp3
 70
     1
102
RTVSPropertyOp4
 70
     1
102
RTVSPropertyOp5
 70
     1
102
RTVSPropertyOp6
 70
     1
102
RTVSPropertyOp7
 70
     1
102
RTVSPropertyOp8
 70
     1
102
RTVSPropertyOp9
 70
     1
102
RTVSPropertyOp10
 70
     1
102
RTVSPropertyOp11
 70
     1
102
RTVSPropertyOp12
 70
     1
102
RTVSPropertyOp13
 70
     1
102
RTVSPropertyOp14
 70
     1
102
RTVSPropertyOp15
 70
     1
102
RTVSPropertyOp16
 70
     1
102
RTVSPropertyOp17
 70
     1
102
RTVSPropertyOp18
 70
     1
102
RTVSPropertyOp19
 70
     1
102
RTVSPropertyOp20
 70
     1
102
RTVSPropertyOp21
 70
     1
102
RTVSPropertyOp22
 70
     1
102
RTVSPropertyOp23
 70
     1
102
RTVSPropertyOp24
 70
     1
102
RTVSPropertyOp25
 70
     1
102
RTVSPropertyOp26
 70
     1
102
RTVSPropertyOp27
 70
     1
102
RTVSPropertyOp28
 70
     1
102
RTVSPropertyOp29
 70
     1
102
RTVSPropertyOp30
 70
     1
102
RTVSPropertyOp31
 70
     1
102
RTVSPropertyOp32
 70
     1
102
RTVSPropertyOp33
 70
     1
102
RTVSPropertyOp34
 70
     1
102
RTVSPropertyOp35
 70
     1
102
RTVSPropertyOp36
 70
     1
102
RTVSPropertyOp37
 70
     1
102
RTVSPropertyOp38
 70
     1
102
RTVSPropertyOp39
 70
     1
102
RTVSPropertyOp40
 70
     1
102
RTVSPropertyOp41
 70
     1
102
RTVSPropertyOp42
 70
     1
102
RTVSPropertyOp43
 70
     1
102
RTVSPropertyOp44
 70
     1
102
RTVSPropertyOp45
 70
     1
102
RTVSPropertyOp46
 70
     1
102
RTVSPropertyOp47
 70
     1
102
RTVSPropertyOp48
 70
     1
102
RTVSPropertyOp49
 70
     1
102
RTVSPropertyOp50
 70
     1
102
RTVSPropertyOp51
 70
     0
102
RTVSPropertyOp52
 70
     0
102
RTVSPropertyOp53
 70
     1
102
RTVSPropertyOp54
 70
     1
102
RTVSPropertyOp55
 70
     1
102
RTVSPropertyOp56
 70
     1
102
RTVSPropertyOp57
 70
     1
102
RTVSPropertyOp58
 70
     1
102
RTVSPropertyOp59
 70
     1
102
RTVSPropertyOp60
 70
     1
102
RTVSPropertyOp61
 70
     1
102
RTVSPropertyOp62
 70
     1
  0
XRECORD
  5
2C4
102
{ACAD_REACTORS
330
2C3
102
}
330
2C3
100
AcDbXrecord
280
     1
102
RTVSPost2010Prop28
280
     0
102
RTVSPost2010PropOp28
 70
     1
102
RTVSPost2010Prop29
280
     1
102
RTVSPost2010PropOp29
 70
     1
102
RTVSPost2010Prop30
280
     1
102
RTVSPost2010PropOp30
 70
     1
102
RTVSPost2010Prop31
280
     0
102
RTVSPost2010PropOp31
 70
     1
102
RTVSPost2010Prop32
280
     0
102
RTVSPost2010PropOp32
 70
     1
102
RTVSPost2010Prop33
280
     0
102
RTVSPost2010PropOp33
 70
     1
102
RTVSPost2010Prop34
280
     0
102
RTVSPost2010PropOp34
 70
     1
102
RTVSPost2010Prop35
280
     0
102
RTVSPost2010PropOp35
 70
     1
102
RTVSPost2010Prop36
280
     0
102
RTVSPost2010PropOp36
 70
     1
102
RTVSPost2010Prop37
 90
       50
102
RTVSPost2010PropOp37
 70
     1
102
RTVSPost2010Prop38
140
0.0
102
RTVSPost2010PropOp38
 70
     1
102
RTVSPost2010Prop39
140
1.0
102
RTVSPost2010PropOp39
 70
     1
102
RTVSPost2010Prop40
 90
        0
102
RTVSPost2010PropOp40
 70
     1
102
RTVSPost2010Prop41ColorIndex
 90
       18
102
RTVSPost2010Prop41ColorRGB
 90
        0
102
RTVSPost2010PropOp41
 70
     1
102
RTVSPost2010Prop42
 90
       50
102
RTVSPost2010PropOp42
 70
     1
102
RTVSPost2010Prop43
 90
        3
102
RTVSPost2010PropOp43
 70
     1
102
RTVSPost2010Prop44ColorIndex
 90
        5
102
RTVSPost2010Prop44ColorRGB
 90
      255
102
RTVSPost2010PropOp44
 70
     1
102
RTVSPost2010Prop45
280
     0
102
RTVSPost2010PropOp45
 70
     1
102
RTVSPost2010Prop46
 90
       50
102
RTVSPost2010PropOp46
 70
     1
102
RTVSPost2010Prop47
 90
       50
102
RTVSPost2010PropOp47
 70
     1
102
RTVSPost2010Prop48
 90
       50
102
RTVSPost2010PropOp48
 70
     1
102
RTVSPost2010Prop49
280
     0
102
RTVSPost2010PropOp49
 70
     1
102
RTVSPost2010Prop50
 90
       50
102
RTVSPost2010PropOp50
 70
     1
102
RTVSPost2010Prop51ColorIndex
 90
      256
102
RTVSPost2010Prop51ColorRGB
 90
-16777216
102
RTVSPost2010PropOp51
 70
     0
102
RTVSPost2010Prop52
140
1.0
102
RTVSPost2010PropOp52
 70
     0
102
RTVSPost2010Prop53
 90
        2
102
RTVSPost2010PropOp53
 70
     1
102
RTVSPost2010Prop54
  1
strokes_ogs.tif
102
RTVSPost2010PropOp54
 70
     1
102
RTVSPost2010Prop55
280
     0
102
RTVSPost2010PropOp55
 70
     1
102
RTVSPost2010Prop56
140
1.0
102
RTVSPost2010PropOp56
 70
     1
102
RTVSPost2010Prop57
140
1.0
102
RTVSPost2010PropOp57
 70
     1
102
RTVSPropertyOp0
 70
     1
102
RTVSPropertyOp1
 70
     1
102
RTVSPropertyOp2
 70
     1
102
RTVSPropertyOp3
 70
     1
102
RTVSPropertyOp4
 70
     1
102
RTVSPropertyOp5
 70
     1
102
RTVSPropertyOp6
 70
     1
102
RTVSPropertyOp7
 70
     1
102
RTVSPropertyOp8
 70
     1
102
RTVSPropertyOp9
 70
     1
102
RTVSPropertyOp10
 70
     1
102
RTVSPropertyOp11
 70
     1
102
RTVSPropertyOp12
 70
     1
102
RTVSPropertyOp13
 70
     1
102
RTVSPropertyOp14
 70
     1
102
RTVSPropertyOp15
 70
     1
102
RTVSPropertyOp16
 70
     1
102
RTVSPropertyOp17
 70
     1
102
RTVSPropertyOp18
 70
     1
102
RTVSPropertyOp19
 70
     1
102
RTVSPropertyOp20
 70
     1
102
RTVSPropertyOp21
 70
     1
102
RTVSPropertyOp22
 70
     1
102
RTVSPropertyOp23
 70
     1
102
RTVSPropertyOp24
 70
     1
102
RTVSPropertyOp25
 70
     1
102
RTVSPropertyOp26
 70
     1
102
RTVSPropertyOp27
 70
     1
102
RTVSPropertyOp28
 70
     1
102
RTVSPropertyOp29
 70
     1
102
RTVSPropertyOp30
 70
     1
102
RTVSPropertyOp31
 70
     1
102
RTVSPropertyOp32
 70
     1
102
RTVSPropertyOp33
 70
     1
102
RTVSPropertyOp34
 70
     1
102
RTVSPropertyOp35
 70
     1
102
RTVSPropertyOp36
 70
     1
102
RTVSPropertyOp37
 70
     1
102
RTVSPropertyOp38
 70
     1
102
RTVSPropertyOp39
 70
     1
102
RTVSPropertyOp40
 70
     1
102
RTVSPropertyOp41
 70
     1
102
RTVSPropertyOp42
 70
     1
102
RTVSPropertyOp43
 70
     1
102
RTVSPropertyOp44
 70
     1
102
RTVSPropertyOp45
 70
     1
102
RTVSPropertyOp46
 70
     1
102
RTVSPropertyOp47
 70
     1
102
RTVSPropertyOp48
 70
     1
102
RTVSPropertyOp49
 70
     1
102
RTVSPropertyOp50
 70
     1
102
RTVSPropertyOp51
 70
     0
102
RTVSPropertyOp52
 70
     0
102
RTVSPropertyOp53
 70
     1
102
RTVSPropertyOp54
 70
     1
102
RTVSPropertyOp55
 70
     1
102
RTVSPropertyOp56
 70
     1
102
RTVSPropertyOp57
 70
     1
102
RTVSPropertyOp58
 70
     1
102
RTVSPropertyOp59
 70
     1
102
RTVSPropertyOp60
 70
     1
102
RTVSPropertyOp61
 70
     1
102
RTVSPropertyOp62
 70
     1
  0
XRECORD
  5
2C6
102
{ACAD_REACTORS
330
2C5
102
}
330
2C5
100
AcDbXrecord
280
     1
102
RTVSPost2010Prop28
280
     0
102
RTVSPost2010PropOp28
 70
     1
102
RTVSPost2010Prop29
280
     1
102
RTVSPost2010PropOp29
 70
     1
102
RTVSPost2010Prop30
280
     1
102
RTVSPost2010PropOp30
 70
     1
102
RTVSPost2010Prop31
280
     0
102
RTVSPost2010PropOp31
 70
     1
102
RTVSPost2010Prop32
280
     0
102
RTVSPost2010PropOp32
 70
     1
102
RTVSPost2010Prop33
280
     0
102
RTVSPost2010PropOp33
 70
     1
102
RTVSPost2010Prop34
280
     0
102
RTVSPost2010PropOp34
 70
     1
102
RTVSPost2010Prop35
280
     0
102
RTVSPost2010PropOp35
 70
     1
102
RTVSPost2010Prop36
280
     0
102
RTVSPost2010PropOp36
 70
     1
102
RTVSPost2010Prop37
 90
       50
102
RTVSPost2010PropOp37
 70
     1
102
RTVSPost2010Prop38
140
0.0
102
RTVSPost2010PropOp38
 70
     1
102
RTVSPost2010Prop39
140
1.0
102
RTVSPost2010PropOp39
 70
     1
102
RTVSPost2010Prop40
 90
        0
102
RTVSPost2010PropOp40
 70
     1
102
RTVSPost2010Prop41ColorIndex
 90
       18
102
RTVSPost2010Prop41ColorRGB
 90
        0
102
RTVSPost2010PropOp41
 70
     1
102
RTVSPost2010Prop42
 90
       50
102
RTVSPost2010PropOp42
 70
     1
102
RTVSPost2010Prop43
 90
        3
102
RTVSPost2010PropOp43
 70
     1
102
RTVSPost2010Prop44ColorIndex
 90
        5
102
RTVSPost2010Prop44ColorRGB
 90
      255
102
RTVSPost2010PropOp44
 70
     1
102
RTVSPost2010Prop45
280
     0
102
RTVSPost2010PropOp45
 70
     1
102
RTVSPost2010Prop46
 90
       50
102
RTVSPost2010PropOp46
 70
     1
102
RTVSPost2010Prop47
 90
       50
102
RTVSPost2010PropOp47
 70
     1
102
RTVSPost2010Prop48
 90
       50
102
RTVSPost2010PropOp48
 70
     1
102
RTVSPost2010Prop49
280
     0
102
RTVSPost2010PropOp49
 70
     1
102
RTVSPost2010Prop50
 90
       50
102
RTVSPost2010PropOp50
 70
     1
102
RTVSPost2010Prop51ColorIndex
 90
      256
102
RTVSPost2010Prop51ColorRGB
 90
-16777216
102
RTVSPost2010PropOp51
 70
     0
102
RTVSPost2010Prop52
140
1.0
102
RTVSPost2010PropOp52
 70
     0
102
RTVSPost2010Prop53
 90
        2
102
RTVSPost2010PropOp53
 70
     1
102
RTVSPost2010Prop54
  1
strokes_ogs.tif
102
RTVSPost2010PropOp54
 70
     1
102
RTVSPost2010Prop55
280
     0
102
RTVSPost2010PropOp55
 70
     1
102
RTVSPost2010Prop56
140
1.0
102
RTVSPost2010PropOp56
 70
     1
102
RTVSPost2010Prop57
140
1.0
102
RTVSPost2010PropOp57
 70
     1
102
RTVSPropertyOp0
 70
     1
102
RTVSPropertyOp1
 70
     1
102
RTVSPropertyOp2
 70
     1
102
RTVSPropertyOp3
 70
     1
102
RTVSPropertyOp4
 70
     1
102
RTVSPropertyOp5
 70
     1
102
RTVSPropertyOp6
 70
     1
102
RTVSPropertyOp7
 70
     1
102
RTVSPropertyOp8
 70
     1
102
RTVSPropertyOp9
 70
     1
102
RTVSPropertyOp10
 70
     1
102
RTVSPropertyOp11
 70
     1
102
RTVSPropertyOp12
 70
     1
102
RTVSPropertyOp13
 70
     1
102
RTVSPropertyOp14
 70
     1
102
RTVSPropertyOp15
 70
     1
102
RTVSPropertyOp16
 70
     1
102
RTVSPropertyOp17
 70
     1
102
RTVSPropertyOp18
 70
     1
102
RTVSPropertyOp19
 70
     1
102
RTVSPropertyOp20
 70
     1
102
RTVSPropertyOp21
 70
     1
102
RTVSPropertyOp22
 70
     1
102
RTVSPropertyOp23
 70
     1
102
RTVSPropertyOp24
 70
     1
102
RTVSPropertyOp25
 70
     1
102
RTVSPropertyOp26
 70
     1
102
RTVSPropertyOp27
 70
     1
102
RTVSPropertyOp28
 70
     1
102
RTVSPropertyOp29
 70
     1
102
RTVSPropertyOp30
 70
     1
102
RTVSPropertyOp31
 70
     1
102
RTVSPropertyOp32
 70
     1
102
RTVSPropertyOp33
 70
     1
102
RTVSPropertyOp34
 70
     1
102
RTVSPropertyOp35
 70
     1
102
RTVSPropertyOp36
 70
     1
102
RTVSPropertyOp37
 70
     1
102
RTVSPropertyOp38
 70
     1
102
RTVSPropertyOp39
 70
     1
102
RTVSPropertyOp40
 70
     1
102
RTVSPropertyOp41
 70
     1
102
RTVSPropertyOp42
 70
     1
102
RTVSPropertyOp43
 70
     1
102
RTVSPropertyOp44
 70
     1
102
RTVSPropertyOp45
 70
     1
102
RTVSPropertyOp46
 70
     1
102
RTVSPropertyOp47
 70
     1
102
RTVSPropertyOp48
 70
     1
102
RTVSPropertyOp49
 70
     1
102
RTVSPropertyOp50
 70
     1
102
RTVSPropertyOp51
 70
     0
102
RTVSPropertyOp52
 70
     0
102
RTVSPropertyOp53
 70
     1
102
RTVSPropertyOp54
 70
     1
102
RTVSPropertyOp55
 70
     1
102
RTVSPropertyOp56
 70
     1
102
RTVSPropertyOp57
 70
     1
102
RTVSPropertyOp58
 70
     1
102
RTVSPropertyOp59
 70
     1
102
RTVSPropertyOp60
 70
     1
102
RTVSPropertyOp61
 70
     1
102
RTVSPropertyOp62
 70
     1
  0
XRECORD
  5
2E0
102
{ACAD_REACTORS
330
2DF
102
}
330
2DF
100
AcDbXrecord
280
     1
102
RTVSPost2010Prop28
280
     0
102
RTVSPost2010PropOp28
 70
     0
102
RTVSPost2010Prop29
280
     1
102
RTVSPost2010PropOp29
 70
     0
102
RTVSPost2010Prop30
280
     1
102
RTVSPost2010PropOp30
 70
     0
102
RTVSPost2010Prop31
280
     0
102
RTVSPost2010PropOp31
 70
     0
102
RTVSPost2010Prop32
280
     0
102
RTVSPost2010PropOp32
 70
     0
102
RTVSPost2010Prop33
280
     0
102
RTVSPost2010PropOp33
 70
     0
102
RTVSPost2010Prop34
280
     0
102
RTVSPost2010PropOp34
 70
     0
102
RTVSPost2010Prop35
280
     0
102
RTVSPost2010PropOp35
 70
     0
102
RTVSPost2010Prop36
280
     0
102
RTVSPost2010PropOp36
 70
     0
102
RTVSPost2010Prop37
 90
       50
102
RTVSPost2010PropOp37
 70
     0
102
RTVSPost2010Prop38
140
0.0
102
RTVSPost2010PropOp38
 70
     0
102
RTVSPost2010Prop39
140
1.0
102
RTVSPost2010PropOp39
 70
     0
102
RTVSPost2010Prop40
 90
        0
102
RTVSPost2010PropOp40
 70
     0
102
RTVSPost2010Prop41ColorIndex
 90
       18
102
RTVSPost2010Prop41ColorRGB
 90
        0
102
RTVSPost2010PropOp41
 70
     0
102
RTVSPost2010Prop42
 90
       50
102
RTVSPost2010PropOp42
 70
     0
102
RTVSPost2010Prop43
 90
        3
102
RTVSPost2010PropOp43
 70
     0
102
RTVSPost2010Prop44ColorIndex
 90
        5
102
RTVSPost2010Prop44ColorRGB
 90
      255
102
RTVSPost2010PropOp44
 70
     0
102
RTVSPost2010Prop45
280
     0
102
RTVSPost2010PropOp45
 70
     0
102
RTVSPost2010Prop46
 90
       50
102
RTVSPost2010PropOp46
 70
     0
102
RTVSPost2010Prop47
 90
       50
102
RTVSPost2010PropOp47
 70
     0
102
RTVSPost2010Prop48
 90
       50
102
RTVSPost2010PropOp48
 70
     0
102
RTVSPost2010Prop49
280
     0
102
RTVSPost2010PropOp49
 70
     0
102
RTVSPost2010Prop50
 90
       50
102
RTVSPost2010PropOp50
 70
     0
102
RTVSPost2010Prop51ColorIndex
 90
      256
102
RTVSPost2010Prop51ColorRGB
 90
-16777216
102
RTVSPost2010PropOp51
 70
     0
102
RTVSPost2010Prop52
140
1.0
102
RTVSPost2010PropOp52
 70
     0
102
RTVSPost2010Prop53
 90
        2
102
RTVSPost2010PropOp53
 70
     0
102
RTVSPost2010Prop54
  1
strokes_ogs.tif
102
RTVSPost2010PropOp54
 70
     0
102
RTVSPost2010Prop55
280
     0
102
RTVSPost2010PropOp55
 70
     0
102
RTVSPost2010Prop56
140
1.0
102
RTVSPost2010PropOp56
 70
     0
102
RTVSPost2010Prop57
140
1.0
102
RTVSPost2010PropOp57
 70
     0
102
RTVSPropertyOp0
 70
     0
102
RTVSPropertyOp1
 70
     0
102
RTVSPropertyOp2
 70
     0
102
RTVSPropertyOp3
 70
     0
102
RTVSPropertyOp4
 70
     0
102
RTVSPropertyOp5
 70
     0
102
RTVSPropertyOp6
 70
     0
102
RTVSPropertyOp7
 70
     0
102
RTVSPropertyOp8
 70
     0
102
RTVSPropertyOp9
 70
     0
102
RTVSPropertyOp10
 70
     0
102
RTVSPropertyOp11
 70
     0
102
RTVSPropertyOp12
 70
     0
102
RTVSPropertyOp13
 70
     0
102
RTVSPropertyOp14
 70
     2
102
RTVSPropertyOp15
 70
     0
102
RTVSPropertyOp16
 70
     0
102
RTVSPropertyOp17
 70
     0
102
RTVSPropertyOp18
 70
     0
102
RTVSPropertyOp19
 70
     0
102
RTVSPropertyOp20
 70
     0
102
RTVSPropertyOp21
 70
     0
102
RTVSPropertyOp22
 70
     0
102
RTVSPropertyOp23
 70
     0
102
RTVSPropertyOp24
 70
     0
102
RTVSPropertyOp25
 70
     0
102
RTVSPropertyOp26
 70
     0
102
RTVSPropertyOp27
 70
     0
102
RTVSPropertyOp28
 70
     0
102
RTVSPropertyOp29
 70
     0
102
RTVSPropertyOp30
 70
     0
102
RTVSPropertyOp31
 70
     0
102
RTVSPropertyOp32
 70
     0
102
RTVSPropertyOp33
 70
     0
102
RTVSPropertyOp34
 70
     0
102
RTVSPropertyOp35
 70
     0
102
RTVSPropertyOp36
 70
     0
102
RTVSPropertyOp37
 70
     0
102
RTVSPropertyOp38
 70
     0
102
RTVSPropertyOp39
 70
     0
102
RTVSPropertyOp40
 70
     0
102
RTVSPropertyOp41
 70
     0
102
RTVSPropertyOp42
 70
     0
102
RTVSPropertyOp43
 70
     0
102
RTVSPropertyOp44
 70
     0
102
RTVSPropertyOp45
 70
     0
102
RTVSPropertyOp46
 70
     0
102
RTVSPropertyOp47
 70
     0
102
RTVSPropertyOp48
 70
     0
102
RTVSPropertyOp49
 70
     0
102
RTVSPropertyOp50
 70
     0
102
RTVSPropertyOp51
 70
     0
102
RTVSPropertyOp52
 70
     0
102
RTVSPropertyOp53
 70
     0
102
RTVSPropertyOp54
 70
     0
102
RTVSPropertyOp55
 70
     0
102
RTVSPropertyOp56
 70
     0
102
RTVSPropertyOp57
 70
     0
102
RTVSPropertyOp58
 70
     0
102
RTVSPropertyOp59
 70
     0
102
RTVSPropertyOp60
 70
     0
102
RTVSPropertyOp61
 70
     0
102
RTVSPropertyOp62
 70
     0
  0
XRECORD
  5
2CE
102
{ACAD_REACTORS
330
2CD
102
}
330
2CD
100
AcDbXrecord
280
     1
102
RTVSPost2010Prop28
280
     0
102
RTVSPost2010PropOp28
 70
     1
102
RTVSPost2010Prop29
280
     1
102
RTVSPost2010PropOp29
 70
     1
102
RTVSPost2010Prop30
280
     1
102
RTVSPost2010PropOp30
 70
     1
102
RTVSPost2010Prop31
280
     0
102
RTVSPost2010PropOp31
 70
     1
102
RTVSPost2010Prop32
280
     0
102
RTVSPost2010PropOp32
 70
     1
102
RTVSPost2010Prop33
280
     0
102
RTVSPost2010PropOp33
 70
     1
102
RTVSPost2010Prop34
280
     0
102
RTVSPost2010PropOp34
 70
     1
102
RTVSPost2010Prop35
280
     0
102
RTVSPost2010PropOp35
 70
     1
102
RTVSPost2010Prop36
280
     0
102
RTVSPost2010PropOp36
 70
     1
102
RTVSPost2010Prop37
 90
       50
102
RTVSPost2010PropOp37
 70
     1
102
RTVSPost2010Prop38
140
0.0
102
RTVSPost2010PropOp38
 70
     1
102
RTVSPost2010Prop39
140
1.0
102
RTVSPost2010PropOp39
 70
     1
102
RTVSPost2010Prop40
 90
        0
102
RTVSPost2010PropOp40
 70
     1
102
RTVSPost2010Prop41ColorIndex
 90
       18
102
RTVSPost2010Prop41ColorRGB
 90
        0
102
RTVSPost2010PropOp41
 70
     1
102
RTVSPost2010Prop42
 90
       50
102
RTVSPost2010PropOp42
 70
     1
102
RTVSPost2010Prop43
 90
        3
102
RTVSPost2010PropOp43
 70
     1
102
RTVSPost2010Prop44ColorIndex
 90
        5
102
RTVSPost2010Prop44ColorRGB
 90
      255
102
RTVSPost2010PropOp44
 70
     1
102
RTVSPost2010Prop45
280
     0
102
RTVSPost2010PropOp45
 70
     1
102
RTVSPost2010Prop46
 90
       50
102
RTVSPost2010PropOp46
 70
     1
102
RTVSPost2010Prop47
 90
       50
102
RTVSPost2010PropOp47
 70
     1
102
RTVSPost2010Prop48
 90
       50
102
RTVSPost2010PropOp48
 70
     1
102
RTVSPost2010Prop49
280
     0
102
RTVSPost2010PropOp49
 70
     1
102
RTVSPost2010Prop50
 90
       50
102
RTVSPost2010PropOp50
 70
     1
102
RTVSPost2010Prop51ColorIndex
 90
      256
102
RTVSPost2010Prop51ColorRGB
 90
-16777216
102
RTVSPost2010PropOp51
 70
     0
102
RTVSPost2010Prop52
140
1.0
102
RTVSPost2010PropOp52
 70
     0
102
RTVSPost2010Prop53
 90
        2
102
RTVSPost2010PropOp53
 70
     1
102
RTVSPost2010Prop54
  1
strokes_ogs.tif
102
RTVSPost2010PropOp54
 70
     1
102
RTVSPost2010Prop55
280
     0
102
RTVSPost2010PropOp55
 70
     1
102
RTVSPost2010Prop56
140
1.0
102
RTVSPost2010PropOp56
 70
     1
102
RTVSPost2010Prop57
140
1.0
102
RTVSPost2010PropOp57
 70
     1
102
RTVSPropertyOp0
 70
     1
102
RTVSPropertyOp1
 70
     1
102
RTVSPropertyOp2
 70
     1
102
RTVSPropertyOp3
 70
     1
102
RTVSPropertyOp4
 70
     1
102
RTVSPropertyOp5
 70
     1
102
RTVSPropertyOp6
 70
     1
102
RTVSPropertyOp7
 70
     1
102
RTVSPropertyOp8
 70
     1
102
RTVSPropertyOp9
 70
     1
102
RTVSPropertyOp10
 70
     1
102
RTVSPropertyOp11
 70
     1
102
RTVSPropertyOp12
 70
     1
102
RTVSPropertyOp13
 70
     1
102
RTVSPropertyOp14
 70
     1
102
RTVSPropertyOp15
 70
     1
102
RTVSPropertyOp16
 70
     1
102
RTVSPropertyOp17
 70
     1
102
RTVSPropertyOp18
 70
     1
102
RTVSPropertyOp19
 70
     1
102
RTVSPropertyOp20
 70
     1
102
RTVSPropertyOp21
 70
     1
102
RTVSPropertyOp22
 70
     1
102
RTVSPropertyOp23
 70
     1
102
RTVSPropertyOp24
 70
     1
102
RTVSPropertyOp25
 70
     1
102
RTVSPropertyOp26
 70
     1
102
RTVSPropertyOp27
 70
     1
102
RTVSPropertyOp28
 70
     1
102
RTVSPropertyOp29
 70
     1
102
RTVSPropertyOp30
 70
     1
102
RTVSPropertyOp31
 70
     1
102
RTVSPropertyOp32
 70
     1
102
RTVSPropertyOp33
 70
     1
102
RTVSPropertyOp34
 70
     1
102
RTVSPropertyOp35
 70
     1
102
RTVSPropertyOp36
 70
     1
102
RTVSPropertyOp37
 70
     1
102
RTVSPropertyOp38
 70
     1
102
RTVSPropertyOp39
 70
     1
102
RTVSPropertyOp40
 70
     1
102
RTVSPropertyOp41
 70
     1
102
RTVSPropertyOp42
 70
     1
102
RTVSPropertyOp43
 70
     1
102
RTVSPropertyOp44
 70
     1
102
RTVSPropertyOp45
 70
     1
102
RTVSPropertyOp46
 70
     1
102
RTVSPropertyOp47
 70
     1
102
RTVSPropertyOp48
 70
     1
102
RTVSPropertyOp49
 70
     1
102
RTVSPropertyOp50
 70
     1
102
RTVSPropertyOp51
 70
     0
102
RTVSPropertyOp52
 70
     0
102
RTVSPropertyOp53
 70
     1
102
RTVSPropertyOp54
 70
     1
102
RTVSPropertyOp55
 70
     1
102
RTVSPropertyOp56
 70
     1
102
RTVSPropertyOp57
 70
     1
102
RTVSPropertyOp58
 70
     1
102
RTVSPropertyOp59
 70
     1
102
RTVSPropertyOp60
 70
     1
102
RTVSPropertyOp61
 70
     1
102
RTVSPropertyOp62
 70
     1
  0
XRECORD
  5
2B6
102
{ACAD_REACTORS
330
2B5
102
}
330
2B5
100
AcDbXrecord
280
     1
102
RTVSPost2010Prop28
280
     0
102
RTVSPost2010PropOp28
 70
     1
102
RTVSPost2010Prop29
280
     1
102
RTVSPost2010PropOp29
 70
     1
102
RTVSPost2010Prop30
280
     1
102
RTVSPost2010PropOp30
 70
     1
102
RTVSPost2010Prop31
280
     0
102
RTVSPost2010PropOp31
 70
     1
102
RTVSPost2010Prop32
280
     0
102
RTVSPost2010PropOp32
 70
     1
102
RTVSPost2010Prop33
280
     0
102
RTVSPost2010PropOp33
 70
     1
102
RTVSPost2010Prop34
280
     0
102
RTVSPost2010PropOp34
 70
     1
102
RTVSPost2010Prop35
280
     0
102
RTVSPost2010PropOp35
 70
     1
102
RTVSPost2010Prop36
280
     0
102
RTVSPost2010PropOp36
 70
     1
102
RTVSPost2010Prop37
 90
       50
102
RTVSPost2010PropOp37
 70
     1
102
RTVSPost2010Prop38
140
0.0
102
RTVSPost2010PropOp38
 70
     1
102
RTVSPost2010Prop39
140
1.0
102
RTVSPost2010PropOp39
 70
     1
102
RTVSPost2010Prop40
 90
        0
102
RTVSPost2010PropOp40
 70
     1
102
RTVSPost2010Prop41ColorIndex
 90
       18
102
RTVSPost2010Prop41ColorRGB
 90
        0
102
RTVSPost2010PropOp41
 70
     1
102
RTVSPost2010Prop42
 90
       50
102
RTVSPost2010PropOp42
 70
     1
102
RTVSPost2010Prop43
 90
        3
102
RTVSPost2010PropOp43
 70
     1
102
RTVSPost2010Prop44ColorIndex
 90
        5
102
RTVSPost2010Prop44ColorRGB
 90
      255
102
RTVSPost2010PropOp44
 70
     1
102
RTVSPost2010Prop45
280
     0
102
RTVSPost2010PropOp45
 70
     1
102
RTVSPost2010Prop46
 90
       50
102
RTVSPost2010PropOp46
 70
     1
102
RTVSPost2010Prop47
 90
       50
102
RTVSPost2010PropOp47
 70
     1
102
RTVSPost2010Prop48
 90
       50
102
RTVSPost2010PropOp48
 70
     1
102
RTVSPost2010Prop49
280
     0
102
RTVSPost2010PropOp49
 70
     1
102
RTVSPost2010Prop50
 90
       50
102
RTVSPost2010PropOp50
 70
     1
102
RTVSPost2010Prop51ColorIndex
 90
      256
102
RTVSPost2010Prop51ColorRGB
 90
-16777216
102
RTVSPost2010PropOp51
 70
     0
102
RTVSPost2010Prop52
140
1.0
102
RTVSPost2010PropOp52
 70
     0
102
RTVSPost2010Prop53
 90
        2
102
RTVSPost2010PropOp53
 70
     1
102
RTVSPost2010Prop54
  1
strokes_ogs.tif
102
RTVSPost2010PropOp54
 70
     1
102
RTVSPost2010Prop55
280
     0
102
RTVSPost2010PropOp55
 70
     1
102
RTVSPost2010Prop56
140
1.0
102
RTVSPost2010PropOp56
 70
     1
102
RTVSPost2010Prop57
140
1.0
102
RTVSPost2010PropOp57
 70
     1
102
RTVSPropertyOp0
 70
     1
102
RTVSPropertyOp1
 70
     1
102
RTVSPropertyOp2
 70
     1
102
RTVSPropertyOp3
 70
     1
102
RTVSPropertyOp4
 70
     1
102
RTVSPropertyOp5
 70
     1
102
RTVSPropertyOp6
 70
     1
102
RTVSPropertyOp7
 70
     1
102
RTVSPropertyOp8
 70
     1
102
RTVSPropertyOp9
 70
     1
102
RTVSPropertyOp10
 70
     1
102
RTVSPropertyOp11
 70
     1
102
RTVSPropertyOp12
 70
     1
102
RTVSPropertyOp13
 70
     1
102
RTVSPropertyOp14
 70
     1
102
RTVSPropertyOp15
 70
     1
102
RTVSPropertyOp16
 70
     1
102
RTVSPropertyOp17
 70
     1
102
RTVSPropertyOp18
 70
     1
102
RTVSPropertyOp19
 70
     1
102
RTVSPropertyOp20
 70
     1
102
RTVSPropertyOp21
 70
     1
102
RTVSPropertyOp22
 70
     1
102
RTVSPropertyOp23
 70
     1
102
RTVSPropertyOp24
 70
     1
102
RTVSPropertyOp25
 70
     1
102
RTVSPropertyOp26
 70
     1
102
RTVSPropertyOp27
 70
     1
102
RTVSPropertyOp28
 70
     1
102
RTVSPropertyOp29
 70
     1
102
RTVSPropertyOp30
 70
     1
102
RTVSPropertyOp31
 70
     1
102
RTVSPropertyOp32
 70
     1
102
RTVSPropertyOp33
 70
     1
102
RTVSPropertyOp34
 70
     1
102
RTVSPropertyOp35
 70
     1
102
RTVSPropertyOp36
 70
     1
102
RTVSPropertyOp37
 70
     1
102
RTVSPropertyOp38
 70
     1
102
RTVSPropertyOp39
 70
     1
102
RTVSPropertyOp40
 70
     1
102
RTVSPropertyOp41
 70
     1
102
RTVSPropertyOp42
 70
     1
102
RTVSPropertyOp43
 70
     1
102
RTVSPropertyOp44
 70
     1
102
RTVSPropertyOp45
 70
     1
102
RTVSPropertyOp46
 70
     1
102
RTVSPropertyOp47
 70
     1
102
RTVSPropertyOp48
 70
     1
102
RTVSPropertyOp49
 70
     1
102
RTVSPropertyOp50
 70
     1
102
RTVSPropertyOp51
 70
     0
102
RTVSPropertyOp52
 70
     0
102
RTVSPropertyOp53
 70
     1
102
RTVSPropertyOp54
 70
     1
102
RTVSPropertyOp55
 70
     1
102
RTVSPropertyOp56
 70
     1
102
RTVSPropertyOp57
 70
     1
102
RTVSPropertyOp58
 70
     1
102
RTVSPropertyOp59
 70
     1
102
RTVSPropertyOp60
 70
     1
102
RTVSPropertyOp61
 70
     1
102
RTVSPropertyOp62
 70
     1
  0
XRECORD
  5
2B8
102
{ACAD_REACTORS
330
2B7
102
}
330
2B7
100
AcDbXrecord
280
     1
102
RTVSPost2010Prop28
280
     0
102
RTVSPost2010PropOp28
 70
     1
102
RTVSPost2010Prop29
280
     1
102
RTVSPost2010PropOp29
 70
     1
102
RTVSPost2010Prop30
280
     1
102
RTVSPost2010PropOp30
 70
     1
102
RTVSPost2010Prop31
280
     0
102
RTVSPost2010PropOp31
 70
     1
102
RTVSPost2010Prop32
280
     0
102
RTVSPost2010PropOp32
 70
     1
102
RTVSPost2010Prop33
280
     0
102
RTVSPost2010PropOp33
 70
     1
102
RTVSPost2010Prop34
280
     0
102
RTVSPost2010PropOp34
 70
     1
102
RTVSPost2010Prop35
280
     0
102
RTVSPost2010PropOp35
 70
     1
102
RTVSPost2010Prop36
280
     0
102
RTVSPost2010PropOp36
 70
     1
102
RTVSPost2010Prop37
 90
       50
102
RTVSPost2010PropOp37
 70
     1
102
RTVSPost2010Prop38
140
0.0
102
RTVSPost2010PropOp38
 70
     1
102
RTVSPost2010Prop39
140
1.0
102
RTVSPost2010PropOp39
 70
     1
102
RTVSPost2010Prop40
 90
        0
102
RTVSPost2010PropOp40
 70
     1
102
RTVSPost2010Prop41ColorIndex
 90
       18
102
RTVSPost2010Prop41ColorRGB
 90
        0
102
RTVSPost2010PropOp41
 70
     1
102
RTVSPost2010Prop42
 90
       50
102
RTVSPost2010PropOp42
 70
     1
102
RTVSPost2010Prop43
 90
        3
102
RTVSPost2010PropOp43
 70
     1
102
RTVSPost2010Prop44ColorIndex
 90
        5
102
RTVSPost2010Prop44ColorRGB
 90
      255
102
RTVSPost2010PropOp44
 70
     1
102
RTVSPost2010Prop45
280
     0
102
RTVSPost2010PropOp45
 70
     1
102
RTVSPost2010Prop46
 90
       50
102
RTVSPost2010PropOp46
 70
     1
102
RTVSPost2010Prop47
 90
       50
102
RTVSPost2010PropOp47
 70
     1
102
RTVSPost2010Prop48
 90
       50
102
RTVSPost2010PropOp48
 70
     1
102
RTVSPost2010Prop49
280
     0
102
RTVSPost2010PropOp49
 70
     1
102
RTVSPost2010Prop50
 90
       50
102
RTVSPost2010PropOp50
 70
     1
102
RTVSPost2010Prop51ColorIndex
 90
      256
102
RTVSPost2010Prop51ColorRGB
 90
-16777216
102
RTVSPost2010PropOp51
 70
     0
102
RTVSPost2010Prop52
140
1.0
102
RTVSPost2010PropOp52
 70
     0
102
RTVSPost2010Prop53
 90
        2
102
RTVSPost2010PropOp53
 70
     1
102
RTVSPost2010Prop54
  1
strokes_ogs.tif
102
RTVSPost2010PropOp54
 70
     1
102
RTVSPost2010Prop55
280
     0
102
RTVSPost2010PropOp55
 70
     1
102
RTVSPost2010Prop56
140
1.0
102
RTVSPost2010PropOp56
 70
     1
102
RTVSPost2010Prop57
140
1.0
102
RTVSPost2010PropOp57
 70
     1
102
RTVSPropertyOp0
 70
     1
102
RTVSPropertyOp1
 70
     1
102
RTVSPropertyOp2
 70
     1
102
RTVSPropertyOp3
 70
     1
102
RTVSPropertyOp4
 70
     1
102
RTVSPropertyOp5
 70
     1
102
RTVSPropertyOp6
 70
     1
102
RTVSPropertyOp7
 70
     1
102
RTVSPropertyOp8
 70
     1
102
RTVSPropertyOp9
 70
     1
102
RTVSPropertyOp10
 70
     1
102
RTVSPropertyOp11
 70
     1
102
RTVSPropertyOp12
 70
     1
102
RTVSPropertyOp13
 70
     1
102
RTVSPropertyOp14
 70
     1
102
RTVSPropertyOp15
 70
     1
102
RTVSPropertyOp16
 70
     1
102
RTVSPropertyOp17
 70
     1
102
RTVSPropertyOp18
 70
     1
102
RTVSPropertyOp19
 70
     1
102
RTVSPropertyOp20
 70
     1
102
RTVSPropertyOp21
 70
     1
102
RTVSPropertyOp22
 70
     1
102
RTVSPropertyOp23
 70
     1
102
RTVSPropertyOp24
 70
     1
102
RTVSPropertyOp25
 70
     1
102
RTVSPropertyOp26
 70
     1
102
RTVSPropertyOp27
 70
     1
102
RTVSPropertyOp28
 70
     1
102
RTVSPropertyOp29
 70
     1
102
RTVSPropertyOp30
 70
     1
102
RTVSPropertyOp31
 70
     1
102
RTVSPropertyOp32
 70
     1
102
RTVSPropertyOp33
 70
     1
102
RTVSPropertyOp34
 70
     1
102
RTVSPropertyOp35
 70
     1
102
RTVSPropertyOp36
 70
     1
102
RTVSPropertyOp37
 70
     1
102
RTVSPropertyOp38
 70
     1
102
RTVSPropertyOp39
 70
     1
102
RTVSPropertyOp40
 70
     1
102
RTVSPropertyOp41
 70
     1
102
RTVSPropertyOp42
 70
     1
102
RTVSPropertyOp43
 70
     1
102
RTVSPropertyOp44
 70
     1
102
RTVSPropertyOp45
 70
     1
102
RTVSPropertyOp46
 70
     1
102
RTVSPropertyOp47
 70
     1
102
RTVSPropertyOp48
 70
     1
102
RTVSPropertyOp49
 70
     1
102
RTVSPropertyOp50
 70
     1
102
RTVSPropertyOp51
 70
     0
102
RTVSPropertyOp52
 70
     0
102
RTVSPropertyOp53
 70
     1
102
RTVSPropertyOp54
 70
     1
102
RTVSPropertyOp55
 70
     1
102
RTVSPropertyOp56
 70
     1
102
RTVSPropertyOp57
 70
     1
102
RTVSPropertyOp58
 70
     1
102
RTVSPropertyOp59
 70
     1
102
RTVSPropertyOp60
 70
     1
102
RTVSPropertyOp61
 70
     1
102
RTVSPropertyOp62
 70
     1
  0
XRECORD
  5
2BA
102
{ACAD_REACTORS
330
2B9
102
}
330
2B9
100
AcDbXrecord
280
     1
102
RTVSPost2010Prop28
280
     0
102
RTVSPost2010PropOp28
 70
     1
102
RTVSPost2010Prop29
280
     1
102
RTVSPost2010PropOp29
 70
     1
102
RTVSPost2010Prop30
280
     1
102
RTVSPost2010PropOp30
 70
     1
102
RTVSPost2010Prop31
280
     0
102
RTVSPost2010PropOp31
 70
     1
102
RTVSPost2010Prop32
280
     0
102
RTVSPost2010PropOp32
 70
     1
102
RTVSPost2010Prop33
280
     0
102
RTVSPost2010PropOp33
 70
     1
102
RTVSPost2010Prop34
280
     0
102
RTVSPost2010PropOp34
 70
     1
102
RTVSPost2010Prop35
280
     0
102
RTVSPost2010PropOp35
 70
     1
102
RTVSPost2010Prop36
280
     0
102
RTVSPost2010PropOp36
 70
     1
102
RTVSPost2010Prop37
 90
       50
102
RTVSPost2010PropOp37
 70
     1
102
RTVSPost2010Prop38
140
0.0
102
RTVSPost2010PropOp38
 70
     1
102
RTVSPost2010Prop39
140
1.0
102
RTVSPost2010PropOp39
 70
     1
102
RTVSPost2010Prop40
 90
        0
102
RTVSPost2010PropOp40
 70
     1
102
RTVSPost2010Prop41ColorIndex
 90
       18
102
RTVSPost2010Prop41ColorRGB
 90
        0
102
RTVSPost2010PropOp41
 70
     1
102
RTVSPost2010Prop42
 90
       50
102
RTVSPost2010PropOp42
 70
     1
102
RTVSPost2010Prop43
 90
        3
102
RTVSPost2010PropOp43
 70
     1
102
RTVSPost2010Prop44ColorIndex
 90
        5
102
RTVSPost2010Prop44ColorRGB
 90
      255
102
RTVSPost2010PropOp44
 70
     1
102
RTVSPost2010Prop45
280
     0
102
RTVSPost2010PropOp45
 70
     1
102
RTVSPost2010Prop46
 90
       50
102
RTVSPost2010PropOp46
 70
     1
102
RTVSPost2010Prop47
 90
       50
102
RTVSPost2010PropOp47
 70
     1
102
RTVSPost2010Prop48
 90
       50
102
RTVSPost2010PropOp48
 70
     1
102
RTVSPost2010Prop49
280
     0
102
RTVSPost2010PropOp49
 70
     1
102
RTVSPost2010Prop50
 90
       50
102
RTVSPost2010PropOp50
 70
     1
102
RTVSPost2010Prop51ColorIndex
 90
      256
102
RTVSPost2010Prop51ColorRGB
 90
-16777216
102
RTVSPost2010PropOp51
 70
     0
102
RTVSPost2010Prop52
140
1.0
102
RTVSPost2010PropOp52
 70
     0
102
RTVSPost2010Prop53
 90
        2
102
RTVSPost2010PropOp53
 70
     1
102
RTVSPost2010Prop54
  1
strokes_ogs.tif
102
RTVSPost2010PropOp54
 70
     1
102
RTVSPost2010Prop55
280
     0
102
RTVSPost2010PropOp55
 70
     1
102
RTVSPost2010Prop56
140
1.0
102
RTVSPost2010PropOp56
 70
     1
102
RTVSPost2010Prop57
140
1.0
102
RTVSPost2010PropOp57
 70
     1
102
RTVSPropertyOp0
 70
     1
102
RTVSPropertyOp1
 70
     1
102
RTVSPropertyOp2
 70
     1
102
RTVSPropertyOp3
 70
     1
102
RTVSPropertyOp4
 70
     1
102
RTVSPropertyOp5
 70
     1
102
RTVSPropertyOp6
 70
     1
102
RTVSPropertyOp7
 70
     1
102
RTVSPropertyOp8
 70
     1
102
RTVSPropertyOp9
 70
     1
102
RTVSPropertyOp10
 70
     1
102
RTVSPropertyOp11
 70
     1
102
RTVSPropertyOp12
 70
     1
102
RTVSPropertyOp13
 70
     1
102
RTVSPropertyOp14
 70
     1
102
RTVSPropertyOp15
 70
     1
102
RTVSPropertyOp16
 70
     1
102
RTVSPropertyOp17
 70
     1
102
RTVSPropertyOp18
 70
     1
102
RTVSPropertyOp19
 70
     1
102
RTVSPropertyOp20
 70
     1
102
RTVSPropertyOp21
 70
     1
102
RTVSPropertyOp22
 70
     1
102
RTVSPropertyOp23
 70
     1
102
RTVSPropertyOp24
 70
     1
102
RTVSPropertyOp25
 70
     1
102
RTVSPropertyOp26
 70
     1
102
RTVSPropertyOp27
 70
     1
102
RTVSPropertyOp28
 70
     1
102
RTVSPropertyOp29
 70
     1
102
RTVSPropertyOp30
 70
     1
102
RTVSPropertyOp31
 70
     1
102
RTVSPropertyOp32
 70
     1
102
RTVSPropertyOp33
 70
     1
102
RTVSPropertyOp34
 70
     1
102
RTVSPropertyOp35
 70
     1
102
RTVSPropertyOp36
 70
     1
102
RTVSPropertyOp37
 70
     1
102
RTVSPropertyOp38
 70
     1
102
RTVSPropertyOp39
 70
     1
102
RTVSPropertyOp40
 70
     1
102
RTVSPropertyOp41
 70
     1
102
RTVSPropertyOp42
 70
     1
102
RTVSPropertyOp43
 70
     1
102
RTVSPropertyOp44
 70
     1
102
RTVSPropertyOp45
 70
     1
102
RTVSPropertyOp46
 70
     1
102
RTVSPropertyOp47
 70
     1
102
RTVSPropertyOp48
 70
     1
102
RTVSPropertyOp49
 70
     1
102
RTVSPropertyOp50
 70
     1
102
RTVSPropertyOp51
 70
     0
102
RTVSPropertyOp52
 70
     0
102
RTVSPropertyOp53
 70
     1
102
RTVSPropertyOp54
 70
     1
102
RTVSPropertyOp55
 70
     1
102
RTVSPropertyOp56
 70
     1
102
RTVSPropertyOp57
 70
     1
102
RTVSPropertyOp58
 70
     1
102
RTVSPropertyOp59
 70
     1
102
RTVSPropertyOp60
 70
     1
102
RTVSPropertyOp61
 70
     1
102
RTVSPropertyOp62
 70
     1
  0
XRECORD
  5
2BC
102
{ACAD_REACTORS
330
2BB
102
}
330
2BB
100
AcDbXrecord
280
     1
102
RTVSPost2010Prop28
280
     0
102
RTVSPost2010PropOp28
 70
     1
102
RTVSPost2010Prop29
280
     1
102
RTVSPost2010PropOp29
 70
     1
102
RTVSPost2010Prop30
280
     1
102
RTVSPost2010PropOp30
 70
     1
102
RTVSPost2010Prop31
280
     0
102
RTVSPost2010PropOp31
 70
     1
102
RTVSPost2010Prop32
280
     0
102
RTVSPost2010PropOp32
 70
     1
102
RTVSPost2010Prop33
280
     0
102
RTVSPost2010PropOp33
 70
     1
102
RTVSPost2010Prop34
280
     0
102
RTVSPost2010PropOp34
 70
     1
102
RTVSPost2010Prop35
280
     0
102
RTVSPost2010PropOp35
 70
     1
102
RTVSPost2010Prop36
280
     0
102
RTVSPost2010PropOp36
 70
     1
102
RTVSPost2010Prop37
 90
       50
102
RTVSPost2010PropOp37
 70
     1
102
RTVSPost2010Prop38
140
0.0
102
RTVSPost2010PropOp38
 70
     1
102
RTVSPost2010Prop39
140
1.0
102
RTVSPost2010PropOp39
 70
     1
102
RTVSPost2010Prop40
 90
        0
102
RTVSPost2010PropOp40
 70
     1
102
RTVSPost2010Prop41ColorIndex
 90
       18
102
RTVSPost2010Prop41ColorRGB
 90
        0
102
RTVSPost2010PropOp41
 70
     1
102
RTVSPost2010Prop42
 90
       50
102
RTVSPost2010PropOp42
 70
     1
102
RTVSPost2010Prop43
 90
        3
102
RTVSPost2010PropOp43
 70
     1
102
RTVSPost2010Prop44ColorIndex
 90
        5
102
RTVSPost2010Prop44ColorRGB
 90
      255
102
RTVSPost2010PropOp44
 70
     1
102
RTVSPost2010Prop45
280
     0
102
RTVSPost2010PropOp45
 70
     1
102
RTVSPost2010Prop46
 90
       50
102
RTVSPost2010PropOp46
 70
     1
102
RTVSPost2010Prop47
 90
       50
102
RTVSPost2010PropOp47
 70
     1
102
RTVSPost2010Prop48
 90
       50
102
RTVSPost2010PropOp48
 70
     1
102
RTVSPost2010Prop49
280
     0
102
RTVSPost2010PropOp49
 70
     1
102
RTVSPost2010Prop50
 90
       50
102
RTVSPost2010PropOp50
 70
     1
102
RTVSPost2010Prop51ColorIndex
 90
      256
102
RTVSPost2010Prop51ColorRGB
 90
-16777216
102
RTVSPost2010PropOp51
 70
     0
102
RTVSPost2010Prop52
140
1.0
102
RTVSPost2010PropOp52
 70
     0
102
RTVSPost2010Prop53
 90
        2
102
RTVSPost2010PropOp53
 70
     1
102
RTVSPost2010Prop54
  1
strokes_ogs.tif
102
RTVSPost2010PropOp54
 70
     1
102
RTVSPost2010Prop55
280
     0
102
RTVSPost2010PropOp55
 70
     1
102
RTVSPost2010Prop56
140
1.0
102
RTVSPost2010PropOp56
 70
     1
102
RTVSPost2010Prop57
140
1.0
102
RTVSPost2010PropOp57
 70
     1
102
RTVSPropertyOp0
 70
     1
102
RTVSPropertyOp1
 70
     1
102
RTVSPropertyOp2
 70
     1
102
RTVSPropertyOp3
 70
     1
102
RTVSPropertyOp4
 70
     1
102
RTVSPropertyOp5
 70
     1
102
RTVSPropertyOp6
 70
     1
102
RTVSPropertyOp7
 70
     1
102
RTVSPropertyOp8
 70
     1
102
RTVSPropertyOp9
 70
     1
102
RTVSPropertyOp10
 70
     1
102
RTVSPropertyOp11
 70
     1
102
RTVSPropertyOp12
 70
     1
102
RTVSPropertyOp13
 70
     1
102
RTVSPropertyOp14
 70
     1
102
RTVSPropertyOp15
 70
     1
102
RTVSPropertyOp16
 70
     1
102
RTVSPropertyOp17
 70
     1
102
RTVSPropertyOp18
 70
     1
102
RTVSPropertyOp19
 70
     1
102
RTVSPropertyOp20
 70
     1
102
RTVSPropertyOp21
 70
     1
102
RTVSPropertyOp22
 70
     1
102
RTVSPropertyOp23
 70
     1
102
RTVSPropertyOp24
 70
     1
102
RTVSPropertyOp25
 70
     1
102
RTVSPropertyOp26
 70
     1
102
RTVSPropertyOp27
 70
     1
102
RTVSPropertyOp28
 70
     1
102
RTVSPropertyOp29
 70
     1
102
RTVSPropertyOp30
 70
     1
102
RTVSPropertyOp31
 70
     1
102
RTVSPropertyOp32
 70
     1
102
RTVSPropertyOp33
 70
     1
102
RTVSPropertyOp34
 70
     1
102
RTVSPropertyOp35
 70
     1
102
RTVSPropertyOp36
 70
     1
102
RTVSPropertyOp37
 70
     1
102
RTVSPropertyOp38
 70
     1
102
RTVSPropertyOp39
 70
     1
102
RTVSPropertyOp40
 70
     1
102
RTVSPropertyOp41
 70
     1
102
RTVSPropertyOp42
 70
     1
102
RTVSPropertyOp43
 70
     1
102
RTVSPropertyOp44
 70
     1
102
RTVSPropertyOp45
 70
     1
102
RTVSPropertyOp46
 70
     1
102
RTVSPropertyOp47
 70
     1
102
RTVSPropertyOp48
 70
     1
102
RTVSPropertyOp49
 70
     1
102
RTVSPropertyOp50
 70
     1
102
RTVSPropertyOp51
 70
     0
102
RTVSPropertyOp52
 70
     0
102
RTVSPropertyOp53
 70
     1
102
RTVSPropertyOp54
 70
     1
102
RTVSPropertyOp55
 70
     1
102
RTVSPropertyOp56
 70
     1
102
RTVSPropertyOp57
 70
     1
102
RTVSPropertyOp58
 70
     1
102
RTVSPropertyOp59
 70
     1
102
RTVSPropertyOp60
 70
     1
102
RTVSPropertyOp61
 70
     1
102
RTVSPropertyOp62
 70
     1
  0
XRECORD
  5
2C2
102
{ACAD_REACTORS
330
2C1
102
}
330
2C1
100
AcDbXrecord
280
     1
102
RTVSPost2010Prop28
280
     0
102
RTVSPost2010PropOp28
 70
     1
102
RTVSPost2010Prop29
280
     1
102
RTVSPost2010PropOp29
 70
     1
102
RTVSPost2010Prop30
280
     1
102
RTVSPost2010PropOp30
 70
     1
102
RTVSPost2010Prop31
280
     0
102
RTVSPost2010PropOp31
 70
     1
102
RTVSPost2010Prop32
280
     0
102
RTVSPost2010PropOp32
 70
     1
102
RTVSPost2010Prop33
280
     0
102
RTVSPost2010PropOp33
 70
     1
102
RTVSPost2010Prop34
280
     0
102
RTVSPost2010PropOp34
 70
     1
102
RTVSPost2010Prop35
280
     0
102
RTVSPost2010PropOp35
 70
     1
102
RTVSPost2010Prop36
280
     0
102
RTVSPost2010PropOp36
 70
     1
102
RTVSPost2010Prop37
 90
       50
102
RTVSPost2010PropOp37
 70
     1
102
RTVSPost2010Prop38
140
0.0
102
RTVSPost2010PropOp38
 70
     1
102
RTVSPost2010Prop39
140
1.0
102
RTVSPost2010PropOp39
 70
     1
102
RTVSPost2010Prop40
 90
        0
102
RTVSPost2010PropOp40
 70
     1
102
RTVSPost2010Prop41ColorIndex
 90
       18
102
RTVSPost2010Prop41ColorRGB
 90
        0
102
RTVSPost2010PropOp41
 70
     1
102
RTVSPost2010Prop42
 90
       50
102
RTVSPost2010PropOp42
 70
     1
102
RTVSPost2010Prop43
 90
        3
102
RTVSPost2010PropOp43
 70
     1
102
RTVSPost2010Prop44ColorIndex
 90
        5
102
RTVSPost2010Prop44ColorRGB
 90
      255
102
RTVSPost2010PropOp44
 70
     1
102
RTVSPost2010Prop45
280
     0
102
RTVSPost2010PropOp45
 70
     1
102
RTVSPost2010Prop46
 90
       50
102
RTVSPost2010PropOp46
 70
     1
102
RTVSPost2010Prop47
 90
       50
102
RTVSPost2010PropOp47
 70
     1
102
RTVSPost2010Prop48
 90
       50
102
RTVSPost2010PropOp48
 70
     1
102
RTVSPost2010Prop49
280
     0
102
RTVSPost2010PropOp49
 70
     1
102
RTVSPost2010Prop50
 90
       50
102
RTVSPost2010PropOp50
 70
     1
102
RTVSPost2010Prop51ColorIndex
 90
      256
102
RTVSPost2010Prop51ColorRGB
 90
-16777216
102
RTVSPost2010PropOp51
 70
     0
102
RTVSPost2010Prop52
140
1.0
102
RTVSPost2010PropOp52
 70
     0
102
RTVSPost2010Prop53
 90
        2
102
RTVSPost2010PropOp53
 70
     1
102
RTVSPost2010Prop54
  1
strokes_ogs.tif
102
RTVSPost2010PropOp54
 70
     1
102
RTVSPost2010Prop55
280
     0
102
RTVSPost2010PropOp55
 70
     1
102
RTVSPost2010Prop56
140
1.0
102
RTVSPost2010PropOp56
 70
     1
102
RTVSPost2010Prop57
140
1.0
102
RTVSPost2010PropOp57
 70
     1
102
RTVSPropertyOp0
 70
     1
102
RTVSPropertyOp1
 70
     1
102
RTVSPropertyOp2
 70
     1
102
RTVSPropertyOp3
 70
     1
102
RTVSPropertyOp4
 70
     1
102
RTVSPropertyOp5
 70
     1
102
RTVSPropertyOp6
 70
     1
102
RTVSPropertyOp7
 70
     1
102
RTVSPropertyOp8
 70
     1
102
RTVSPropertyOp9
 70
     1
102
RTVSPropertyOp10
 70
     1
102
RTVSPropertyOp11
 70
     1
102
RTVSPropertyOp12
 70
     1
102
RTVSPropertyOp13
 70
     1
102
RTVSPropertyOp14
 70
     1
102
RTVSPropertyOp15
 70
     1
102
RTVSPropertyOp16
 70
     1
102
RTVSPropertyOp17
 70
     1
102
RTVSPropertyOp18
 70
     1
102
RTVSPropertyOp19
 70
     1
102
RTVSPropertyOp20
 70
     1
102
RTVSPropertyOp21
 70
     1
102
RTVSPropertyOp22
 70
     1
102
RTVSPropertyOp23
 70
     1
102
RTVSPropertyOp24
 70
     1
102
RTVSPropertyOp25
 70
     1
102
RTVSPropertyOp26
 70
     1
102
RTVSPropertyOp27
 70
     1
102
RTVSPropertyOp28
 70
     1
102
RTVSPropertyOp29
 70
     1
102
RTVSPropertyOp30
 70
     1
102
RTVSPropertyOp31
 70
     1
102
RTVSPropertyOp32
 70
     1
102
RTVSPropertyOp33
 70
     1
102
RTVSPropertyOp34
 70
     1
102
RTVSPropertyOp35
 70
     1
102
RTVSPropertyOp36
 70
     1
102
RTVSPropertyOp37
 70
     1
102
RTVSPropertyOp38
 70
     1
102
RTVSPropertyOp39
 70
     1
102
RTVSPropertyOp40
 70
     1
102
RTVSPropertyOp41
 70
     1
102
RTVSPropertyOp42
 70
     1
102
RTVSPropertyOp43
 70
     1
102
RTVSPropertyOp44
 70
     1
102
RTVSPropertyOp45
 70
     1
102
RTVSPropertyOp46
 70
     1
102
RTVSPropertyOp47
 70
     1
102
RTVSPropertyOp48
 70
     1
102
RTVSPropertyOp49
 70
     1
102
RTVSPropertyOp50
 70
     1
102
RTVSPropertyOp51
 70
     0
102
RTVSPropertyOp52
 70
     0
102
RTVSPropertyOp53
 70
     1
102
RTVSPropertyOp54
 70
     1
102
RTVSPropertyOp55
 70
     1
102
RTVSPropertyOp56
 70
     1
102
RTVSPropertyOp57
 70
     1
102
RTVSPropertyOp58
 70
     1
102
RTVSPropertyOp59
 70
     1
102
RTVSPropertyOp60
 70
     1
102
RTVSPropertyOp61
 70
     1
102
RTVSPropertyOp62
 70
     1
  0
XRECORD
  5
2DC
102
{ACAD_REACTORS
330
2DB
102
}
330
2DB
100
AcDbXrecord
280
     1
102
RTVSPost2010Prop28
280
     0
102
RTVSPost2010PropOp28
 70
     0
102
RTVSPost2010Prop29
280
     1
102
RTVSPost2010PropOp29
 70
     0
102
RTVSPost2010Prop30
280
     1
102
RTVSPost2010PropOp30
 70
     0
102
RTVSPost2010Prop31
280
     0
102
RTVSPost2010PropOp31
 70
     0
102
RTVSPost2010Prop32
280
     0
102
RTVSPost2010PropOp32
 70
     0
102
RTVSPost2010Prop33
280
     0
102
RTVSPost2010PropOp33
 70
     0
102
RTVSPost2010Prop34
280
     0
102
RTVSPost2010PropOp34
 70
     0
102
RTVSPost2010Prop35
280
     0
102
RTVSPost2010PropOp35
 70
     0
102
RTVSPost2010Prop36
280
     0
102
RTVSPost2010PropOp36
 70
     0
102
RTVSPost2010Prop37
 90
       50
102
RTVSPost2010PropOp37
 70
     0
102
RTVSPost2010Prop38
140
0.0
102
RTVSPost2010PropOp38
 70
     0
102
RTVSPost2010Prop39
140
1.0
102
RTVSPost2010PropOp39
 70
     0
102
RTVSPost2010Prop40
 90
        0
102
RTVSPost2010PropOp40
 70
     0
102
RTVSPost2010Prop41ColorIndex
 90
       18
102
RTVSPost2010Prop41ColorRGB
 90
        0
102
RTVSPost2010PropOp41
 70
     0
102
RTVSPost2010Prop42
 90
       50
102
RTVSPost2010PropOp42
 70
     0
102
RTVSPost2010Prop43
 90
        3
102
RTVSPost2010PropOp43
 70
     0
102
RTVSPost2010Prop44ColorIndex
 90
        5
102
RTVSPost2010Prop44ColorRGB
 90
      255
102
RTVSPost2010PropOp44
 70
     0
102
RTVSPost2010Prop45
280
     0
102
RTVSPost2010PropOp45
 70
     0
102
RTVSPost2010Prop46
 90
       50
102
RTVSPost2010PropOp46
 70
     0
102
RTVSPost2010Prop47
 90
       50
102
RTVSPost2010PropOp47
 70
     0
102
RTVSPost2010Prop48
 90
       50
102
RTVSPost2010PropOp48
 70
     0
102
RTVSPost2010Prop49
280
     0
102
RTVSPost2010PropOp49
 70
     0
102
RTVSPost2010Prop50
 90
       50
102
RTVSPost2010PropOp50
 70
     0
102
RTVSPost2010Prop51ColorIndex
 90
      256
102
RTVSPost2010Prop51ColorRGB
 90
-16777216
102
RTVSPost2010PropOp51
 70
     0
102
RTVSPost2010Prop52
140
1.0
102
RTVSPost2010PropOp52
 70
     0
102
RTVSPost2010Prop53
 90
        2
102
RTVSPost2010PropOp53
 70
     0
102
RTVSPost2010Prop54
  1
strokes_ogs.tif
102
RTVSPost2010PropOp54
 70
     0
102
RTVSPost2010Prop55
280
     0
102
RTVSPost2010PropOp55
 70
     0
102
RTVSPost2010Prop56
140
1.0
102
RTVSPost2010PropOp56
 70
     0
102
RTVSPost2010Prop57
140
1.0
102
RTVSPost2010PropOp57
 70
     0
102
RTVSPropertyOp0
 70
     0
102
RTVSPropertyOp1
 70
     0
102
RTVSPropertyOp2
 70
     0
102
RTVSPropertyOp3
 70
     0
102
RTVSPropertyOp4
 70
     0
102
RTVSPropertyOp5
 70
     0
102
RTVSPropertyOp6
 70
     0
102
RTVSPropertyOp7
 70
     0
102
RTVSPropertyOp8
 70
     0
102
RTVSPropertyOp9
 70
     0
102
RTVSPropertyOp10
 70
     0
102
RTVSPropertyOp11
 70
     0
102
RTVSPropertyOp12
 70
     0
102
RTVSPropertyOp13
 70
     0
102
RTVSPropertyOp14
 70
     2
102
RTVSPropertyOp15
 70
     0
102
RTVSPropertyOp16
 70
     0
102
RTVSPropertyOp17
 70
     0
102
RTVSPropertyOp18
 70
     0
102
RTVSPropertyOp19
 70
     0
102
RTVSPropertyOp20
 70
     0
102
RTVSPropertyOp21
 70
     0
102
RTVSPropertyOp22
 70
     0
102
RTVSPropertyOp23
 70
     0
102
RTVSPropertyOp24
 70
     0
102
RTVSPropertyOp25
 70
     0
102
RTVSPropertyOp26
 70
     0
102
RTVSPropertyOp27
 70
     0
102
RTVSPropertyOp28
 70
     0
102
RTVSPropertyOp29
 70
     0
102
RTVSPropertyOp30
 70
     0
102
RTVSPropertyOp31
 70
     0
102
RTVSPropertyOp32
 70
     0
102
RTVSPropertyOp33
 70
     0
102
RTVSPropertyOp34
 70
     0
102
RTVSPropertyOp35
 70
     0
102
RTVSPropertyOp36
 70
     0
102
RTVSPropertyOp37
 70
     0
102
RTVSPropertyOp38
 70
     0
102
RTVSPropertyOp39
 70
     0
102
RTVSPropertyOp40
 70
     0
102
RTVSPropertyOp41
 70
     0
102
RTVSPropertyOp42
 70
     0
102
RTVSPropertyOp43
 70
     0
102
RTVSPropertyOp44
 70
     0
102
RTVSPropertyOp45
 70
     0
102
RTVSPropertyOp46
 70
     0
102
RTVSPropertyOp47
 70
     0
102
RTVSPropertyOp48
 70
     0
102
RTVSPropertyOp49
 70
     0
102
RTVSPropertyOp50
 70
     0
102
RTVSPropertyOp51
 70
     0
102
RTVSPropertyOp52
 70
     0
102
RTVSPropertyOp53
 70
     0
102
RTVSPropertyOp54
 70
     0
102
RTVSPropertyOp55
 70
     0
102
RTVSPropertyOp56
 70
     0
102
RTVSPropertyOp57
 70
     0
102
RTVSPropertyOp58
 70
     0
102
RTVSPropertyOp59
 70
     0
102
RTVSPropertyOp60
 70
     0
102
RTVSPropertyOp61
 70
     0
102
RTVSPropertyOp62
 70
     0
  0
XRECORD
  5
2CC
102
{ACAD_REACTORS
330
2CB
102
}
330
2CB
100
AcDbXrecord
280
     1
102
RTVSPost2010Prop28
280
     0
102
RTVSPost2010PropOp28
 70
     1
102
RTVSPost2010Prop29
280
     1
102
RTVSPost2010PropOp29
 70
     1
102
RTVSPost2010Prop30
280
     1
102
RTVSPost2010PropOp30
 70
     1
102
RTVSPost2010Prop31
280
     0
102
RTVSPost2010PropOp31
 70
     1
102
RTVSPost2010Prop32
280
     0
102
RTVSPost2010PropOp32
 70
     1
102
RTVSPost2010Prop33
280
     0
102
RTVSPost2010PropOp33
 70
     1
102
RTVSPost2010Prop34
280
     0
102
RTVSPost2010PropOp34
 70
     1
102
RTVSPost2010Prop35
280
     0
102
RTVSPost2010PropOp35
 70
     1
102
RTVSPost2010Prop36
280
     0
102
RTVSPost2010PropOp36
 70
     1
102
RTVSPost2010Prop37
 90
       50
102
RTVSPost2010PropOp37
 70
     1
102
RTVSPost2010Prop38
140
0.0
102
RTVSPost2010PropOp38
 70
     1
102
RTVSPost2010Prop39
140
1.0
102
RTVSPost2010PropOp39
 70
     1
102
RTVSPost2010Prop40
 90
        0
102
RTVSPost2010PropOp40
 70
     1
102
RTVSPost2010Prop41ColorIndex
 90
       18
102
RTVSPost2010Prop41ColorRGB
 90
        0
102
RTVSPost2010PropOp41
 70
     1
102
RTVSPost2010Prop42
 90
       50
102
RTVSPost2010PropOp42
 70
     1
102
RTVSPost2010Prop43
 90
        3
102
RTVSPost2010PropOp43
 70
     1
102
RTVSPost2010Prop44ColorIndex
 90
        5
102
RTVSPost2010Prop44ColorRGB
 90
      255
102
RTVSPost2010PropOp44
 70
     1
102
RTVSPost2010Prop45
280
     0
102
RTVSPost2010PropOp45
 70
     1
102
RTVSPost2010Prop46
 90
       50
102
RTVSPost2010PropOp46
 70
     1
102
RTVSPost2010Prop47
 90
       50
102
RTVSPost2010PropOp47
 70
     1
102
RTVSPost2010Prop48
 90
       50
102
RTVSPost2010PropOp48
 70
     1
102
RTVSPost2010Prop49
280
     0
102
RTVSPost2010PropOp49
 70
     1
102
RTVSPost2010Prop50
 90
       50
102
RTVSPost2010PropOp50
 70
     1
102
RTVSPost2010Prop51ColorIndex
 90
      256
102
RTVSPost2010Prop51ColorRGB
 90
-16777216
102
RTVSPost2010PropOp51
 70
     0
102
RTVSPost2010Prop52
140
1.0
102
RTVSPost2010PropOp52
 70
     0
102
RTVSPost2010Prop53
 90
        2
102
RTVSPost2010PropOp53
 70
     1
102
RTVSPost2010Prop54
  1
strokes_ogs.tif
102
RTVSPost2010PropOp54
 70
     1
102
RTVSPost2010Prop55
280
     0
102
RTVSPost2010PropOp55
 70
     1
102
RTVSPost2010Prop56
140
1.0
102
RTVSPost2010PropOp56
 70
     1
102
RTVSPost2010Prop57
140
1.0
102
RTVSPost2010PropOp57
 70
     1
102
RTVSPropertyOp0
 70
     1
102
RTVSPropertyOp1
 70
     1
102
RTVSPropertyOp2
 70
     1
102
RTVSPropertyOp3
 70
     1
102
RTVSPropertyOp4
 70
     1
102
RTVSPropertyOp5
 70
     1
102
RTVSPropertyOp6
 70
     1
102
RTVSPropertyOp7
 70
     1
102
RTVSPropertyOp8
 70
     1
102
RTVSPropertyOp9
 70
     1
102
RTVSPropertyOp10
 70
     1
102
RTVSPropertyOp11
 70
     1
102
RTVSPropertyOp12
 70
     1
102
RTVSPropertyOp13
 70
     1
102
RTVSPropertyOp14
 70
     1
102
RTVSPropertyOp15
 70
     1
102
RTVSPropertyOp16
 70
     1
102
RTVSPropertyOp17
 70
     1
102
RTVSPropertyOp18
 70
     1
102
RTVSPropertyOp19
 70
     1
102
RTVSPropertyOp20
 70
     1
102
RTVSPropertyOp21
 70
     1
102
RTVSPropertyOp22
 70
     1
102
RTVSPropertyOp23
 70
     1
102
RTVSPropertyOp24
 70
     1
102
RTVSPropertyOp25
 70
     1
102
RTVSPropertyOp26
 70
     1
102
RTVSPropertyOp27
 70
     1
102
RTVSPropertyOp28
 70
     1
102
RTVSPropertyOp29
 70
     1
102
RTVSPropertyOp30
 70
     1
102
RTVSPropertyOp31
 70
     1
102
RTVSPropertyOp32
 70
     1
102
RTVSPropertyOp33
 70
     1
102
RTVSPropertyOp34
 70
     1
102
RTVSPropertyOp35
 70
     1
102
RTVSPropertyOp36
 70
     1
102
RTVSPropertyOp37
 70
     1
102
RTVSPropertyOp38
 70
     1
102
RTVSPropertyOp39
 70
     1
102
RTVSPropertyOp40
 70
     1
102
RTVSPropertyOp41
 70
     1
102
RTVSPropertyOp42
 70
     1
102
RTVSPropertyOp43
 70
     1
102
RTVSPropertyOp44
 70
     1
102
RTVSPropertyOp45
 70
     1
102
RTVSPropertyOp46
 70
     1
102
RTVSPropertyOp47
 70
     1
102
RTVSPropertyOp48
 70
     1
102
RTVSPropertyOp49
 70
     1
102
RTVSPropertyOp50
 70
     1
102
RTVSPropertyOp51
 70
     0
102
RTVSPropertyOp52
 70
     0
102
RTVSPropertyOp53
 70
     1
102
RTVSPropertyOp54
 70
     1
102
RTVSPropertyOp55
 70
     1
102
RTVSPropertyOp56
 70
     1
102
RTVSPropertyOp57
 70
     1
102
RTVSPropertyOp58
 70
     1
102
RTVSPropertyOp59
 70
     1
102
RTVSPropertyOp60
 70
     1
102
RTVSPropertyOp61
 70
     1
102
RTVSPropertyOp62
 70
     1
  0
XRECORD
  5
2DE
102
{ACAD_REACTORS
330
2DD
102
}
330
2DD
100
AcDbXrecord
280
     1
102
RTVSPost2010Prop28
280
     0
102
RTVSPost2010PropOp28
 70
     0
102
RTVSPost2010Prop29
280
     1
102
RTVSPost2010PropOp29
 70
     0
102
RTVSPost2010Prop30
280
     1
102
RTVSPost2010PropOp30
 70
     0
102
RTVSPost2010Prop31
280
     0
102
RTVSPost2010PropOp31
 70
     0
102
RTVSPost2010Prop32
280
     0
102
RTVSPost2010PropOp32
 70
     0
102
RTVSPost2010Prop33
280
     0
102
RTVSPost2010PropOp33
 70
     0
102
RTVSPost2010Prop34
280
     0
102
RTVSPost2010PropOp34
 70
     0
102
RTVSPost2010Prop35
280
     0
102
RTVSPost2010PropOp35
 70
     0
102
RTVSPost2010Prop36
280
     0
102
RTVSPost2010PropOp36
 70
     0
102
RTVSPost2010Prop37
 90
       50
102
RTVSPost2010PropOp37
 70
     0
102
RTVSPost2010Prop38
140
0.0
102
RTVSPost2010PropOp38
 70
     0
102
RTVSPost2010Prop39
140
1.0
102
RTVSPost2010PropOp39
 70
     0
102
RTVSPost2010Prop40
 90
        0
102
RTVSPost2010PropOp40
 70
     0
102
RTVSPost2010Prop41ColorIndex
 90
       18
102
RTVSPost2010Prop41ColorRGB
 90
        0
102
RTVSPost2010PropOp41
 70
     0
102
RTVSPost2010Prop42
 90
       50
102
RTVSPost2010PropOp42
 70
     0
102
RTVSPost2010Prop43
 90
        3
102
RTVSPost2010PropOp43
 70
     0
102
RTVSPost2010Prop44ColorIndex
 90
        5
102
RTVSPost2010Prop44ColorRGB
 90
      255
102
RTVSPost2010PropOp44
 70
     0
102
RTVSPost2010Prop45
280
     0
102
RTVSPost2010PropOp45
 70
     0
102
RTVSPost2010Prop46
 90
       50
102
RTVSPost2010PropOp46
 70
     0
102
RTVSPost2010Prop47
 90
       50
102
RTVSPost2010PropOp47
 70
     0
102
RTVSPost2010Prop48
 90
       50
102
RTVSPost2010PropOp48
 70
     0
102
RTVSPost2010Prop49
280
     0
102
RTVSPost2010PropOp49
 70
     0
102
RTVSPost2010Prop50
 90
       50
102
RTVSPost2010PropOp50
 70
     0
102
RTVSPost2010Prop51ColorIndex
 90
      256
102
RTVSPost2010Prop51ColorRGB
 90
-16777216
102
RTVSPost2010PropOp51
 70
     0
102
RTVSPost2010Prop52
140
1.0
102
RTVSPost2010PropOp52
 70
     0
102
RTVSPost2010Prop53
 90
        2
102
RTVSPost2010PropOp53
 70
     0
102
RTVSPost2010Prop54
  1
strokes_ogs.tif
102
RTVSPost2010PropOp54
 70
     0
102
RTVSPost2010Prop55
280
     0
102
RTVSPost2010PropOp55
 70
     0
102
RTVSPost2010Prop56
140
1.0
102
RTVSPost2010PropOp56
 70
     0
102
RTVSPost2010Prop57
140
1.0
102
RTVSPost2010PropOp57
 70
     0
102
RTVSPropertyOp0
 70
     0
102
RTVSPropertyOp1
 70
     0
102
RTVSPropertyOp2
 70
     0
102
RTVSPropertyOp3
 70
     0
102
RTVSPropertyOp4
 70
     0
102
RTVSPropertyOp5
 70
     0
102
RTVSPropertyOp6
 70
     0
102
RTVSPropertyOp7
 70
     0
102
RTVSPropertyOp8
 70
     0
102
RTVSPropertyOp9
 70
     0
102
RTVSPropertyOp10
 70
     0
102
RTVSPropertyOp11
 70
     0
102
RTVSPropertyOp12
 70
     0
102
RTVSPropertyOp13
 70
     0
102
RTVSPropertyOp14
 70
     2
102
RTVSPropertyOp15
 70
     0
102
RTVSPropertyOp16
 70
     0
102
RTVSPropertyOp17
 70
     0
102
RTVSPropertyOp18
 70
     0
102
RTVSPropertyOp19
 70
     0
102
RTVSPropertyOp20
 70
     0
102
RTVSPropertyOp21
 70
     0
102
RTVSPropertyOp22
 70
     0
102
RTVSPropertyOp23
 70
     0
102
RTVSPropertyOp24
 70
     0
102
RTVSPropertyOp25
 70
     0
102
RTVSPropertyOp26
 70
     0
102
RTVSPropertyOp27
 70
     0
102
RTVSPropertyOp28
 70
     0
102
RTVSPropertyOp29
 70
     0
102
RTVSPropertyOp30
 70
     0
102
RTVSPropertyOp31
 70
     0
102
RTVSPropertyOp32
 70
     0
102
RTVSPropertyOp33
 70
     0
102
RTVSPropertyOp34
 70
     0
102
RTVSPropertyOp35
 70
     0
102
RTVSPropertyOp36
 70
     0
102
RTVSPropertyOp37
 70
     0
102
RTVSPropertyOp38
 70
     0
102
RTVSPropertyOp39
 70
     0
102
RTVSPropertyOp40
 70
     0
102
RTVSPropertyOp41
 70
     0
102
RTVSPropertyOp42
 70
     0
102
RTVSPropertyOp43
 70
     0
102
RTVSPropertyOp44
 70
     0
102
RTVSPropertyOp45
 70
     0
102
RTVSPropertyOp46
 70
     0
102
RTVSPropertyOp47
 70
     0
102
RTVSPropertyOp48
 70
     0
102
RTVSPropertyOp49
 70
     0
102
RTVSPropertyOp50
 70
     0
102
RTVSPropertyOp51
 70
     0
102
RTVSPropertyOp52
 70
     0
102
RTVSPropertyOp53
 70
     0
102
RTVSPropertyOp54
 70
     0
102
RTVSPropertyOp55
 70
     0
102
RTVSPropertyOp56
 70
     0
102
RTVSPropertyOp57
 70
     0
102
RTVSPropertyOp58
 70
     0
102
RTVSPropertyOp59
 70
     0
102
RTVSPropertyOp60
 70
     0
102
RTVSPropertyOp61
 70
     0
102
RTVSPropertyOp62
 70
     0
  0
XRECORD
  5
2B2
102
{ACAD_REACTORS
330
2B1
102
}
330
2B1
100
AcDbXrecord
280
     1
102
RTVSPost2010Prop28
280
     0
102
RTVSPost2010PropOp28
 70
     1
102
RTVSPost2010Prop29
280
     1
102
RTVSPost2010PropOp29
 70
     1
102
RTVSPost2010Prop30
280
     1
102
RTVSPost2010PropOp30
 70
     1
102
RTVSPost2010Prop31
280
     0
102
RTVSPost2010PropOp31
 70
     1
102
RTVSPost2010Prop32
280
     0
102
RTVSPost2010PropOp32
 70
     1
102
RTVSPost2010Prop33
280
     0
102
RTVSPost2010PropOp33
 70
     1
102
RTVSPost2010Prop34
280
     0
102
RTVSPost2010PropOp34
 70
     1
102
RTVSPost2010Prop35
280
     0
102
RTVSPost2010PropOp35
 70
     1
102
RTVSPost2010Prop36
280
     0
102
RTVSPost2010PropOp36
 70
     1
102
RTVSPost2010Prop37
 90
       50
102
RTVSPost2010PropOp37
 70
     1
102
RTVSPost2010Prop38
140
0.0
102
RTVSPost2010PropOp38
 70
     1
102
RTVSPost2010Prop39
140
1.0
102
RTVSPost2010PropOp39
 70
     1
102
RTVSPost2010Prop40
 90
        0
102
RTVSPost2010PropOp40
 70
     1
102
RTVSPost2010Prop41ColorIndex
 90
       18
102
RTVSPost2010Prop41ColorRGB
 90
        0
102
RTVSPost2010PropOp41
 70
     1
102
RTVSPost2010Prop42
 90
       50
102
RTVSPost2010PropOp42
 70
     1
102
RTVSPost2010Prop43
 90
        3
102
RTVSPost2010PropOp43
 70
     1
102
RTVSPost2010Prop44ColorIndex
 90
        5
102
RTVSPost2010Prop44ColorRGB
 90
      255
102
RTVSPost2010PropOp44
 70
     1
102
RTVSPost2010Prop45
280
     0
102
RTVSPost2010PropOp45
 70
     1
102
RTVSPost2010Prop46
 90
       50
102
RTVSPost2010PropOp46
 70
     1
102
RTVSPost2010Prop47
 90
       50
102
RTVSPost2010PropOp47
 70
     1
102
RTVSPost2010Prop48
 90
       50
102
RTVSPost2010PropOp48
 70
     1
102
RTVSPost2010Prop49
280
     0
102
RTVSPost2010PropOp49
 70
     1
102
RTVSPost2010Prop50
 90
       50
102
RTVSPost2010PropOp50
 70
     1
102
RTVSPost2010Prop51ColorIndex
 90
      256
102
RTVSPost2010Prop51ColorRGB
 90
-16777216
102
RTVSPost2010PropOp51
 70
     0
102
RTVSPost2010Prop52
140
1.0
102
RTVSPost2010PropOp52
 70
     0
102
RTVSPost2010Prop53
 90
        2
102
RTVSPost2010PropOp53
 70
     1
102
RTVSPost2010Prop54
  1
strokes_ogs.tif
102
RTVSPost2010PropOp54
 70
     1
102
RTVSPost2010Prop55
280
     0
102
RTVSPost2010PropOp55
 70
     1
102
RTVSPost2010Prop56
140
1.0
102
RTVSPost2010PropOp56
 70
     1
102
RTVSPost2010Prop57
140
1.0
102
RTVSPost2010PropOp57
 70
     1
102
RTVSPropertyOp0
 70
     1
102
RTVSPropertyOp1
 70
     1
102
RTVSPropertyOp2
 70
     1
102
RTVSPropertyOp3
 70
     1
102
RTVSPropertyOp4
 70
     1
102
RTVSPropertyOp5
 70
     1
102
RTVSPropertyOp6
 70
     1
102
RTVSPropertyOp7
 70
     1
102
RTVSPropertyOp8
 70
     1
102
RTVSPropertyOp9
 70
     1
102
RTVSPropertyOp10
 70
     1
102
RTVSPropertyOp11
 70
     1
102
RTVSPropertyOp12
 70
     1
102
RTVSPropertyOp13
 70
     1
102
RTVSPropertyOp14
 70
     1
102
RTVSPropertyOp15
 70
     1
102
RTVSPropertyOp16
 70
     1
102
RTVSPropertyOp17
 70
     1
102
RTVSPropertyOp18
 70
     1
102
RTVSPropertyOp19
 70
     1
102
RTVSPropertyOp20
 70
     1
102
RTVSPropertyOp21
 70
     1
102
RTVSPropertyOp22
 70
     1
102
RTVSPropertyOp23
 70
     1
102
RTVSPropertyOp24
 70
     1
102
RTVSPropertyOp25
 70
     1
102
RTVSPropertyOp26
 70
     1
102
RTVSPropertyOp27
 70
     1
102
RTVSPropertyOp28
 70
     1
102
RTVSPropertyOp29
 70
     1
102
RTVSPropertyOp30
 70
     1
102
RTVSPropertyOp31
 70
     1
102
RTVSPropertyOp32
 70
     1
102
RTVSPropertyOp33
 70
     1
102
RTVSPropertyOp34
 70
     1
102
RTVSPropertyOp35
 70
     1
102
RTVSPropertyOp36
 70
     1
102
RTVSPropertyOp37
 70
     1
102
RTVSPropertyOp38
 70
     1
102
RTVSPropertyOp39
 70
     1
102
RTVSPropertyOp40
 70
     1
102
RTVSPropertyOp41
 70
     1
102
RTVSPropertyOp42
 70
     1
102
RTVSPropertyOp43
 70
     1
102
RTVSPropertyOp44
 70
     1
102
RTVSPropertyOp45
 70
     1
102
RTVSPropertyOp46
 70
     1
102
RTVSPropertyOp47
 70
     1
102
RTVSPropertyOp48
 70
     1
102
RTVSPropertyOp49
 70
     1
102
RTVSPropertyOp50
 70
     1
102
RTVSPropertyOp51
 70
     0
102
RTVSPropertyOp52
 70
     0
102
RTVSPropertyOp53
 70
     1
102
RTVSPropertyOp54
 70
     1
102
RTVSPropertyOp55
 70
     1
102
RTVSPropertyOp56
 70
     1
102
RTVSPropertyOp57
 70
     1
102
RTVSPropertyOp58
 70
     1
102
RTVSPropertyOp59
 70
     1
102
RTVSPropertyOp60
 70
     1
102
RTVSPropertyOp61
 70
     1
102
RTVSPropertyOp62
 70
     1
  0
XRECORD
  5
2DA
102
{ACAD_REACTORS
330
2D9
102
}
330
2D9
100
AcDbXrecord
280
     1
102
RTVSPost2010Prop28
280
     0
102
RTVSPost2010PropOp28
 70
     1
102
RTVSPost2010Prop29
280
     1
102
RTVSPost2010PropOp29
 70
     1
102
RTVSPost2010Prop30
280
     1
102
RTVSPost2010PropOp30
 70
     1
102
RTVSPost2010Prop31
280
     0
102
RTVSPost2010PropOp31
 70
     1
102
RTVSPost2010Prop32
280
     0
102
RTVSPost2010PropOp32
 70
     1
102
RTVSPost2010Prop33
280
     0
102
RTVSPost2010PropOp33
 70
     1
102
RTVSPost2010Prop34
280
     0
102
RTVSPost2010PropOp34
 70
     1
102
RTVSPost2010Prop35
280
     0
102
RTVSPost2010PropOp35
 70
     1
102
RTVSPost2010Prop36
280
     0
102
RTVSPost2010PropOp36
 70
     1
102
RTVSPost2010Prop37
 90
       50
102
RTVSPost2010PropOp37
 70
     1
102
RTVSPost2010Prop38
140
0.0
102
RTVSPost2010PropOp38
 70
     1
102
RTVSPost2010Prop39
140
1.0
102
RTVSPost2010PropOp39
 70
     1
102
RTVSPost2010Prop40
 90
        0
102
RTVSPost2010PropOp40
 70
     1
102
RTVSPost2010Prop41ColorIndex
 90
       18
102
RTVSPost2010Prop41ColorRGB
 90
        0
102
RTVSPost2010PropOp41
 70
     1
102
RTVSPost2010Prop42
 90
       50
102
RTVSPost2010PropOp42
 70
     1
102
RTVSPost2010Prop43
 90
        3
102
RTVSPost2010PropOp43
 70
     1
102
RTVSPost2010Prop44ColorIndex
 90
        5
102
RTVSPost2010Prop44ColorRGB
 90
      255
102
RTVSPost2010PropOp44
 70
     1
102
RTVSPost2010Prop45
280
     0
102
RTVSPost2010PropOp45
 70
     1
102
RTVSPost2010Prop46
 90
       50
102
RTVSPost2010PropOp46
 70
     1
102
RTVSPost2010Prop47
 90
       50
102
RTVSPost2010PropOp47
 70
     1
102
RTVSPost2010Prop48
 90
       50
102
RTVSPost2010PropOp48
 70
     1
102
RTVSPost2010Prop49
280
     0
102
RTVSPost2010PropOp49
 70
     1
102
RTVSPost2010Prop50
 90
       50
102
RTVSPost2010PropOp50
 70
     1
102
RTVSPost2010Prop51ColorIndex
 90
      256
102
RTVSPost2010Prop51ColorRGB
 90
-16777216
102
RTVSPost2010PropOp51
 70
     0
102
RTVSPost2010Prop52
140
1.0
102
RTVSPost2010PropOp52
 70
     0
102
RTVSPost2010Prop53
 90
        2
102
RTVSPost2010PropOp53
 70
     1
102
RTVSPost2010Prop54
  1
strokes_ogs.tif
102
RTVSPost2010PropOp54
 70
     1
102
RTVSPost2010Prop55
280
     0
102
RTVSPost2010PropOp55
 70
     1
102
RTVSPost2010Prop56
140
1.0
102
RTVSPost2010PropOp56
 70
     1
102
RTVSPost2010Prop57
140
1.0
102
RTVSPost2010PropOp57
 70
     1
102
RTVSPropertyOp0
 70
     1
102
RTVSPropertyOp1
 70
     1
102
RTVSPropertyOp2
 70
     1
102
RTVSPropertyOp3
 70
     1
102
RTVSPropertyOp4
 70
     1
102
RTVSPropertyOp5
 70
     1
102
RTVSPropertyOp6
 70
     1
102
RTVSPropertyOp7
 70
     1
102
RTVSPropertyOp8
 70
     1
102
RTVSPropertyOp9
 70
     1
102
RTVSPropertyOp10
 70
     1
102
RTVSPropertyOp11
 70
     1
102
RTVSPropertyOp12
 70
     1
102
RTVSPropertyOp13
 70
     1
102
RTVSPropertyOp14
 70
     1
102
RTVSPropertyOp15
 70
     1
102
RTVSPropertyOp16
 70
     1
102
RTVSPropertyOp17
 70
     1
102
RTVSPropertyOp18
 70
     1
102
RTVSPropertyOp19
 70
     1
102
RTVSPropertyOp20
 70
     1
102
RTVSPropertyOp21
 70
     1
102
RTVSPropertyOp22
 70
     1
102
RTVSPropertyOp23
 70
     1
102
RTVSPropertyOp24
 70
     1
102
RTVSPropertyOp25
 70
     1
102
RTVSPropertyOp26
 70
     1
102
RTVSPropertyOp27
 70
     1
102
RTVSPropertyOp28
 70
     1
102
RTVSPropertyOp29
 70
     1
102
RTVSPropertyOp30
 70
     1
102
RTVSPropertyOp31
 70
     1
102
RTVSPropertyOp32
 70
     1
102
RTVSPropertyOp33
 70
     1
102
RTVSPropertyOp34
 70
     1
102
RTVSPropertyOp35
 70
     1
102
RTVSPropertyOp36
 70
     1
102
RTVSPropertyOp37
 70
     1
102
RTVSPropertyOp38
 70
     1
102
RTVSPropertyOp39
 70
     1
102
RTVSPropertyOp40
 70
     1
102
RTVSPropertyOp41
 70
     1
102
RTVSPropertyOp42
 70
     1
102
RTVSPropertyOp43
 70
     1
102
RTVSPropertyOp44
 70
     1
102
RTVSPropertyOp45
 70
     1
102
RTVSPropertyOp46
 70
     1
102
RTVSPropertyOp47
 70
     1
102
RTVSPropertyOp48
 70
     1
102
RTVSPropertyOp49
 70
     1
102
RTVSPropertyOp50
 70
     1
102
RTVSPropertyOp51
 70
     0
102
RTVSPropertyOp52
 70
     0
102
RTVSPropertyOp53
 70
     1
102
RTVSPropertyOp54
 70
     1
102
RTVSPropertyOp55
 70
     1
102
RTVSPropertyOp56
 70
     1
102
RTVSPropertyOp57
 70
     1
102
RTVSPropertyOp58
 70
     1
102
RTVSPropertyOp59
 70
     1
102
RTVSPropertyOp60
 70
     1
102
RTVSPropertyOp61
 70
     1
102
RTVSPropertyOp62
 70
     1
  0
XRECORD
  5
2D8
102
{ACAD_REACTORS
330
2D7
102
}
330
2D7
100
AcDbXrecord
280
     1
102
RTVSPost2010Prop28
280
     0
102
RTVSPost2010PropOp28
 70
     1
102
RTVSPost2010Prop29
280
     1
102
RTVSPost2010PropOp29
 70
     1
102
RTVSPost2010Prop30
280
     1
102
RTVSPost2010PropOp30
 70
     1
102
RTVSPost2010Prop31
280
     0
102
RTVSPost2010PropOp31
 70
     1
102
RTVSPost2010Prop32
280
     0
102
RTVSPost2010PropOp32
 70
     1
102
RTVSPost2010Prop33
280
     0
102
RTVSPost2010PropOp33
 70
     1
102
RTVSPost2010Prop34
280
     0
102
RTVSPost2010PropOp34
 70
     1
102
RTVSPost2010Prop35
280
     0
102
RTVSPost2010PropOp35
 70
     1
102
RTVSPost2010Prop36
280
     0
102
RTVSPost2010PropOp36
 70
     1
102
RTVSPost2010Prop37
 90
       50
102
RTVSPost2010PropOp37
 70
     1
102
RTVSPost2010Prop38
140
0.0
102
RTVSPost2010PropOp38
 70
     1
102
RTVSPost2010Prop39
140
1.0
102
RTVSPost2010PropOp39
 70
     1
102
RTVSPost2010Prop40
 90
        0
102
RTVSPost2010PropOp40
 70
     1
102
RTVSPost2010Prop41ColorIndex
 90
       18
102
RTVSPost2010Prop41ColorRGB
 90
        0
102
RTVSPost2010PropOp41
 70
     1
102
RTVSPost2010Prop42
 90
       50
102
RTVSPost2010PropOp42
 70
     1
102
RTVSPost2010Prop43
 90
        3
102
RTVSPost2010PropOp43
 70
     1
102
RTVSPost2010Prop44ColorIndex
 90
        5
102
RTVSPost2010Prop44ColorRGB
 90
      255
102
RTVSPost2010PropOp44
 70
     1
102
RTVSPost2010Prop45
280
     0
102
RTVSPost2010PropOp45
 70
     1
102
RTVSPost2010Prop46
 90
       50
102
RTVSPost2010PropOp46
 70
     1
102
RTVSPost2010Prop47
 90
       50
102
RTVSPost2010PropOp47
 70
     1
102
RTVSPost2010Prop48
 90
       50
102
RTVSPost2010PropOp48
 70
     1
102
RTVSPost2010Prop49
280
     0
102
RTVSPost2010PropOp49
 70
     1
102
RTVSPost2010Prop50
 90
       50
102
RTVSPost2010PropOp50
 70
     1
102
RTVSPost2010Prop51ColorIndex
 90
      256
102
RTVSPost2010Prop51ColorRGB
 90
-16777216
102
RTVSPost2010PropOp51
 70
     0
102
RTVSPost2010Prop52
140
1.0
102
RTVSPost2010PropOp52
 70
     0
102
RTVSPost2010Prop53
 90
        2
102
RTVSPost2010PropOp53
 70
     1
102
RTVSPost2010Prop54
  1
strokes_ogs.tif
102
RTVSPost2010PropOp54
 70
     1
102
RTVSPost2010Prop55
280
     0
102
RTVSPost2010PropOp55
 70
     1
102
RTVSPost2010Prop56
140
1.0
102
RTVSPost2010PropOp56
 70
     1
102
RTVSPost2010Prop57
140
1.0
102
RTVSPost2010PropOp57
 70
     1
102
RTVSPropertyOp0
 70
     1
102
RTVSPropertyOp1
 70
     1
102
RTVSPropertyOp2
 70
     1
102
RTVSPropertyOp3
 70
     1
102
RTVSPropertyOp4
 70
     1
102
RTVSPropertyOp5
 70
     1
102
RTVSPropertyOp6
 70
     1
102
RTVSPropertyOp7
 70
     1
102
RTVSPropertyOp8
 70
     1
102
RTVSPropertyOp9
 70
     1
102
RTVSPropertyOp10
 70
     1
102
RTVSPropertyOp11
 70
     1
102
RTVSPropertyOp12
 70
     1
102
RTVSPropertyOp13
 70
     1
102
RTVSPropertyOp14
 70
     1
102
RTVSPropertyOp15
 70
     1
102
RTVSPropertyOp16
 70
     1
102
RTVSPropertyOp17
 70
     1
102
RTVSPropertyOp18
 70
     1
102
RTVSPropertyOp19
 70
     1
102
RTVSPropertyOp20
 70
     1
102
RTVSPropertyOp21
 70
     1
102
RTVSPropertyOp22
 70
     1
102
RTVSPropertyOp23
 70
     1
102
RTVSPropertyOp24
 70
     1
102
RTVSPropertyOp25
 70
     1
102
RTVSPropertyOp26
 70
     1
102
RTVSPropertyOp27
 70
     1
102
RTVSPropertyOp28
 70
     1
102
RTVSPropertyOp29
 70
     1
102
RTVSPropertyOp30
 70
     1
102
RTVSPropertyOp31
 70
     1
102
RTVSPropertyOp32
 70
     1
102
RTVSPropertyOp33
 70
     1
102
RTVSPropertyOp34
 70
     1
102
RTVSPropertyOp35
 70
     1
102
RTVSPropertyOp36
 70
     1
102
RTVSPropertyOp37
 70
     1
102
RTVSPropertyOp38
 70
     1
102
RTVSPropertyOp39
 70
     1
102
RTVSPropertyOp40
 70
     1
102
RTVSPropertyOp41
 70
     1
102
RTVSPropertyOp42
 70
     1
102
RTVSPropertyOp43
 70
     1
102
RTVSPropertyOp44
 70
     1
102
RTVSPropertyOp45
 70
     1
102
RTVSPropertyOp46
 70
     1
102
RTVSPropertyOp47
 70
     1
102
RTVSPropertyOp48
 70
     1
102
RTVSPropertyOp49
 70
     1
102
RTVSPropertyOp50
 70
     1
102
RTVSPropertyOp51
 70
     0
102
RTVSPropertyOp52
 70
     0
102
RTVSPropertyOp53
 70
     1
102
RTVSPropertyOp54
 70
     1
102
RTVSPropertyOp55
 70
     1
102
RTVSPropertyOp56
 70
     1
102
RTVSPropertyOp57
 70
     1
102
RTVSPropertyOp58
 70
     1
102
RTVSPropertyOp59
 70
     1
102
RTVSPropertyOp60
 70
     1
102
RTVSPropertyOp61
 70
     1
102
RTVSPropertyOp62
 70
     1
  0
XRECORD
  5
2D2
102
{ACAD_REACTORS
330
2D1
102
}
330
2D1
100
AcDbXrecord
280
     1
102
RTVSPost2010Prop28
280
     0
102
RTVSPost2010PropOp28
 70
     1
102
RTVSPost2010Prop29
280
     1
102
RTVSPost2010PropOp29
 70
     1
102
RTVSPost2010Prop30
280
     1
102
RTVSPost2010PropOp30
 70
     1
102
RTVSPost2010Prop31
280
     0
102
RTVSPost2010PropOp31
 70
     1
102
RTVSPost2010Prop32
280
     0
102
RTVSPost2010PropOp32
 70
     1
102
RTVSPost2010Prop33
280
     0
102
RTVSPost2010PropOp33
 70
     1
102
RTVSPost2010Prop34
280
     0
102
RTVSPost2010PropOp34
 70
     1
102
RTVSPost2010Prop35
280
     0
102
RTVSPost2010PropOp35
 70
     1
102
RTVSPost2010Prop36
280
     0
102
RTVSPost2010PropOp36
 70
     1
102
RTVSPost2010Prop37
 90
       50
102
RTVSPost2010PropOp37
 70
     1
102
RTVSPost2010Prop38
140
0.0
102
RTVSPost2010PropOp38
 70
     1
102
RTVSPost2010Prop39
140
1.0
102
RTVSPost2010PropOp39
 70
     1
102
RTVSPost2010Prop40
 90
        0
102
RTVSPost2010PropOp40
 70
     1
102
RTVSPost2010Prop41ColorIndex
 90
       18
102
RTVSPost2010Prop41ColorRGB
 90
        0
102
RTVSPost2010PropOp41
 70
     1
102
RTVSPost2010Prop42
 90
       50
102
RTVSPost2010PropOp42
 70
     1
102
RTVSPost2010Prop43
 90
        3
102
RTVSPost2010PropOp43
 70
     1
102
RTVSPost2010Prop44ColorIndex
 90
        5
102
RTVSPost2010Prop44ColorRGB
 90
      255
102
RTVSPost2010PropOp44
 70
     1
102
RTVSPost2010Prop45
280
     0
102
RTVSPost2010PropOp45
 70
     1
102
RTVSPost2010Prop46
 90
       50
102
RTVSPost2010PropOp46
 70
     1
102
RTVSPost2010Prop47
 90
       50
102
RTVSPost2010PropOp47
 70
     1
102
RTVSPost2010Prop48
 90
       50
102
RTVSPost2010PropOp48
 70
     1
102
RTVSPost2010Prop49
280
     0
102
RTVSPost2010PropOp49
 70
     1
102
RTVSPost2010Prop50
 90
       50
102
RTVSPost2010PropOp50
 70
     1
102
RTVSPost2010Prop51ColorIndex
 90
      256
102
RTVSPost2010Prop51ColorRGB
 90
-16777216
102
RTVSPost2010PropOp51
 70
     0
102
RTVSPost2010Prop52
140
1.0
102
RTVSPost2010PropOp52
 70
     0
102
RTVSPost2010Prop53
 90
        2
102
RTVSPost2010PropOp53
 70
     1
102
RTVSPost2010Prop54
  1
strokes_ogs.tif
102
RTVSPost2010PropOp54
 70
     1
102
RTVSPost2010Prop55
280
     0
102
RTVSPost2010PropOp55
 70
     1
102
RTVSPost2010Prop56
140
1.0
102
RTVSPost2010PropOp56
 70
     1
102
RTVSPost2010Prop57
140
1.0
102
RTVSPost2010PropOp57
 70
     1
102
RTVSPropertyOp0
 70
     1
102
RTVSPropertyOp1
 70
     1
102
RTVSPropertyOp2
 70
     1
102
RTVSPropertyOp3
 70
     1
102
RTVSPropertyOp4
 70
     1
102
RTVSPropertyOp5
 70
     1
102
RTVSPropertyOp6
 70
     1
102
RTVSPropertyOp7
 70
     1
102
RTVSPropertyOp8
 70
     1
102
RTVSPropertyOp9
 70
     1
102
RTVSPropertyOp10
 70
     1
102
RTVSPropertyOp11
 70
     1
102
RTVSPropertyOp12
 70
     1
102
RTVSPropertyOp13
 70
     1
102
RTVSPropertyOp14
 70
     1
102
RTVSPropertyOp15
 70
     1
102
RTVSPropertyOp16
 70
     1
102
RTVSPropertyOp17
 70
     1
102
RTVSPropertyOp18
 70
     1
102
RTVSPropertyOp19
 70
     1
102
RTVSPropertyOp20
 70
     1
102
RTVSPropertyOp21
 70
     1
102
RTVSPropertyOp22
 70
     1
102
RTVSPropertyOp23
 70
     1
102
RTVSPropertyOp24
 70
     1
102
RTVSPropertyOp25
 70
     1
102
RTVSPropertyOp26
 70
     1
102
RTVSPropertyOp27
 70
     1
102
RTVSPropertyOp28
 70
     1
102
RTVSPropertyOp29
 70
     1
102
RTVSPropertyOp30
 70
     1
102
RTVSPropertyOp31
 70
     1
102
RTVSPropertyOp32
 70
     1
102
RTVSPropertyOp33
 70
     1
102
RTVSPropertyOp34
 70
     1
102
RTVSPropertyOp35
 70
     1
102
RTVSPropertyOp36
 70
     1
102
RTVSPropertyOp37
 70
     1
102
RTVSPropertyOp38
 70
     1
102
RTVSPropertyOp39
 70
     1
102
RTVSPropertyOp40
 70
     1
102
RTVSPropertyOp41
 70
     1
102
RTVSPropertyOp42
 70
     1
102
RTVSPropertyOp43
 70
     1
102
RTVSPropertyOp44
 70
     1
102
RTVSPropertyOp45
 70
     1
102
RTVSPropertyOp46
 70
     1
102
RTVSPropertyOp47
 70
     1
102
RTVSPropertyOp48
 70
     1
102
RTVSPropertyOp49
 70
     1
102
RTVSPropertyOp50
 70
     1
102
RTVSPropertyOp51
 70
     0
102
RTVSPropertyOp52
 70
     0
102
RTVSPropertyOp53
 70
     1
102
RTVSPropertyOp54
 70
     1
102
RTVSPropertyOp55
 70
     1
102
RTVSPropertyOp56
 70
     1
102
RTVSPropertyOp57
 70
     1
102
RTVSPropertyOp58
 70
     1
102
RTVSPropertyOp59
 70
     1
102
RTVSPropertyOp60
 70
     1
102
RTVSPropertyOp61
 70
     1
102
RTVSPropertyOp62
 70
     1
  0
XRECORD
  5
2D4
102
{ACAD_REACTORS
330
2D3
102
}
330
2D3
100
AcDbXrecord
280
     1
102
RTVSPost2010Prop28
280
     0
102
RTVSPost2010PropOp28
 70
     1
102
RTVSPost2010Prop29
280
     1
102
RTVSPost2010PropOp29
 70
     1
102
RTVSPost2010Prop30
280
     1
102
RTVSPost2010PropOp30
 70
     1
102
RTVSPost2010Prop31
280
     0
102
RTVSPost2010PropOp31
 70
     1
102
RTVSPost2010Prop32
280
     0
102
RTVSPost2010PropOp32
 70
     1
102
RTVSPost2010Prop33
280
     0
102
RTVSPost2010PropOp33
 70
     1
102
RTVSPost2010Prop34
280
     0
102
RTVSPost2010PropOp34
 70
     1
102
RTVSPost2010Prop35
280
     0
102
RTVSPost2010PropOp35
 70
     1
102
RTVSPost2010Prop36
280
     0
102
RTVSPost2010PropOp36
 70
     1
102
RTVSPost2010Prop37
 90
       50
102
RTVSPost2010PropOp37
 70
     1
102
RTVSPost2010Prop38
140
0.0
102
RTVSPost2010PropOp38
 70
     1
102
RTVSPost2010Prop39
140
1.0
102
RTVSPost2010PropOp39
 70
     1
102
RTVSPost2010Prop40
 90
        0
102
RTVSPost2010PropOp40
 70
     1
102
RTVSPost2010Prop41ColorIndex
 90
       18
102
RTVSPost2010Prop41ColorRGB
 90
        0
102
RTVSPost2010PropOp41
 70
     1
102
RTVSPost2010Prop42
 90
       50
102
RTVSPost2010PropOp42
 70
     1
102
RTVSPost2010Prop43
 90
        3
102
RTVSPost2010PropOp43
 70
     1
102
RTVSPost2010Prop44ColorIndex
 90
        5
102
RTVSPost2010Prop44ColorRGB
 90
      255
102
RTVSPost2010PropOp44
 70
     1
102
RTVSPost2010Prop45
280
     0
102
RTVSPost2010PropOp45
 70
     1
102
RTVSPost2010Prop46
 90
       50
102
RTVSPost2010PropOp46
 70
     1
102
RTVSPost2010Prop47
 90
       50
102
RTVSPost2010PropOp47
 70
     1
102
RTVSPost2010Prop48
 90
       50
102
RTVSPost2010PropOp48
 70
     1
102
RTVSPost2010Prop49
280
     0
102
RTVSPost2010PropOp49
 70
     1
102
RTVSPost2010Prop50
 90
       50
102
RTVSPost2010PropOp50
 70
     1
102
RTVSPost2010Prop51ColorIndex
 90
      256
102
RTVSPost2010Prop51ColorRGB
 90
-16777216
102
RTVSPost2010PropOp51
 70
     0
102
RTVSPost2010Prop52
140
1.0
102
RTVSPost2010PropOp52
 70
     0
102
RTVSPost2010Prop53
 90
        2
102
RTVSPost2010PropOp53
 70
     1
102
RTVSPost2010Prop54
  1
strokes_ogs.tif
102
RTVSPost2010PropOp54
 70
     1
102
RTVSPost2010Prop55
280
     0
102
RTVSPost2010PropOp55
 70
     1
102
RTVSPost2010Prop56
140
1.0
102
RTVSPost2010PropOp56
 70
     1
102
RTVSPost2010Prop57
140
1.0
102
RTVSPost2010PropOp57
 70
     1
102
RTVSPropertyOp0
 70
     1
102
RTVSPropertyOp1
 70
     1
102
RTVSPropertyOp2
 70
     1
102
RTVSPropertyOp3
 70
     1
102
RTVSPropertyOp4
 70
     1
102
RTVSPropertyOp5
 70
     1
102
RTVSPropertyOp6
 70
     1
102
RTVSPropertyOp7
 70
     1
102
RTVSPropertyOp8
 70
     1
102
RTVSPropertyOp9
 70
     1
102
RTVSPropertyOp10
 70
     1
102
RTVSPropertyOp11
 70
     1
102
RTVSPropertyOp12
 70
     1
102
RTVSPropertyOp13
 70
     1
102
RTVSPropertyOp14
 70
     1
102
RTVSPropertyOp15
 70
     1
102
RTVSPropertyOp16
 70
     1
102
RTVSPropertyOp17
 70
     1
102
RTVSPropertyOp18
 70
     1
102
RTVSPropertyOp19
 70
     1
102
RTVSPropertyOp20
 70
     1
102
RTVSPropertyOp21
 70
     1
102
RTVSPropertyOp22
 70
     1
102
RTVSPropertyOp23
 70
     1
102
RTVSPropertyOp24
 70
     1
102
RTVSPropertyOp25
 70
     1
102
RTVSPropertyOp26
 70
     1
102
RTVSPropertyOp27
 70
     1
102
RTVSPropertyOp28
 70
     1
102
RTVSPropertyOp29
 70
     1
102
RTVSPropertyOp30
 70
     1
102
RTVSPropertyOp31
 70
     1
102
RTVSPropertyOp32
 70
     1
102
RTVSPropertyOp33
 70
     1
102
RTVSPropertyOp34
 70
     1
102
RTVSPropertyOp35
 70
     1
102
RTVSPropertyOp36
 70
     1
102
RTVSPropertyOp37
 70
     1
102
RTVSPropertyOp38
 70
     1
102
RTVSPropertyOp39
 70
     1
102
RTVSPropertyOp40
 70
     1
102
RTVSPropertyOp41
 70
     1
102
RTVSPropertyOp42
 70
     1
102
RTVSPropertyOp43
 70
     1
102
RTVSPropertyOp44
 70
     1
102
RTVSPropertyOp45
 70
     1
102
RTVSPropertyOp46
 70
     1
102
RTVSPropertyOp47
 70
     1
102
RTVSPropertyOp48
 70
     1
102
RTVSPropertyOp49
 70
     1
102
RTVSPropertyOp50
 70
     1
102
RTVSPropertyOp51
 70
     0
102
RTVSPropertyOp52
 70
     0
102
RTVSPropertyOp53
 70
     1
102
RTVSPropertyOp54
 70
     1
102
RTVSPropertyOp55
 70
     1
102
RTVSPropertyOp56
 70
     1
102
RTVSPropertyOp57
 70
     1
102
RTVSPropertyOp58
 70
     1
102
RTVSPropertyOp59
 70
     1
102
RTVSPropertyOp60
 70
     1
102
RTVSPropertyOp61
 70
     1
102
RTVSPropertyOp62
 70
     1
  0
XRECORD
  5
2CA
102
{ACAD_REACTORS
330
2C9
102
}
330
2C9
100
AcDbXrecord
280
     1
102
RTVSPost2010Prop28
280
     0
102
RTVSPost2010PropOp28
 70
     1
102
RTVSPost2010Prop29
280
     1
102
RTVSPost2010PropOp29
 70
     1
102
RTVSPost2010Prop30
280
     1
102
RTVSPost2010PropOp30
 70
     1
102
RTVSPost2010Prop31
280
     0
102
RTVSPost2010PropOp31
 70
     1
102
RTVSPost2010Prop32
280
     0
102
RTVSPost2010PropOp32
 70
     1
102
RTVSPost2010Prop33
280
     0
102
RTVSPost2010PropOp33
 70
     1
102
RTVSPost2010Prop34
280
     0
102
RTVSPost2010PropOp34
 70
     1
102
RTVSPost2010Prop35
280
     0
102
RTVSPost2010PropOp35
 70
     1
102
RTVSPost2010Prop36
280
     0
102
RTVSPost2010PropOp36
 70
     1
102
RTVSPost2010Prop37
 90
       50
102
RTVSPost2010PropOp37
 70
     1
102
RTVSPost2010Prop38
140
0.0
102
RTVSPost2010PropOp38
 70
     1
102
RTVSPost2010Prop39
140
1.0
102
RTVSPost2010PropOp39
 70
     1
102
RTVSPost2010Prop40
 90
        0
102
RTVSPost2010PropOp40
 70
     1
102
RTVSPost2010Prop41ColorIndex
 90
       18
102
RTVSPost2010Prop41ColorRGB
 90
        0
102
RTVSPost2010PropOp41
 70
     1
102
RTVSPost2010Prop42
 90
       50
102
RTVSPost2010PropOp42
 70
     1
102
RTVSPost2010Prop43
 90
        3
102
RTVSPost2010PropOp43
 70
     1
102
RTVSPost2010Prop44ColorIndex
 90
        5
102
RTVSPost2010Prop44ColorRGB
 90
      255
102
RTVSPost2010PropOp44
 70
     1
102
RTVSPost2010Prop45
280
     0
102
RTVSPost2010PropOp45
 70
     1
102
RTVSPost2010Prop46
 90
       50
102
RTVSPost2010PropOp46
 70
     1
102
RTVSPost2010Prop47
 90
       50
102
RTVSPost2010PropOp47
 70
     1
102
RTVSPost2010Prop48
 90
       50
102
RTVSPost2010PropOp48
 70
     1
102
RTVSPost2010Prop49
280
     0
102
RTVSPost2010PropOp49
 70
     1
102
RTVSPost2010Prop50
 90
       50
102
RTVSPost2010PropOp50
 70
     1
102
RTVSPost2010Prop51ColorIndex
 90
      256
102
RTVSPost2010Prop51ColorRGB
 90
-16777216
102
RTVSPost2010PropOp51
 70
     0
102
RTVSPost2010Prop52
140
1.0
102
RTVSPost2010PropOp52
 70
     0
102
RTVSPost2010Prop53
 90
        2
102
RTVSPost2010PropOp53
 70
     1
102
RTVSPost2010Prop54
  1
strokes_ogs.tif
102
RTVSPost2010PropOp54
 70
     1
102
RTVSPost2010Prop55
280
     0
102
RTVSPost2010PropOp55
 70
     1
102
RTVSPost2010Prop56
140
1.0
102
RTVSPost2010PropOp56
 70
     1
102
RTVSPost2010Prop57
140
1.0
102
RTVSPost2010PropOp57
 70
     1
102
RTVSPropertyOp0
 70
     1
102
RTVSPropertyOp1
 70
     1
102
RTVSPropertyOp2
 70
     1
102
RTVSPropertyOp3
 70
     1
102
RTVSPropertyOp4
 70
     1
102
RTVSPropertyOp5
 70
     1
102
RTVSPropertyOp6
 70
     1
102
RTVSPropertyOp7
 70
     1
102
RTVSPropertyOp8
 70
     1
102
RTVSPropertyOp9
 70
     1
102
RTVSPropertyOp10
 70
     1
102
RTVSPropertyOp11
 70
     1
102
RTVSPropertyOp12
 70
     1
102
RTVSPropertyOp13
 70
     1
102
RTVSPropertyOp14
 70
     1
102
RTVSPropertyOp15
 70
     1
102
RTVSPropertyOp16
 70
     1
102
RTVSPropertyOp17
 70
     1
102
RTVSPropertyOp18
 70
     1
102
RTVSPropertyOp19
 70
     1
102
RTVSPropertyOp20
 70
     1
102
RTVSPropertyOp21
 70
     1
102
RTVSPropertyOp22
 70
     1
102
RTVSPropertyOp23
 70
     1
102
RTVSPropertyOp24
 70
     1
102
RTVSPropertyOp25
 70
     1
102
RTVSPropertyOp26
 70
     1
102
RTVSPropertyOp27
 70
     1
102
RTVSPropertyOp28
 70
     1
102
RTVSPropertyOp29
 70
     1
102
RTVSPropertyOp30
 70
     1
102
RTVSPropertyOp31
 70
     1
102
RTVSPropertyOp32
 70
     1
102
RTVSPropertyOp33
 70
     1
102
RTVSPropertyOp34
 70
     1
102
RTVSPropertyOp35
 70
     1
102
RTVSPropertyOp36
 70
     1
102
RTVSPropertyOp37
 70
     1
102
RTVSPropertyOp38
 70
     1
102
RTVSPropertyOp39
 70
     1
102
RTVSPropertyOp40
 70
     1
102
RTVSPropertyOp41
 70
     1
102
RTVSPropertyOp42
 70
     1
102
RTVSPropertyOp43
 70
     1
102
RTVSPropertyOp44
 70
     1
102
RTVSPropertyOp45
 70
     1
102
RTVSPropertyOp46
 70
     1
102
RTVSPropertyOp47
 70
     1
102
RTVSPropertyOp48
 70
     1
102
RTVSPropertyOp49
 70
     1
102
RTVSPropertyOp50
 70
     1
102
RTVSPropertyOp51
 70
     0
102
RTVSPropertyOp52
 70
     0
102
RTVSPropertyOp53
 70
     1
102
RTVSPropertyOp54
 70
     1
102
RTVSPropertyOp55
 70
     1
102
RTVSPropertyOp56
 70
     1
102
RTVSPropertyOp57
 70
     1
102
RTVSPropertyOp58
 70
     1
102
RTVSPropertyOp59
 70
     1
102
RTVSPropertyOp60
 70
     1
102
RTVSPropertyOp61
 70
     1
102
RTVSPropertyOp62
 70
     1
  0
XRECORD
  5
2C0
102
{ACAD_REACTORS
330
2BF
102
}
330
2BF
100
AcDbXrecord
280
     1
102
RTVSPost2010Prop28
280
     0
102
RTVSPost2010PropOp28
 70
     1
102
RTVSPost2010Prop29
280
     1
102
RTVSPost2010PropOp29
 70
     1
102
RTVSPost2010Prop30
280
     1
102
RTVSPost2010PropOp30
 70
     1
102
RTVSPost2010Prop31
280
     0
102
RTVSPost2010PropOp31
 70
     1
102
RTVSPost2010Prop32
280
     0
102
RTVSPost2010PropOp32
 70
     1
102
RTVSPost2010Prop33
280
     0
102
RTVSPost2010PropOp33
 70
     1
102
RTVSPost2010Prop34
280
     0
102
RTVSPost2010PropOp34
 70
     1
102
RTVSPost2010Prop35
280
     0
102
RTVSPost2010PropOp35
 70
     1
102
RTVSPost2010Prop36
280
     0
102
RTVSPost2010PropOp36
 70
     1
102
RTVSPost2010Prop37
 90
       50
102
RTVSPost2010PropOp37
 70
     1
102
RTVSPost2010Prop38
140
0.0
102
RTVSPost2010PropOp38
 70
     1
102
RTVSPost2010Prop39
140
1.0
102
RTVSPost2010PropOp39
 70
     1
102
RTVSPost2010Prop40
 90
        0
102
RTVSPost2010PropOp40
 70
     1
102
RTVSPost2010Prop41ColorIndex
 90
       18
102
RTVSPost2010Prop41ColorRGB
 90
        0
102
RTVSPost2010PropOp41
 70
     1
102
RTVSPost2010Prop42
 90
       50
102
RTVSPost2010PropOp42
 70
     1
102
RTVSPost2010Prop43
 90
        3
102
RTVSPost2010PropOp43
 70
     1
102
RTVSPost2010Prop44ColorIndex
 90
        5
102
RTVSPost2010Prop44ColorRGB
 90
      255
102
RTVSPost2010PropOp44
 70
     1
102
RTVSPost2010Prop45
280
     0
102
RTVSPost2010PropOp45
 70
     1
102
RTVSPost2010Prop46
 90
       50
102
RTVSPost2010PropOp46
 70
     1
102
RTVSPost2010Prop47
 90
       50
102
RTVSPost2010PropOp47
 70
     1
102
RTVSPost2010Prop48
 90
       50
102
RTVSPost2010PropOp48
 70
     1
102
RTVSPost2010Prop49
280
     0
102
RTVSPost2010PropOp49
 70
     1
102
RTVSPost2010Prop50
 90
       50
102
RTVSPost2010PropOp50
 70
     1
102
RTVSPost2010Prop51ColorIndex
 90
      256
102
RTVSPost2010Prop51ColorRGB
 90
-16777216
102
RTVSPost2010PropOp51
 70
     0
102
RTVSPost2010Prop52
140
1.0
102
RTVSPost2010PropOp52
 70
     0
102
RTVSPost2010Prop53
 90
        2
102
RTVSPost2010PropOp53
 70
     1
102
RTVSPost2010Prop54
  1
strokes_ogs.tif
102
RTVSPost2010PropOp54
 70
     1
102
RTVSPost2010Prop55
280
     0
102
RTVSPost2010PropOp55
 70
     1
102
RTVSPost2010Prop56
140
1.0
102
RTVSPost2010PropOp56
 70
     1
102
RTVSPost2010Prop57
140
1.0
102
RTVSPost2010PropOp57
 70
     1
102
RTVSPropertyOp0
 70
     1
102
RTVSPropertyOp1
 70
     1
102
RTVSPropertyOp2
 70
     1
102
RTVSPropertyOp3
 70
     1
102
RTVSPropertyOp4
 70
     1
102
RTVSPropertyOp5
 70
     1
102
RTVSPropertyOp6
 70
     1
102
RTVSPropertyOp7
 70
     1
102
RTVSPropertyOp8
 70
     1
102
RTVSPropertyOp9
 70
     1
102
RTVSPropertyOp10
 70
     1
102
RTVSPropertyOp11
 70
     1
102
RTVSPropertyOp12
 70
     1
102
RTVSPropertyOp13
 70
     1
102
RTVSPropertyOp14
 70
     1
102
RTVSPropertyOp15
 70
     1
102
RTVSPropertyOp16
 70
     1
102
RTVSPropertyOp17
 70
     1
102
RTVSPropertyOp18
 70
     1
102
RTVSPropertyOp19
 70
     1
102
RTVSPropertyOp20
 70
     1
102
RTVSPropertyOp21
 70
     1
102
RTVSPropertyOp22
 70
     1
102
RTVSPropertyOp23
 70
     1
102
RTVSPropertyOp24
 70
     1
102
RTVSPropertyOp25
 70
     1
102
RTVSPropertyOp26
 70
     1
102
RTVSPropertyOp27
 70
     1
102
RTVSPropertyOp28
 70
     1
102
RTVSPropertyOp29
 70
     1
102
RTVSPropertyOp30
 70
     1
102
RTVSPropertyOp31
 70
     1
102
RTVSPropertyOp32
 70
     1
102
RTVSPropertyOp33
 70
     1
102
RTVSPropertyOp34
 70
     1
102
RTVSPropertyOp35
 70
     1
102
RTVSPropertyOp36
 70
     1
102
RTVSPropertyOp37
 70
     1
102
RTVSPropertyOp38
 70
     1
102
RTVSPropertyOp39
 70
     1
102
RTVSPropertyOp40
 70
     1
102
RTVSPropertyOp41
 70
     1
102
RTVSPropertyOp42
 70
     1
102
RTVSPropertyOp43
 70
     1
102
RTVSPropertyOp44
 70
     1
102
RTVSPropertyOp45
 70
     1
102
RTVSPropertyOp46
 70
     1
102
RTVSPropertyOp47
 70
     1
102
RTVSPropertyOp48
 70
     1
102
RTVSPropertyOp49
 70
     1
102
RTVSPropertyOp50
 70
     1
102
RTVSPropertyOp51
 70
     0
102
RTVSPropertyOp52
 70
     0
102
RTVSPropertyOp53
 70
     1
102
RTVSPropertyOp54
 70
     1
102
RTVSPropertyOp55
 70
     1
102
RTVSPropertyOp56
 70
     1
102
RTVSPropertyOp57
 70
     1
102
RTVSPropertyOp58
 70
     1
102
RTVSPropertyOp59
 70
     1
102
RTVSPropertyOp60
 70
     1
102
RTVSPropertyOp61
 70
     1
102
RTVSPropertyOp62
 70
     1
  0
XRECORD
  5
2D6
102
{ACAD_REACTORS
330
2D5
102
}
330
2D5
100
AcDbXrecord
280
     1
102
RTVSPost2010Prop28
280
     0
102
RTVSPost2010PropOp28
 70
     1
102
RTVSPost2010Prop29
280
     1
102
RTVSPost2010PropOp29
 70
     1
102
RTVSPost2010Prop30
280
     1
102
RTVSPost2010PropOp30
 70
     1
102
RTVSPost2010Prop31
280
     0
102
RTVSPost2010PropOp31
 70
     1
102
RTVSPost2010Prop32
280
     0
102
RTVSPost2010PropOp32
 70
     1
102
RTVSPost2010Prop33
280
     0
102
RTVSPost2010PropOp33
 70
     1
102
RTVSPost2010Prop34
280
     0
102
RTVSPost2010PropOp34
 70
     1
102
RTVSPost2010Prop35
280
     0
102
RTVSPost2010PropOp35
 70
     1
102
RTVSPost2010Prop36
280
     0
102
RTVSPost2010PropOp36
 70
     1
102
RTVSPost2010Prop37
 90
       50
102
RTVSPost2010PropOp37
 70
     1
102
RTVSPost2010Prop38
140
0.0
102
RTVSPost2010PropOp38
 70
     1
102
RTVSPost2010Prop39
140
1.0
102
RTVSPost2010PropOp39
 70
     1
102
RTVSPost2010Prop40
 90
        0
102
RTVSPost2010PropOp40
 70
     1
102
RTVSPost2010Prop41ColorIndex
 90
       18
102
RTVSPost2010Prop41ColorRGB
 90
        0
102
RTVSPost2010PropOp41
 70
     1
102
RTVSPost2010Prop42
 90
       50
102
RTVSPost2010PropOp42
 70
     1
102
RTVSPost2010Prop43
 90
        3
102
RTVSPost2010PropOp43
 70
     1
102
RTVSPost2010Prop44ColorIndex
 90
        5
102
RTVSPost2010Prop44ColorRGB
 90
      255
102
RTVSPost2010PropOp44
 70
     1
102
RTVSPost2010Prop45
280
     0
102
RTVSPost2010PropOp45
 70
     1
102
RTVSPost2010Prop46
 90
       50
102
RTVSPost2010PropOp46
 70
     1
102
RTVSPost2010Prop47
 90
       50
102
RTVSPost2010PropOp47
 70
     1
102
RTVSPost2010Prop48
 90
       50
102
RTVSPost2010PropOp48
 70
     1
102
RTVSPost2010Prop49
280
     0
102
RTVSPost2010PropOp49
 70
     1
102
RTVSPost2010Prop50
 90
       50
102
RTVSPost2010PropOp50
 70
     1
102
RTVSPost2010Prop51ColorIndex
 90
      256
102
RTVSPost2010Prop51ColorRGB
 90
-16777216
102
RTVSPost2010PropOp51
 70
     0
102
RTVSPost2010Prop52
140
1.0
102
RTVSPost2010PropOp52
 70
     0
102
RTVSPost2010Prop53
 90
        2
102
RTVSPost2010PropOp53
 70
     1
102
RTVSPost2010Prop54
  1
strokes_ogs.tif
102
RTVSPost2010PropOp54
 70
     1
102
RTVSPost2010Prop55
280
     0
102
RTVSPost2010PropOp55
 70
     1
102
RTVSPost2010Prop56
140
1.0
102
RTVSPost2010PropOp56
 70
     1
102
RTVSPost2010Prop57
140
1.0
102
RTVSPost2010PropOp57
 70
     1
102
RTVSPropertyOp0
 70
     1
102
RTVSPropertyOp1
 70
     1
102
RTVSPropertyOp2
 70
     1
102
RTVSPropertyOp3
 70
     1
102
RTVSPropertyOp4
 70
     1
102
RTVSPropertyOp5
 70
     1
102
RTVSPropertyOp6
 70
     1
102
RTVSPropertyOp7
 70
     1
102
RTVSPropertyOp8
 70
     1
102
RTVSPropertyOp9
 70
     1
102
RTVSPropertyOp10
 70
     1
102
RTVSPropertyOp11
 70
     1
102
RTVSPropertyOp12
 70
     1
102
RTVSPropertyOp13
 70
     1
102
RTVSPropertyOp14
 70
     1
102
RTVSPropertyOp15
 70
     1
102
RTVSPropertyOp16
 70
     1
102
RTVSPropertyOp17
 70
     1
102
RTVSPropertyOp18
 70
     1
102
RTVSPropertyOp19
 70
     1
102
RTVSPropertyOp20
 70
     1
102
RTVSPropertyOp21
 70
     1
102
RTVSPropertyOp22
 70
     1
102
RTVSPropertyOp23
 70
     1
102
RTVSPropertyOp24
 70
     1
102
RTVSPropertyOp25
 70
     1
102
RTVSPropertyOp26
 70
     1
102
RTVSPropertyOp27
 70
     1
102
RTVSPropertyOp28
 70
     1
102
RTVSPropertyOp29
 70
     1
102
RTVSPropertyOp30
 70
     1
102
RTVSPropertyOp31
 70
     1
102
RTVSPropertyOp32
 70
     1
102
RTVSPropertyOp33
 70
     1
102
RTVSPropertyOp34
 70
     1
102
RTVSPropertyOp35
 70
     1
102
RTVSPropertyOp36
 70
     1
102
RTVSPropertyOp37
 70
     1
102
RTVSPropertyOp38
 70
     1
102
RTVSPropertyOp39
 70
     1
102
RTVSPropertyOp40
 70
     1
102
RTVSPropertyOp41
 70
     1
102
RTVSPropertyOp42
 70
     1
102
RTVSPropertyOp43
 70
     1
102
RTVSPropertyOp44
 70
     1
102
RTVSPropertyOp45
 70
     1
102
RTVSPropertyOp46
 70
     1
102
RTVSPropertyOp47
 70
     1
102
RTVSPropertyOp48
 70
     1
102
RTVSPropertyOp49
 70
     1
102
RTVSPropertyOp50
 70
     1
102
RTVSPropertyOp51
 70
     0
102
RTVSPropertyOp52
 70
     0
102
RTVSPropertyOp53
 70
     1
102
RTVSPropertyOp54
 70
     1
102
RTVSPropertyOp55
 70
     1
102
RTVSPropertyOp56
 70
     1
102
RTVSPropertyOp57
 70
     1
102
RTVSPropertyOp58
 70
     1
102
RTVSPropertyOp59
 70
     1
102
RTVSPropertyOp60
 70
     1
102
RTVSPropertyOp61
 70
     1
102
RTVSPropertyOp62
 70
     1
  0
XRECORD
  5
E0
102
{ACAD_REACTORS
330
DF
102
}
330
DF
100
AcDbXrecord
280
     1
1071
135625452
1071
184556386
 70
    25
 70
   104
 10
0.0
 20
0.0
 30
0.0
  1
CA7-09
  0
XRECORD
  5
1C2
102
{ACAD_REACTORS
330
1C1
102
}
330
1C1
100
AcDbXrecord
280
     1
1071
135625452
1071
184556386
 70
    25
 70
   104
 10
0.0
 20
0.0
 30
0.0
  1
Terminals Off
  0
ENDSEC
  0
EOF
