  0
SECTION
  2
HEADER
  9
$ACADVER
  1
AC1009
  9
$INSBASE
 10
0.0
 20
0.0
 30
0.0
  9
$EXTMIN
 10
-0.064392
 20
-2.135726
 30
-0.000158
  9
$EXTMAX
 10
1.925539
 20
0.690768
 30
3.270245
  9
$LIMMIN
 10
0.0
 20
0.0
  9
$LIMMAX
 10
12.0
 20
9.0
  9
$ORTHOMODE
 70
     0
  9
$REGENMODE
 70
     1
  9
$FILLMODE
 70
     1
  9
$QTEXTMODE
 70
     0
  9
$MIRRTEXT
 70
     1
  9
$DRAGMODE
 70
     2
  9
$LTSCALE
 40
1.0
  9
$OSMODE
 70
    40
  9
$ATTMODE
 70
     1
  9
$TEXTSIZE
 40
0.2
  9
$TRACEWID
 40
0.05
  9
$TEXTSTYLE
  7
STANDARD
  9
$CLAYER
  8
DIMS-MTG-HOLES
  9
$CELTYPE
  6
BYLAYER
  9
$CECOLOR
 62
   256
  9
$DIMSCALE
 40
0.9
  9
$DIMASZ
 40
0.18
  9
$DIMEXO
 40
0.0625
  9
$DIMDLI
 40
0.38
  9
$DIMRND
 40
0.0
  9
$DIMDLE
 40
0.0
  9
$DIMEXE
 40
0.18
  9
$DIMTP
 40
0.0
  9
$DIMTM
 40
0.0
  9
$DIMTXT
 40
0.25
  9
$DIMCEN
 40
0.09
  9
$DIMTSZ
 40
0.0
  9
$DIMTOL
 70
     0
  9
$DIMLIM
 70
     0
  9
$DIMTIH
 70
     0
  9
$DIMTOH
 70
     1
  9
$DIMSE1
 70
     0
  9
$DIMSE2
 70
     0
  9
$DIMTAD
 70
     0
  9
$DIMZIN
 70
     4
  9
$DIMBLK
  1

  9
$DIMASO
 70
     1
  9
$DIMSHO
 70
     1
  9
$DIMPOST
  1

  9
$DIMAPOST
  1

  9
$DIMALT
 70
     1
  9
$DIMALTD
 70
     2
  9
$DIMALTF
 40
25.4
  9
$DIMLFAC
 40
-1.066667
  9
$DIMTOFL
 70
     0
  9
$DIMTVP
 40
0.0
  9
$DIMTIX
 70
     0
  9
$DIMSOXD
 70
     0
  9
$DIMSAH
 70
     0
  9
$DIMBLK1
  1

  9
$DIMBLK2
  1

  9
$DIMSTYLE
  2
STANDARD
  9
$DIMCLRD
 70
     0
  9
$DIMCLRE
 70
     0
  9
$DIMCLRT
 70
     0
  9
$DIMTFAC
 40
1.0
  9
$DIMGAP
 40
0.09
  9
$LUNITS
 70
     2
  9
$LUPREC
 70
     3
  9
$SKETCHINC
 40
0.1
  9
$FILLETRAD
 40
0.0
  9
$AUNITS
 70
     0
  9
$AUPREC
 70
     0
  9
$MENU
  1

  9
$ELEVATION
 40
0.0
  9
$PELEVATION
 40
0.0
  9
$THICKNESS
 40
0.0
  9
$LIMCHECK
 70
     0
  9
$BLIPMODE
 70
     0
  9
$CHAMFERA
 40
0.0
  9
$CHAMFERB
 40
0.0
  9
$SKPOLY
 70
     0
  9
$TDCREATE
 40
2449825.520874
  9
$TDUPDATE
 40
2451164.722268
  9
$TDINDWG
 40
0.03933
  9
$TDUSRTIMER
 40
0.03933
  9
$USRTIMER
 70
     1
  9
$ANGBASE
 50
0.0
  9
$ANGDIR
 70
     0
  9
$PDMODE
 70
     3
  9
$PDSIZE
 40
0.09
  9
$PLINEWID
 40
0.0
  9
$COORDS
 70
     1
  9
$SPLFRAME
 70
     1
  9
$SPLINETYPE
 70
     6
  9
$SPLINESEGS
 70
     8
  9
$ATTDIA
 70
     0
  9
$ATTREQ
 70
     1
  9
$HANDLING
 70
     1
  9
$HANDSEED
  5
F4
  9
$SURFTAB1
 70
     6
  9
$SURFTAB2
 70
     6
  9
$SURFTYPE
 70
     6
  9
$SURFU
 70
     6
  9
$SURFV
 70
     6
  9
$UCSNAME
  2

  9
$UCSORG
 10
0.0
 20
0.0
 30
0.0
  9
$UCSXDIR
 10
1.0
 20
0.0
 30
0.0
  9
$UCSYDIR
 10
0.0
 20
1.0
 30
0.0
  9
$PUCSNAME
  2

  9
$PUCSORG
 10
0.0
 20
0.0
 30
0.0
  9
$PUCSXDIR
 10
1.0
 20
0.0
 30
0.0
  9
$PUCSYDIR
 10
0.0
 20
1.0
 30
0.0
  9
$USERI1
 70
     0
  9
$USERI2
 70
     0
  9
$USERI3
 70
     0
  9
$USERI4
 70
     0
  9
$USERI5
 70
     0
  9
$USERR1
 40
0.0
  9
$USERR2
 40
0.0
  9
$USERR3
 40
0.0
  9
$USERR4
 40
0.0
  9
$USERR5
 40
0.0
  9
$WORLDVIEW
 70
     1
  9
$SHADEDGE
 70
     3
  9
$SHADEDIF
 70
    70
  9
$TILEMODE
 70
     1
  9
$MAXACTVP
 70
    16
  9
$PLIMCHECK
 70
     0
  9
$PEXTMIN
 10
-1.968384
 20
0.0
 30
0.0
  9
$PEXTMAX
 10
10.0
 20
7.943347
 30
0.0
  9
$PLIMMIN
 10
0.0
 20
0.0
  9
$PLIMMAX
 10
12.0
 20
9.0
  9
$UNITMODE
 70
     0
  9
$VISRETAIN
 70
     0
  9
$PLINEGEN
 70
     0
  9
$PSLTSCALE
 70
     1
  0
ENDSEC
  0
SECTION
  2
TABLES
  0
TABLE
  2
VPORT
 70
     2
  0
VPORT
  2
*ACTIVE
 70
     0
 10
0.0
 20
0.0
 11
1.0
 21
1.0
 12
0.930573
 22
-0.722479
 13
0.0
 23
0.0
 14
1.0
 24
1.0
 15
0.0
 25
0.0
 16
0.0
 26
0.0
 36
1.0
 17
0.0
 27
0.0
 37
0.0
 40
3.005617
 41
1.603066
 42
50.0
 43
0.0
 44
0.0
 50
0.0
 51
0.0
 71
     0
 72
   100
 73
     1
 74
     1
 75
     0
 76
     0
 77
     0
 78
     0
  0
ENDTAB
  0
TABLE
  2
LTYPE
 70
     1
  0
LTYPE
  2
CONTINUOUS
 70
     0
  3
Solid line
 72
    65
 73
     0
 40
0.0
  0
ENDTAB
  0
TABLE
  2
LAYER
 70
     2
  0
LAYER
  2
0
 70
     0
 62
     7
  6
CONTINUOUS
  0
LAYER
  2
DIMS-MTG-HOLES
 70
     0
 62
     1
  6
CONTINUOUS
  0
ENDTAB
  0
TABLE
  2
STYLE
 70
     1
  0
STYLE
  2
STANDARD
 70
     0
 40
0.0
 41
1.0
 50
0.0
 71
     0
 42
0.2
  3
txt
  4

  0
ENDTAB
  0
TABLE
  2
VIEW
 70
     0
  0
ENDTAB
  0
TABLE
  2
UCS
 70
     0
  0
ENDTAB
  0
TABLE
  2
APPID
 70
     1
  0
APPID
  2
ACAD
 70
     0
  0
ENDTAB
  0
TABLE
  2
DIMSTYLE
 70
     1
  0
DIMSTYLE
  2
STANDARD
 70
     0
  3

  4

  5

  6

  7

 40
1.0
 41
0.18
 42
0.0625
 43
0.38
 44
0.18
 45
0.0
 46
0.0
 47
0.0
 48
0.0
140
0.18
141
0.09
142
0.0
143
25.4
144
1.0
145
0.0
146
1.0
147
0.09
 71
     0
 72
     0
 73
     1
 74
     1
 75
     0
 76
     0
 77
     0
 78
     0
170
     0
171
     2
172
     0
173
     0
174
     0
175
     0
176
     0
177
     0
178
     0
  0
ENDTAB
  0
ENDSEC
  0
SECTION
  2
BLOCKS
  0
BLOCK
  8
0
  2
$MODEL_SPACE
 70
     0
 10
0.0
 20
0.0
 30
0.0
  3
$MODEL_SPACE
  1

  0
ENDBLK
  5
24
  8
0
  0
BLOCK
 67
     1
  8
0
  2
$PAPER_SPACE
 70
     0
 10
0.0
 20
0.0
 30
0.0
  3
$PAPER_SPACE
  1

  0
ENDBLK
  5
22
 67
     1
  8
0
  0
ENDSEC
  0
SECTION
  2
ENTITIES
  0
POLYLINE
  5
28
  8
0
 66
     1
 10
0.0
 20
0.0
 30
0.0
 70
    16
 71
     6
 72
     3
  0
VERTEX
  5
29
  8
0
 10
1.925
 20
-1.71
 30
0.2
 70
    64
  0
VERTEX
  5
2A
  8
0
 10
1.925
 20
-1.71
 30
0.0
 70
    64
  0
VERTEX
  5
2B
  8
0
 10
1.925
 20
-1.71
 30
0.0
 70
    64
  0
VERTEX
  5
2C
  8
0
 10
0.0
 20
-1.71
 30
0.2
 70
    64
  0
VERTEX
  5
2D
  8
0
 10
0.0
 20
-1.71
 30
0.0
 70
    64
  0
VERTEX
  5
2E
  8
0
 10
0.0
 20
-1.71
 30
0.0
 70
    64
  0
VERTEX
  5
2F
  8
0
 10
0.0
 20
-1.32
 30
0.2
 70
    64
  0
VERTEX
  5
30
  8
0
 10
0.0
 20
-1.32
 30
0.0
 70
    64
  0
VERTEX
  5
31
  8
0
 10
0.0
 20
-1.71
 30
0.0
 70
    64
  0
VERTEX
  5
32
  8
0
 10
1.925
 20
-1.32
 30
0.2
 70
    64
  0
VERTEX
  5
33
  8
0
 10
1.925
 20
-1.32
 30
0.0
 70
    64
  0
VERTEX
  5
34
  8
0
 10
1.925
 20
-1.71
 30
0.0
 70
    64
  0
VERTEX
  5
35
  8
0
 10
1.925
 20
-1.32
 30
0.2
 70
    64
  0
VERTEX
  5
36
  8
0
 10
1.925
 20
-1.32
 30
0.2
 70
    64
  0
VERTEX
  5
37
  8
0
 10
1.925
 20
-1.71
 30
0.2
 70
    64
  0
VERTEX
  5
38
  8
0
 10
0.0
 20
-1.32
 30
0.2
 70
    64
  0
VERTEX
  5
39
  8
0
 10
0.0
 20
-1.32
 30
0.2
 70
    64
  0
VERTEX
  5
3A
  8
0
 10
0.0
 20
-1.71
 30
0.2
 70
    64
  0
SEQEND
  5
3B
  8
0
  0
POLYLINE
  5
3C
  8
0
 66
     1
 10
0.0
 20
0.0
 30
0.0
 70
     8
  0
VERTEX
  5
3D
  8
0
 10
0.0
 20
-1.71
 30
0.2
 70
    32
  0
VERTEX
  5
3E
  8
0
 10
0.0
 20
0.265
 30
0.2
 70
    32
  0
SEQEND
  5
3F
  8
0
  0
CIRCLE
  5
40
  8
0
 39
0.675
 10
0.9625
 20
-0.7225
 30
1.5
 40
0.7125
  0
CIRCLE
  5
41
  8
0
 39
0.155
 10
0.9625
 20
-0.7225
 30
2.175
 40
0.7125
  0
CIRCLE
  5
42
  8
0
 39
0.055
 10
0.9625
 20
-0.7225
 30
2.435
 40
0.385
  0
CIRCLE
  5
43
  8
0
 39
0.78
 10
0.9625
 20
-0.7225
 30
2.49
 40
0.1725
  0
CIRCLE
  5
44
  8
0
 39
0.105
 10
0.9625
 20
-0.7225
 30
2.33
 40
0.181
  0
ARC
  5
45
  8
0
 39
0.2
 10
0.9625
 20
-1.9275
 30
0.0
 40
0.0925
 50
180.0
 51
0.0
  0
ARC
  5
46
  8
0
 39
0.2
 10
0.9625
 20
-1.8725
 30
0.0
 40
0.0925
 50
0.0
 51
180.0
  0
LINE
  5
47
  8
0
 39
0.2
 10
1.055
 20
-1.8725
 30
0.0
 11
1.055
 21
-1.9275
 31
0.0
  0
LINE
  5
48
  8
0
 39
0.2
 10
0.87
 20
-1.8725
 30
0.0
 11
0.87
 21
-1.9275
 31
0.0
  0
ARC
  5
49
  8
0
 39
0.2
 10
0.9625
 20
0.4825
 30
0.0
 40
0.0925
 50
0.0
 51
180.0
  0
ARC
  5
4A
  8
0
 39
0.2
 10
0.9625
 20
0.4275
 30
0.0
 40
0.0925
 50
180.0
 51
0.0
  0
LINE
  5
4B
  8
0
 39
0.2
 10
1.055
 20
0.4275
 30
0.0
 11
1.055
 21
0.4825
 31
0.0
  0
LINE
  5
4C
  8
0
 39
0.2
 10
0.87
 20
0.4275
 30
0.0
 11
0.87
 21
0.4825
 31
0.0
  0
POLYLINE
  5
4D
  8
0
 66
     1
 10
0.0
 20
0.0
 30
0.0
 70
    16
 71
     6
 72
     3
  0
VERTEX
  5
4E
  8
0
 10
1.3325
 20
-2.135
 30
0.2
 70
    64
  0
VERTEX
  5
4F
  8
0
 10
1.3325
 20
-2.135
 30
0.0
 70
    64
  0
VERTEX
  5
50
  8
0
 10
1.3325
 20
-2.135
 30
0.0
 70
    64
  0
VERTEX
  5
51
  8
0
 10
0.5925
 20
-2.135
 30
0.2
 70
    64
  0
VERTEX
  5
52
  8
0
 10
0.5925
 20
-2.135
 30
0.0
 70
    64
  0
VERTEX
  5
53
  8
0
 10
0.5925
 20
-2.135
 30
0.0
 70
    64
  0
VERTEX
  5
54
  8
0
 10
0.5925
 20
-1.71
 30
0.2
 70
    64
  0
VERTEX
  5
55
  8
0
 10
0.5925
 20
-1.71
 30
0.0
 70
    64
  0
VERTEX
  5
56
  8
0
 10
0.5925
 20
-2.135
 30
0.0
 70
    64
  0
VERTEX
  5
57
  8
0
 10
1.3325
 20
-1.71
 30
0.2
 70
    64
  0
VERTEX
  5
58
  8
0
 10
1.3325
 20
-1.71
 30
0.0
 70
    64
  0
VERTEX
  5
59
  8
0
 10
1.3325
 20
-2.135
 30
0.0
 70
    64
  0
VERTEX
  5
5A
  8
0
 10
1.3325
 20
-1.71
 30
0.2
 70
    64
  0
VERTEX
  5
5B
  8
0
 10
1.3325
 20
-1.71
 30
0.2
 70
    64
  0
VERTEX
  5
5C
  8
0
 10
1.3325
 20
-2.135
 30
0.2
 70
    64
  0
VERTEX
  5
5D
  8
0
 10
0.5925
 20
-1.71
 30
0.2
 70
    64
  0
VERTEX
  5
5E
  8
0
 10
0.5925
 20
-1.71
 30
0.2
 70
    64
  0
VERTEX
  5
5F
  8
0
 10
0.5925
 20
-2.135
 30
0.2
 70
    64
  0
SEQEND
  5
60
  8
0
  0
POLYLINE
  5
61
  8
0
 66
     1
 10
0.0
 20
0.0
 30
0.0
 70
    16
 71
     6
 72
     3
  0
VERTEX
  5
62
  8
0
 10
1.925
 20
-1.71
 30
0.2
 70
    64
  0
VERTEX
  5
63
  8
0
 10
1.925
 20
-1.71
 30
0.0
 70
    64
  0
VERTEX
  5
64
  8
0
 10
1.925
 20
-1.71
 30
0.0
 70
    64
  0
VERTEX
  5
65
  8
0
 10
0.0
 20
-1.71
 30
0.2
 70
    64
  0
VERTEX
  5
66
  8
0
 10
0.0
 20
-1.71
 30
0.0
 70
    64
  0
VERTEX
  5
67
  8
0
 10
0.0
 20
-1.71
 30
0.0
 70
    64
  0
VERTEX
  5
68
  8
0
 10
0.0
 20
-1.32
 30
0.2
 70
    64
  0
VERTEX
  5
69
  8
0
 10
0.0
 20
-1.32
 30
0.0
 70
    64
  0
VERTEX
  5
6A
  8
0
 10
0.0
 20
-1.71
 30
0.0
 70
    64
  0
VERTEX
  5
6B
  8
0
 10
1.925
 20
-1.32
 30
0.2
 70
    64
  0
VERTEX
  5
6C
  8
0
 10
1.925
 20
-1.32
 30
0.0
 70
    64
  0
VERTEX
  5
6D
  8
0
 10
1.925
 20
-1.71
 30
0.0
 70
    64
  0
VERTEX
  5
6E
  8
0
 10
1.925
 20
-1.32
 30
0.2
 70
    64
  0
VERTEX
  5
6F
  8
0
 10
1.925
 20
-1.32
 30
0.2
 70
    64
  0
VERTEX
  5
70
  8
0
 10
1.925
 20
-1.71
 30
0.2
 70
    64
  0
VERTEX
  5
71
  8
0
 10
0.0
 20
-1.32
 30
0.2
 70
    64
  0
VERTEX
  5
72
  8
0
 10
0.0
 20
-1.32
 30
0.2
 70
    64
  0
VERTEX
  5
73
  8
0
 10
0.0
 20
-1.71
 30
0.2
 70
    64
  0
SEQEND
  5
74
  8
0
  0
POLYLINE
  5
75
  8
0
 66
     1
 10
0.0
 20
0.0
 30
0.0
 70
    16
 71
     6
 72
     3
  0
VERTEX
  5
76
  8
0
 10
1.925
 20
0.0
 30
0.2
 70
    64
  0
VERTEX
  5
77
  8
0
 10
1.925
 20
0.0
 30
0.0
 70
    64
  0
VERTEX
  5
78
  8
0
 10
1.925
 20
0.0
 30
0.0
 70
    64
  0
VERTEX
  5
79
  8
0
 10
0.0
 20
0.0
 30
0.2
 70
    64
  0
VERTEX
  5
7A
  8
0
 10
0.0
 20
0.0
 30
0.0
 70
    64
  0
VERTEX
  5
7B
  8
0
 10
0.0
 20
0.0
 30
0.0
 70
    64
  0
VERTEX
  5
7C
  8
0
 10
0.0
 20
0.265
 30
0.2
 70
    64
  0
VERTEX
  5
7D
  8
0
 10
0.0
 20
0.265
 30
0.0
 70
    64
  0
VERTEX
  5
7E
  8
0
 10
0.0
 20
0.0
 30
0.0
 70
    64
  0
VERTEX
  5
7F
  8
0
 10
1.925
 20
0.265
 30
0.2
 70
    64
  0
VERTEX
  5
80
  8
0
 10
1.925
 20
0.265
 30
0.0
 70
    64
  0
VERTEX
  5
81
  8
0
 10
1.925
 20
0.0
 30
0.0
 70
    64
  0
VERTEX
  5
82
  8
0
 10
1.925
 20
0.265
 30
0.2
 70
    64
  0
VERTEX
  5
83
  8
0
 10
1.925
 20
0.265
 30
0.2
 70
    64
  0
VERTEX
  5
84
  8
0
 10
1.925
 20
0.0
 30
0.2
 70
    64
  0
VERTEX
  5
85
  8
0
 10
0.0
 20
0.265
 30
0.2
 70
    64
  0
VERTEX
  5
86
  8
0
 10
0.0
 20
0.265
 30
0.2
 70
    64
  0
VERTEX
  5
87
  8
0
 10
0.0
 20
0.0
 30
0.2
 70
    64
  0
SEQEND
  5
88
  8
0
  0
POLYLINE
  5
89
  8
0
 66
     1
 10
0.0
 20
0.0
 30
0.0
 70
    16
 71
     6
 72
     3
  0
VERTEX
  5
8A
  8
0
 10
1.925
 20
-1.71
 30
1.5
 70
    64
  0
VERTEX
  5
8B
  8
0
 10
1.925
 20
-1.71
 30
0.2
 70
    64
  0
VERTEX
  5
8C
  8
0
 10
1.925
 20
-1.71
 30
0.2
 70
    64
  0
VERTEX
  5
8D
  8
0
 10
0.0
 20
-1.71
 30
1.5
 70
    64
  0
VERTEX
  5
8E
  8
0
 10
0.0
 20
-1.71
 30
0.2
 70
    64
  0
VERTEX
  5
8F
  8
0
 10
0.0
 20
-1.71
 30
0.2
 70
    64
  0
VERTEX
  5
90
  8
0
 10
0.0
 20
0.265
 30
1.5
 70
    64
  0
VERTEX
  5
91
  8
0
 10
0.0
 20
0.265
 30
0.2
 70
    64
  0
VERTEX
  5
92
  8
0
 10
0.0
 20
-1.71
 30
0.2
 70
    64
  0
VERTEX
  5
93
  8
0
 10
1.925
 20
0.265
 30
1.5
 70
    64
  0
VERTEX
  5
94
  8
0
 10
1.925
 20
0.265
 30
0.2
 70
    64
  0
VERTEX
  5
95
  8
0
 10
1.925
 20
-1.71
 30
0.2
 70
    64
  0
VERTEX
  5
96
  8
0
 10
1.925
 20
0.265
 30
1.5
 70
    64
  0
VERTEX
  5
97
  8
0
 10
1.925
 20
0.265
 30
1.5
 70
    64
  0
VERTEX
  5
98
  8
0
 10
1.925
 20
-1.71
 30
1.5
 70
    64
  0
VERTEX
  5
99
  8
0
 10
0.0
 20
0.265
 30
1.5
 70
    64
  0
VERTEX
  5
9A
  8
0
 10
0.0
 20
0.265
 30
1.5
 70
    64
  0
VERTEX
  5
9B
  8
0
 10
0.0
 20
-1.71
 30
1.5
 70
    64
  0
SEQEND
  5
9C
  8
0
  0
POLYLINE
  5
9D
  8
0
 66
     1
 10
0.0
 20
0.0
 30
0.0
 70
    16
 71
     6
 72
     3
  0
VERTEX
  5
9E
  8
0
 10
1.3325
 20
0.69
 30
0.2
 70
    64
  0
VERTEX
  5
9F
  8
0
 10
1.3325
 20
0.69
 30
0.0
 70
    64
  0
VERTEX
  5
A0
  8
0
 10
1.3325
 20
0.69
 30
0.0
 70
    64
  0
VERTEX
  5
A1
  8
0
 10
0.5925
 20
0.69
 30
0.2
 70
    64
  0
VERTEX
  5
A2
  8
0
 10
0.5925
 20
0.69
 30
0.0
 70
    64
  0
VERTEX
  5
A3
  8
0
 10
0.5925
 20
0.69
 30
0.0
 70
    64
  0
VERTEX
  5
A4
  8
0
 10
0.5925
 20
0.265
 30
0.2
 70
    64
  0
VERTEX
  5
A5
  8
0
 10
0.5925
 20
0.265
 30
0.0
 70
    64
  0
VERTEX
  5
A6
  8
0
 10
0.5925
 20
0.69
 30
0.0
 70
    64
  0
VERTEX
  5
A7
  8
0
 10
1.3325
 20
0.265
 30
0.2
 70
    64
  0
VERTEX
  5
A8
  8
0
 10
1.3325
 20
0.265
 30
0.0
 70
    64
  0
VERTEX
  5
A9
  8
0
 10
1.3325
 20
0.69
 30
0.0
 70
    64
  0
VERTEX
  5
AA
  8
0
 10
1.3325
 20
0.265
 30
0.2
 70
    64
  0
VERTEX
  5
AB
  8
0
 10
1.3325
 20
0.265
 30
0.2
 70
    64
  0
VERTEX
  5
AC
  8
0
 10
1.3325
 20
0.69
 30
0.2
 70
    64
  0
VERTEX
  5
AD
  8
0
 10
0.5925
 20
0.265
 30
0.2
 70
    64
  0
VERTEX
  5
AE
  8
0
 10
0.5925
 20
0.265
 30
0.2
 70
    64
  0
VERTEX
  5
AF
  8
0
 10
0.5925
 20
0.69
 30
0.2
 70
    64
  0
SEQEND
  5
B0
  8
0
  0
POLYLINE
  5
B1
  8
0
 66
     1
 10
0.0
 20
0.0
 30
0.0
 70
    16
 71
     6
 72
     3
  0
VERTEX
  5
B2
  8
0
 10
0.5925
 20
0.265
 30
0.2
 70
    64
  0
VERTEX
  5
B3
  8
0
 10
0.5925
 20
0.265
 30
0.0
 70
    64
  0
VERTEX
  5
B4
  8
0
 10
0.5925
 20
0.265
 30
0.0
 70
    64
  0
VERTEX
  5
B5
  8
0
 10
0.115
 20
0.265
 30
0.2
 70
    64
  0
VERTEX
  5
B6
  8
0
 10
0.115
 20
0.265
 30
0.0
 70
    64
  0
VERTEX
  5
B7
  8
0
 10
0.115
 20
0.265
 30
0.0
 70
    64
  0
VERTEX
  5
B8
  8
0
 10
0.115
 20
0.545
 30
0.2
 70
    64
  0
VERTEX
  5
B9
  8
0
 10
0.115
 20
0.545
 30
0.0
 70
    64
  0
VERTEX
  5
BA
  8
0
 10
0.115
 20
0.265
 30
0.0
 70
    64
  0
VERTEX
  5
BB
  8
0
 10
0.5925
 20
0.545
 30
0.2
 70
    64
  0
VERTEX
  5
BC
  8
0
 10
0.5925
 20
0.545
 30
0.0
 70
    64
  0
VERTEX
  5
BD
  8
0
 10
0.5925
 20
0.265
 30
0.0
 70
    64
  0
VERTEX
  5
BE
  8
0
 10
0.5925
 20
0.545
 30
0.2
 70
    64
  0
VERTEX
  5
BF
  8
0
 10
0.5925
 20
0.545
 30
0.2
 70
    64
  0
VERTEX
  5
C0
  8
0
 10
0.5925
 20
0.265
 30
0.2
 70
    64
  0
VERTEX
  5
C1
  8
0
 10
0.115
 20
0.545
 30
0.2
 70
    64
  0
VERTEX
  5
C2
  8
0
 10
0.115
 20
0.545
 30
0.2
 70
    64
  0
VERTEX
  5
C3
  8
0
 10
0.115
 20
0.265
 30
0.2
 70
    64
  0
SEQEND
  5
C4
  8
0
  0
POINT
  5
C5
  8
DIMS-MTG-HOLES
 10
0.9625
 20
-0.7225
 30
1.5
  0
LINE
  5
D0
  8
0
 10
1.485
 20
0.265
 30
0.865
 11
1.77
 21
0.265
 31
0.865
  0
LINE
  5
D1
  8
0
 10
1.77
 20
0.265
 30
0.865
 11
1.77
 21
0.265
 31
0.447
  0
LINE
  5
D2
  8
0
 10
1.77
 20
0.265
 30
0.447
 11
1.485
 21
0.265
 31
0.447
  0
LINE
  5
D3
  8
0
 10
1.485
 20
0.265
 30
0.447
 11
1.485
 21
0.265
 31
0.865
  0
LINE
  5
D4
  8
0
 10
1.045
 20
0.265
 30
0.447
 11
1.045
 21
0.265
 31
0.865
  0
LINE
  5
D5
  8
0
 10
1.045
 20
0.265
 30
0.865
 11
0.76
 21
0.265
 31
0.865
  0
LINE
  5
D6
  8
0
 10
0.76
 20
0.265
 30
0.865
 11
0.76
 21
0.265
 31
0.447
  0
LINE
  5
D7
  8
0
 10
0.76
 20
0.265
 30
0.447
 11
1.045
 21
0.265
 31
0.447
  0
LINE
  5
D8
  8
0
 10
1.485
 20
-1.71
 30
0.865
 11
1.77
 21
-1.71
 31
0.865
  0
LINE
  5
D9
  8
0
 10
1.77
 20
-1.71
 30
0.865
 11
1.77
 21
-1.71
 31
0.447
  0
LINE
  5
DA
  8
0
 10
1.77
 20
-1.71
 30
0.447
 11
1.485
 21
-1.71
 31
0.447
  0
LINE
  5
DB
  8
0
 10
1.485
 20
-1.71
 30
0.447
 11
1.485
 21
-1.71
 31
0.865
  0
LINE
  5
DC
  8
0
 10
1.045
 20
-1.71
 30
0.447
 11
1.045
 21
-1.71
 31
0.865
  0
LINE
  5
DD
  8
0
 10
1.045
 20
-1.71
 30
0.865
 11
0.76
 21
-1.71
 31
0.865
  0
LINE
  5
DE
  8
0
 10
0.76
 20
-1.71
 30
0.865
 11
0.76
 21
-1.71
 31
0.447
  0
POLYLINE
  5
DF
  8
0
 66
     1
 10
0.0
 20
0.0
 30
0.447
  0
VERTEX
  5
F0
  8
0
 10
0.76
 20
-1.71
 30
0.447
  0
VERTEX
  5
F1
  8
0
 10
1.045
 20
-1.71
 30
0.447
  0
SEQEND
  5
F2
  8
0
  0
TEXT
  5
E3
  8
0
 10
1.485
 20
0.865
 30
1.71
 40
0.2
  1
1
210
0.0
220
-1.0
230
0.0
  0
TEXT
  5
E4
  8
0
 10
0.76
 20
0.865
 30
1.71
 40
0.2
  1
3
210
0.0
220
-1.0
230
0.0
  0
TEXT
  5
E5
  8
0
 10
-1.0
 20
0.865
 30
0.265
 40
0.2
  1
4
210
0.0
220
1.0
230
0.0
  0
TEXT
  5
E6
  8
0
 10
-1.725
 20
0.865
 30
0.265
 40
0.2
  1
2
210
0.0
220
1.0
230
0.0
  0
POINT
  5
E7
  8
DIMS-MTG-HOLES
 10
0.0
 20
0.0
 30
0.0
  0
POINT
  5
E8
  8
DIMS-MTG-HOLES
 10
0.9625
 20
0.455
 30
0.0
  0
POINT
  5
E9
  8
DIMS-MTG-HOLES
 10
0.9625
 20
-1.9
 30
0.0
  0
VIEWPORT
  5
27
 67
     1
  8
0
 10
6.142923
 20
4.547536
 30
0.0
 40
14.291121
 41
9.828979
 68
    -1
 69
     1
1001
ACAD
1000
MVIEW
1002
{
1070
    16
1010
0.0
1020
0.0
1030
0.0
1010
0.0
1020
0.0
1030
1.0
1040
0.0
1040
9.828979
1040
6.142923
1040
4.547536
1040
50.0
1040
0.0
1040
0.0
1070
     0
1070
   100
1070
     1
1070
     0
1070
     0
1070
     0
1070
     0
1070
     0
1040
0.0
1040
0.0
1040
0.0
1040
1.0
1040
1.0
1040
0.0
1040
0.0
1070
     0
1002
{
1002
}
1002
}
  0
ENDSEC
  0
EOF
