  0
SECTION
  2
HEADER
  9
$ACADVER
  1
AC1009
  9
$INSBASE
 10
0.0
 20
0.0
 30
0.0
  9
$EXTMIN
 10
-0.064013
 20
-1.930334
 30
-0.406399
  9
$EXTMAX
 10
1.580712
 20
0.755635
 30
4.472899
  9
$LIMMIN
 10
0.0
 20
0.0
  9
$LIMMAX
 10
12.0
 20
9.0
  9
$ORTHOMODE
 70
     0
  9
$REGENMODE
 70
     1
  9
$FILLMODE
 70
     1
  9
$QTEXTMODE
 70
     0
  9
$MIRRTEXT
 70
     1
  9
$DRAGMODE
 70
     2
  9
$LTSCALE
 40
1.0
  9
$OSMODE
 70
     8
  9
$ATTMODE
 70
     1
  9
$TEXTSIZE
 40
0.2
  9
$TRACEWID
 40
0.05
  9
$TEXTSTYLE
  7
STANDARD
  9
$CLAYER
  8
DIMS-MTG-HOLES
  9
$CELTYPE
  6
BYLAYER
  9
$CECOLOR
 62
   256
  9
$DIMSCALE
 40
0.9
  9
$DIMASZ
 40
0.18
  9
$DIMEXO
 40
0.0625
  9
$DIMDLI
 40
0.38
  9
$DIMRND
 40
0.0
  9
$DIMDLE
 40
0.0
  9
$DIMEXE
 40
0.18
  9
$DIMTP
 40
0.0
  9
$DIMTM
 40
0.0
  9
$DIMTXT
 40
0.25
  9
$DIMCEN
 40
0.09
  9
$DIMTSZ
 40
0.0
  9
$DIMTOL
 70
     0
  9
$DIMLIM
 70
     0
  9
$DIMTIH
 70
     0
  9
$DIMTOH
 70
     1
  9
$DIMSE1
 70
     0
  9
$DIMSE2
 70
     0
  9
$DIMTAD
 70
     0
  9
$DIMZIN
 70
     4
  9
$DIMBLK
  1

  9
$DIMASO
 70
     1
  9
$DIMSHO
 70
     1
  9
$DIMPOST
  1

  9
$DIMAPOST
  1

  9
$DIMALT
 70
     1
  9
$DIMALTD
 70
     2
  9
$DIMALTF
 40
25.4
  9
$DIMLFAC
 40
-0.933333
  9
$DIMTOFL
 70
     0
  9
$DIMTVP
 40
0.0
  9
$DIMTIX
 70
     0
  9
$DIMSOXD
 70
     0
  9
$DIMSAH
 70
     0
  9
$DIMBLK1
  1

  9
$DIMBLK2
  1

  9
$DIMSTYLE
  2
STANDARD
  9
$DIMCLRD
 70
     0
  9
$DIMCLRE
 70
     0
  9
$DIMCLRT
 70
     0
  9
$DIMTFAC
 40
1.0
  9
$DIMGAP
 40
0.09
  9
$LUNITS
 70
     4
  9
$LUPREC
 70
     5
  9
$SKETCHINC
 40
0.1
  9
$FILLETRAD
 40
0.0
  9
$AUNITS
 70
     0
  9
$AUPREC
 70
     0
  9
$MENU
  1

  9
$ELEVATION
 40
0.0
  9
$PELEVATION
 40
0.0
  9
$THICKNESS
 40
0.0
  9
$LIMCHECK
 70
     0
  9
$BLIPMODE
 70
     0
  9
$CHAMFERA
 40
0.0
  9
$CHAMFERB
 40
0.0
  9
$SKPOLY
 70
     0
  9
$TDCREATE
 40
2451031.598074
  9
$TDUPDATE
 40
2451164.721017
  9
$TDINDWG
 40
0.004379
  9
$TDUSRTIMER
 40
0.004379
  9
$USRTIMER
 70
     1
  9
$ANGBASE
 50
0.0
  9
$ANGDIR
 70
     0
  9
$PDMODE
 70
     3
  9
$PDSIZE
 40
0.09
  9
$PLINEWID
 40
0.0
  9
$COORDS
 70
     1
  9
$SPLFRAME
 70
     1
  9
$SPLINETYPE
 70
     6
  9
$SPLINESEGS
 70
     8
  9
$ATTDIA
 70
     0
  9
$ATTREQ
 70
     1
  9
$HANDLING
 70
     1
  9
$HANDSEED
  5
1C8
  9
$SURFTAB1
 70
     6
  9
$SURFTAB2
 70
     6
  9
$SURFTYPE
 70
     6
  9
$SURFU
 70
     6
  9
$SURFV
 70
     6
  9
$UCSNAME
  2

  9
$UCSORG
 10
0.0
 20
0.0
 30
0.0
  9
$UCSXDIR
 10
1.0
 20
0.0
 30
0.0
  9
$UCSYDIR
 10
0.0
 20
1.0
 30
0.0
  9
$PUCSNAME
  2

  9
$PUCSORG
 10
0.0
 20
0.0
 30
0.0
  9
$PUCSXDIR
 10
1.0
 20
0.0
 30
0.0
  9
$PUCSYDIR
 10
0.0
 20
1.0
 30
0.0
  9
$USERI1
 70
     0
  9
$USERI2
 70
     0
  9
$USERI3
 70
     0
  9
$USERI4
 70
     0
  9
$USERI5
 70
     0
  9
$USERR1
 40
0.0
  9
$USERR2
 40
0.0
  9
$USERR3
 40
0.0
  9
$USERR4
 40
0.0
  9
$USERR5
 40
0.0
  9
$WORLDVIEW
 70
     1
  9
$SHADEDGE
 70
     3
  9
$SHADEDIF
 70
    70
  9
$TILEMODE
 70
     1
  9
$MAXACTVP
 70
    16
  9
$PLIMCHECK
 70
     0
  9
$PEXTMIN
 10
-0.500155
 20
0.0
 30
0.0
  9
$PEXTMAX
 10
10.0
 20
8.122406
 30
0.0
  9
$PLIMMIN
 10
0.0
 20
0.0
  9
$PLIMMAX
 10
12.0
 20
9.0
  9
$UNITMODE
 70
     0
  9
$VISRETAIN
 70
     0
  9
$PLINEGEN
 70
     0
  9
$PSLTSCALE
 70
     1
  0
ENDSEC
  0
SECTION
  2
TABLES
  0
TABLE
  2
VPORT
 70
     2
  0
VPORT
  2
*ACTIVE
 70
     0
 10
0.0
 20
0.0
 11
1.0
 21
1.0
 12
0.758349
 22
-0.587349
 13
0.0
 23
0.0
 14
1.0
 24
1.0
 15
0.0
 25
0.0
 16
0.0
 26
0.0
 36
1.0
 17
0.0
 27
0.0
 37
0.0
 40
2.856186
 41
1.603066
 42
50.0
 43
0.0
 44
0.0
 50
0.0
 51
0.0
 71
     0
 72
   100
 73
     1
 74
     1
 75
     0
 76
     0
 77
     0
 78
     0
  0
ENDTAB
  0
TABLE
  2
LTYPE
 70
     1
  0
LTYPE
  2
CONTINUOUS
 70
     0
  3
Solid line
 72
    65
 73
     0
 40
0.0
  0
ENDTAB
  0
TABLE
  2
LAYER
 70
     2
  0
LAYER
  2
0
 70
     0
 62
     7
  6
CONTINUOUS
  0
LAYER
  2
DIMS-MTG-HOLES
 70
     0
 62
     1
  6
CONTINUOUS
  0
ENDTAB
  0
TABLE
  2
STYLE
 70
     1
  0
STYLE
  2
STANDARD
 70
     0
 40
0.0
 41
1.0
 50
0.0
 71
     0
 42
0.2
  3
txt
  4

  0
ENDTAB
  0
TABLE
  2
VIEW
 70
     0
  0
ENDTAB
  0
TABLE
  2
UCS
 70
     0
  0
ENDTAB
  0
TABLE
  2
APPID
 70
     1
  0
APPID
  2
ACAD
 70
     0
  0
ENDTAB
  0
TABLE
  2
DIMSTYLE
 70
     1
  0
DIMSTYLE
  2
STANDARD
 70
     0
  3

  4

  5

  6

  7

 40
1.0
 41
0.18
 42
0.0625
 43
0.38
 44
0.18
 45
0.0
 46
0.0
 47
0.0
 48
0.0
140
0.18
141
0.09
142
0.0
143
25.4
144
1.0
145
0.0
146
1.0
147
0.09
 71
     0
 72
     0
 73
     1
 74
     1
 75
     0
 76
     0
 77
     0
 78
     0
170
     0
171
     2
172
     0
173
     0
174
     0
175
     0
176
     0
177
     0
178
     0
  0
ENDTAB
  0
ENDSEC
  0
SECTION
  2
BLOCKS
  0
BLOCK
  8
0
  2
$MODEL_SPACE
 70
     0
 10
0.0
 20
0.0
 30
0.0
  3
$MODEL_SPACE
  1

  0
ENDBLK
  5
24
  8
0
  0
BLOCK
 67
     1
  8
0
  2
$PAPER_SPACE
 70
     0
 10
0.0
 20
0.0
 30
0.0
  3
$PAPER_SPACE
  1

  0
ENDBLK
  5
22
 67
     1
  8
0
  0
ENDSEC
  0
SECTION
  2
ENTITIES
  0
CIRCLE
  5
28
  8
0
 39
0.785
 10
0.79
 20
-0.5875
 30
3.68775
 40
0.1745
  0
CIRCLE
  5
29
  8
0
 39
0.119
 10
0.79
 20
-0.5875
 30
3.51375
 40
0.181
  0
CIRCLE
  5
2A
  8
0
 39
0.055
 10
0.79
 20
-0.5875
 30
3.63275
 40
0.385
  0
CIRCLE
  5
2B
  8
0
 39
0.49
 10
0.79
 20
-0.5875
 30
3.02375
 40
0.71
  0
LINE
  5
2C
  8
DIMS-MTG-HOLES
 10
0.79
 20
-1.7825
 30
-0.40625
 11
0.79
 21
-1.6025
 31
-0.40625
  0
ARC
  5
2D
  8
0
 39
0.2
 10
0.79
 20
-1.6625
 30
-0.40625
 40
0.0925
 50
0.0
 51
180.0
  0
LINE
  5
2E
  8
0
 39
0.2
 10
0.8825
 20
-1.6625
 30
-0.40625
 11
0.8825
 21
-1.7225
 31
-0.40625
  0
LINE
  5
2F
  8
0
 39
0.2
 10
0.6975
 20
-1.6625
 30
-0.40625
 11
0.6975
 21
-1.7225
 31
-0.40625
  0
ARC
  5
30
  8
0
 39
0.2
 10
0.79
 20
-1.7225
 30
-0.40625
 40
0.0925
 50
180.0
 51
0.0
  0
LINE
  5
31
  8
DIMS-MTG-HOLES
 10
0.7
 20
-1.6925
 30
-0.40625
 11
0.88
 21
-1.6925
 31
-0.40625
  0
LINE
  5
32
  8
0
 39
0.2
 10
0.8825
 20
0.4875
 30
-0.40625
 11
0.8825
 21
0.5475
 31
-0.40625
  0
LINE
  5
33
  8
0
 39
0.2
 10
0.6975
 20
0.4875
 30
-0.40625
 11
0.6975
 21
0.5475
 31
-0.40625
  0
ARC
  5
34
  8
0
 39
0.2
 10
0.79
 20
0.5475
 30
-0.40625
 40
0.0925
 50
0.0
 51
180.0
  0
ARC
  5
35
  8
0
 39
0.2
 10
0.79
 20
0.4875
 30
-0.40625
 40
0.0925
 50
180.0
 51
0.0
  0
LINE
  5
36
  8
DIMS-MTG-HOLES
 10
0.7
 20
0.5175
 30
-0.40625
 11
0.88
 21
0.5175
 31
-0.40625
  0
LINE
  5
37
  8
DIMS-MTG-HOLES
 10
0.79
 20
0.6075
 30
-0.40625
 11
0.79
 21
0.4275
 31
-0.40625
  0
POLYLINE
  5
38
  8
0
 66
     1
 10
0.0
 20
0.0
 30
0.0
 70
    16
 71
     6
 72
     3
  0
VERTEX
  5
39
  8
0
 10
1.215
 20
-1.93
 30
-0.20625
 70
    64
  0
VERTEX
  5
3A
  8
0
 10
1.215
 20
-1.93
 30
-0.40625
 70
    64
  0
VERTEX
  5
3B
  8
0
 10
1.215
 20
-1.93
 30
-0.40625
 70
    64
  0
VERTEX
  5
3C
  8
0
 10
0.365
 20
-1.93
 30
-0.20625
 70
    64
  0
VERTEX
  5
3D
  8
0
 10
0.365
 20
-1.93
 30
-0.40625
 70
    64
  0
VERTEX
  5
3E
  8
0
 10
0.365
 20
-1.93
 30
-0.40625
 70
    64
  0
VERTEX
  5
3F
  8
0
 10
0.365
 20
-1.415
 30
-0.20625
 70
    64
  0
VERTEX
  5
40
  8
0
 10
0.365
 20
-1.415
 30
-0.40625
 70
    64
  0
VERTEX
  5
41
  8
0
 10
0.365
 20
-1.93
 30
-0.40625
 70
    64
  0
VERTEX
  5
42
  8
0
 10
1.215
 20
-1.415
 30
-0.20625
 70
    64
  0
VERTEX
  5
43
  8
0
 10
1.215
 20
-1.415
 30
-0.40625
 70
    64
  0
VERTEX
  5
44
  8
0
 10
1.215
 20
-1.93
 30
-0.40625
 70
    64
  0
VERTEX
  5
45
  8
0
 10
1.215
 20
-1.415
 30
-0.20625
 70
    64
  0
VERTEX
  5
46
  8
0
 10
1.215
 20
-1.415
 30
-0.20625
 70
    64
  0
VERTEX
  5
47
  8
0
 10
1.215
 20
-1.93
 30
-0.20625
 70
    64
  0
VERTEX
  5
48
  8
0
 10
0.365
 20
-1.415
 30
-0.20625
 70
    64
  0
VERTEX
  5
49
  8
0
 10
0.365
 20
-1.415
 30
-0.20625
 70
    64
  0
VERTEX
  5
4A
  8
0
 10
0.365
 20
-1.93
 30
-0.20625
 70
    64
  0
SEQEND
  5
4B
  8
0
  0
POLYLINE
  5
4C
  8
0
 66
     1
 10
0.0
 20
0.0
 30
0.0
 70
    16
 71
     6
 72
     3
  0
VERTEX
  5
4D
  8
0
 10
1.58
 20
-1.415
 30
-0.20625
 70
    64
  0
VERTEX
  5
4E
  8
0
 10
1.58
 20
-1.415
 30
-0.40625
 70
    64
  0
VERTEX
  5
4F
  8
0
 10
1.58
 20
-1.415
 30
-0.40625
 70
    64
  0
VERTEX
  5
50
  8
0
 10
0.0
 20
-1.415
 30
-0.20625
 70
    64
  0
VERTEX
  5
51
  8
0
 10
0.0
 20
-1.415
 30
-0.40625
 70
    64
  0
VERTEX
  5
52
  8
0
 10
0.0
 20
-1.415
 30
-0.40625
 70
    64
  0
VERTEX
  5
53
  8
0
 10
0.0
 20
-1.175
 30
-0.20625
 70
    64
  0
VERTEX
  5
54
  8
0
 10
0.0
 20
-1.175
 30
-0.40625
 70
    64
  0
VERTEX
  5
55
  8
0
 10
0.0
 20
-1.415
 30
-0.40625
 70
    64
  0
VERTEX
  5
56
  8
0
 10
1.58
 20
-1.175
 30
-0.20625
 70
    64
  0
VERTEX
  5
57
  8
0
 10
1.58
 20
-1.175
 30
-0.40625
 70
    64
  0
VERTEX
  5
58
  8
0
 10
1.58
 20
-1.415
 30
-0.40625
 70
    64
  0
VERTEX
  5
59
  8
0
 10
1.58
 20
-1.175
 30
-0.20625
 70
    64
  0
VERTEX
  5
5A
  8
0
 10
1.58
 20
-1.175
 30
-0.20625
 70
    64
  0
VERTEX
  5
5B
  8
0
 10
1.58
 20
-1.415
 30
-0.20625
 70
    64
  0
VERTEX
  5
5C
  8
0
 10
0.0
 20
-1.175
 30
-0.20625
 70
    64
  0
VERTEX
  5
5D
  8
0
 10
0.0
 20
-1.175
 30
-0.20625
 70
    64
  0
VERTEX
  5
5E
  8
0
 10
0.0
 20
-1.415
 30
-0.20625
 70
    64
  0
SEQEND
  5
5F
  8
0
  0
POLYLINE
  5
60
  8
0
 66
     1
 10
0.0
 20
0.0
 30
0.0
 70
    16
 71
     6
 72
     3
  0
VERTEX
  5
61
  8
0
 10
1.58
 20
0.0
 30
-0.20625
 70
    64
  0
VERTEX
  5
62
  8
0
 10
1.58
 20
0.0
 30
-0.40625
 70
    64
  0
VERTEX
  5
63
  8
0
 10
1.58
 20
0.0
 30
-0.40625
 70
    64
  0
VERTEX
  5
64
  8
0
 10
0.0
 20
0.0
 30
-0.20625
 70
    64
  0
VERTEX
  5
65
  8
0
 10
0.0
 20
0.0
 30
-0.40625
 70
    64
  0
VERTEX
  5
66
  8
0
 10
0.0
 20
0.0
 30
-0.40625
 70
    64
  0
VERTEX
  5
67
  8
0
 10
0.0
 20
0.24
 30
-0.20625
 70
    64
  0
VERTEX
  5
68
  8
0
 10
0.0
 20
0.24
 30
-0.40625
 70
    64
  0
VERTEX
  5
69
  8
0
 10
0.0
 20
0.0
 30
-0.40625
 70
    64
  0
VERTEX
  5
6A
  8
0
 10
1.58
 20
0.24
 30
-0.20625
 70
    64
  0
VERTEX
  5
6B
  8
0
 10
1.58
 20
0.24
 30
-0.40625
 70
    64
  0
VERTEX
  5
6C
  8
0
 10
1.58
 20
0.0
 30
-0.40625
 70
    64
  0
VERTEX
  5
6D
  8
0
 10
1.58
 20
0.24
 30
-0.20625
 70
    64
  0
VERTEX
  5
6E
  8
0
 10
1.58
 20
0.24
 30
-0.20625
 70
    64
  0
VERTEX
  5
6F
  8
0
 10
1.58
 20
0.0
 30
-0.20625
 70
    64
  0
VERTEX
  5
70
  8
0
 10
0.0
 20
0.24
 30
-0.20625
 70
    64
  0
VERTEX
  5
71
  8
0
 10
0.0
 20
0.24
 30
-0.20625
 70
    64
  0
VERTEX
  5
72
  8
0
 10
0.0
 20
0.0
 30
-0.20625
 70
    64
  0
SEQEND
  5
73
  8
0
  0
POLYLINE
  5
74
  8
0
 66
     1
 10
0.0
 20
0.0
 30
0.0
 70
    16
 71
     6
 72
     3
  0
VERTEX
  5
75
  8
0
 10
0.51
 20
-1.415
 30
3.02375
 70
    64
  0
VERTEX
  5
76
  8
0
 10
0.51
 20
-1.415
 30
2.62875
 70
    64
  0
VERTEX
  5
77
  8
0
 10
0.51
 20
-1.415
 30
2.62875
 70
    64
  0
VERTEX
  5
78
  8
0
 10
0.0
 20
-1.415
 30
3.02375
 70
    64
  0
VERTEX
  5
79
  8
0
 10
0.0
 20
-1.415
 30
2.62875
 70
    64
  0
VERTEX
  5
7A
  8
0
 10
0.0
 20
-1.415
 30
2.62875
 70
    64
  0
VERTEX
  5
7B
  8
0
 10
0.0
 20
0.24
 30
3.02375
 70
    64
  0
VERTEX
  5
7C
  8
0
 10
0.0
 20
0.24
 30
2.62875
 70
    64
  0
VERTEX
  5
7D
  8
0
 10
0.0
 20
-1.415
 30
2.62875
 70
    64
  0
VERTEX
  5
7E
  8
0
 10
0.51
 20
0.24
 30
3.02375
 70
    64
  0
VERTEX
  5
7F
  8
0
 10
0.51
 20
0.24
 30
2.62875
 70
    64
  0
VERTEX
  5
80
  8
0
 10
0.51
 20
-1.415
 30
2.62875
 70
    64
  0
VERTEX
  5
81
  8
0
 10
0.51
 20
0.24
 30
3.02375
 70
    64
  0
VERTEX
  5
82
  8
0
 10
0.51
 20
0.24
 30
3.02375
 70
    64
  0
VERTEX
  5
83
  8
0
 10
0.51
 20
-1.415
 30
3.02375
 70
    64
  0
VERTEX
  5
84
  8
0
 10
0.0
 20
0.24
 30
3.02375
 70
    64
  0
VERTEX
  5
85
  8
0
 10
0.0
 20
0.24
 30
3.02375
 70
    64
  0
VERTEX
  5
86
  8
0
 10
0.0
 20
-1.415
 30
3.02375
 70
    64
  0
SEQEND
  5
87
  8
0
  0
POLYLINE
  5
88
  8
0
 66
     1
 10
0.0
 20
0.0
 30
0.0
 70
    16
 71
     6
 72
     3
  0
VERTEX
  5
89
  8
0
 10
1.58
 20
-1.415
 30
3.02375
 70
    64
  0
VERTEX
  5
8A
  8
0
 10
1.58
 20
-1.415
 30
2.62875
 70
    64
  0
VERTEX
  5
8B
  8
0
 10
1.58
 20
-1.415
 30
2.62875
 70
    64
  0
VERTEX
  5
8C
  8
0
 10
1.07
 20
-1.415
 30
3.02375
 70
    64
  0
VERTEX
  5
8D
  8
0
 10
1.07
 20
-1.415
 30
2.62875
 70
    64
  0
VERTEX
  5
8E
  8
0
 10
1.07
 20
-1.415
 30
2.62875
 70
    64
  0
VERTEX
  5
8F
  8
0
 10
1.07
 20
0.24
 30
3.02375
 70
    64
  0
VERTEX
  5
90
  8
0
 10
1.07
 20
0.24
 30
2.62875
 70
    64
  0
VERTEX
  5
91
  8
0
 10
1.07
 20
-1.415
 30
2.62875
 70
    64
  0
VERTEX
  5
92
  8
0
 10
1.58
 20
0.24
 30
3.02375
 70
    64
  0
VERTEX
  5
93
  8
0
 10
1.58
 20
0.24
 30
2.62875
 70
    64
  0
VERTEX
  5
94
  8
0
 10
1.58
 20
-1.415
 30
2.62875
 70
    64
  0
VERTEX
  5
95
  8
0
 10
1.58
 20
0.24
 30
3.02375
 70
    64
  0
VERTEX
  5
96
  8
0
 10
1.58
 20
0.24
 30
3.02375
 70
    64
  0
VERTEX
  5
97
  8
0
 10
1.58
 20
-1.415
 30
3.02375
 70
    64
  0
VERTEX
  5
98
  8
0
 10
1.07
 20
0.24
 30
3.02375
 70
    64
  0
VERTEX
  5
99
  8
0
 10
1.07
 20
0.24
 30
3.02375
 70
    64
  0
VERTEX
  5
9A
  8
0
 10
1.07
 20
-1.415
 30
3.02375
 70
    64
  0
SEQEND
  5
9B
  8
0
  0
POLYLINE
  5
9C
  8
0
 66
     1
 10
0.0
 20
0.0
 30
0.0
 70
    16
 71
     6
 72
     3
  0
VERTEX
  5
9D
  8
0
 10
1.07
 20
-1.24
 30
3.02375
 70
    64
  0
VERTEX
  5
9E
  8
0
 10
1.07
 20
-1.24
 30
2.62875
 70
    64
  0
VERTEX
  5
9F
  8
0
 10
1.07
 20
-1.24
 30
2.62875
 70
    64
  0
VERTEX
  5
A0
  8
0
 10
0.51
 20
-1.24
 30
3.02375
 70
    64
  0
VERTEX
  5
A1
  8
0
 10
0.51
 20
-1.24
 30
2.62875
 70
    64
  0
VERTEX
  5
A2
  8
0
 10
0.51
 20
-1.24
 30
2.62875
 70
    64
  0
VERTEX
  5
A3
  8
0
 10
0.51
 20
0.065
 30
3.02375
 70
    64
  0
VERTEX
  5
A4
  8
0
 10
0.51
 20
0.065
 30
2.62875
 70
    64
  0
VERTEX
  5
A5
  8
0
 10
0.51
 20
-1.24
 30
2.62875
 70
    64
  0
VERTEX
  5
A6
  8
0
 10
1.07
 20
0.065
 30
3.02375
 70
    64
  0
VERTEX
  5
A7
  8
0
 10
1.07
 20
0.065
 30
2.62875
 70
    64
  0
VERTEX
  5
A8
  8
0
 10
1.07
 20
-1.24
 30
2.62875
 70
    64
  0
VERTEX
  5
A9
  8
0
 10
1.07
 20
0.065
 30
3.02375
 70
    64
  0
VERTEX
  5
AA
  8
0
 10
1.07
 20
0.065
 30
3.02375
 70
    64
  0
VERTEX
  5
AB
  8
0
 10
1.07
 20
-1.24
 30
3.02375
 70
    64
  0
VERTEX
  5
AC
  8
0
 10
0.51
 20
0.065
 30
3.02375
 70
    64
  0
VERTEX
  5
AD
  8
0
 10
0.51
 20
0.065
 30
3.02375
 70
    64
  0
VERTEX
  5
AE
  8
0
 10
0.51
 20
-1.24
 30
3.02375
 70
    64
  0
SEQEND
  5
AF
  8
0
  0
POLYLINE
  5
B0
  8
0
 66
     1
 10
0.0
 20
0.0
 30
0.0
 70
    16
 71
     6
 72
     3
  0
VERTEX
  5
B1
  8
0
 10
1.215
 20
0.755
 30
-0.20625
 70
    64
  0
VERTEX
  5
B2
  8
0
 10
1.215
 20
0.755
 30
-0.40625
 70
    64
  0
VERTEX
  5
B3
  8
0
 10
1.215
 20
0.755
 30
-0.40625
 70
    64
  0
VERTEX
  5
B4
  8
0
 10
0.365
 20
0.755
 30
-0.20625
 70
    64
  0
VERTEX
  5
B5
  8
0
 10
0.365
 20
0.755
 30
-0.40625
 70
    64
  0
VERTEX
  5
B6
  8
0
 10
0.365
 20
0.755
 30
-0.40625
 70
    64
  0
VERTEX
  5
B7
  8
0
 10
0.365
 20
0.24
 30
-0.20625
 70
    64
  0
VERTEX
  5
B8
  8
0
 10
0.365
 20
0.24
 30
-0.40625
 70
    64
  0
VERTEX
  5
B9
  8
0
 10
0.365
 20
0.755
 30
-0.40625
 70
    64
  0
VERTEX
  5
BA
  8
0
 10
1.215
 20
0.24
 30
-0.20625
 70
    64
  0
VERTEX
  5
BB
  8
0
 10
1.215
 20
0.24
 30
-0.40625
 70
    64
  0
VERTEX
  5
BC
  8
0
 10
1.215
 20
0.755
 30
-0.40625
 70
    64
  0
VERTEX
  5
BD
  8
0
 10
1.215
 20
0.24
 30
-0.20625
 70
    64
  0
VERTEX
  5
BE
  8
0
 10
1.215
 20
0.24
 30
-0.20625
 70
    64
  0
VERTEX
  5
BF
  8
0
 10
1.215
 20
0.755
 30
-0.20625
 70
    64
  0
VERTEX
  5
C0
  8
0
 10
0.365
 20
0.24
 30
-0.20625
 70
    64
  0
VERTEX
  5
C1
  8
0
 10
0.365
 20
0.24
 30
-0.20625
 70
    64
  0
VERTEX
  5
C2
  8
0
 10
0.365
 20
0.755
 30
-0.20625
 70
    64
  0
SEQEND
  5
C3
  8
0
  0
POLYLINE
  5
C4
  8
0
 66
     1
 10
0.0
 20
0.0
 30
0.0
 70
    16
 71
     6
 72
     3
  0
VERTEX
  5
C5
  8
0
 10
0.365
 20
0.24
 30
-0.20625
 70
    64
  0
VERTEX
  5
C6
  8
0
 10
0.365
 20
0.24
 30
-0.40625
 70
    64
  0
VERTEX
  5
C7
  8
0
 10
0.365
 20
0.24
 30
-0.40625
 70
    64
  0
VERTEX
  5
C8
  8
0
 10
0.0
 20
0.24
 30
-0.20625
 70
    64
  0
VERTEX
  5
C9
  8
0
 10
0.0
 20
0.24
 30
-0.40625
 70
    64
  0
VERTEX
  5
CA
  8
0
 10
0.0
 20
0.24
 30
-0.40625
 70
    64
  0
VERTEX
  5
CB
  8
0
 10
0.0
 20
0.72
 30
-0.20625
 70
    64
  0
VERTEX
  5
CC
  8
0
 10
0.0
 20
0.72
 30
-0.40625
 70
    64
  0
VERTEX
  5
CD
  8
0
 10
0.0
 20
0.24
 30
-0.40625
 70
    64
  0
VERTEX
  5
CE
  8
0
 10
0.365
 20
0.72
 30
-0.20625
 70
    64
  0
VERTEX
  5
CF
  8
0
 10
0.365
 20
0.72
 30
-0.40625
 70
    64
  0
VERTEX
  5
D0
  8
0
 10
0.365
 20
0.24
 30
-0.40625
 70
    64
  0
VERTEX
  5
D1
  8
0
 10
0.365
 20
0.72
 30
-0.20625
 70
    64
  0
VERTEX
  5
D2
  8
0
 10
0.365
 20
0.72
 30
-0.20625
 70
    64
  0
VERTEX
  5
D3
  8
0
 10
0.365
 20
0.24
 30
-0.20625
 70
    64
  0
VERTEX
  5
D4
  8
0
 10
0.0
 20
0.72
 30
-0.20625
 70
    64
  0
VERTEX
  5
D5
  8
0
 10
0.0
 20
0.72
 30
-0.20625
 70
    64
  0
VERTEX
  5
D6
  8
0
 10
0.0
 20
0.24
 30
-0.20625
 70
    64
  0
SEQEND
  5
D7
  8
0
  0
POINT
  5
D8
  8
DIMS-MTG-HOLES
 10
0.79
 20
-0.5875
 30
3.02375
  0
LINE
  5
E3
  8
0
 10
1.14
 20
0.24
 30
2.08375
 11
1.425
 21
0.24
 31
2.08375
  0
LINE
  5
E4
  8
0
 10
1.425
 20
0.24
 30
2.08375
 11
1.425
 21
0.24
 31
1.66575
  0
LINE
  5
E5
  8
0
 10
1.425
 20
0.24
 30
1.66575
 11
1.14
 21
0.24
 31
1.66575
  0
LINE
  5
E6
  8
0
 10
1.14
 20
0.24
 30
1.66575
 11
1.14
 21
0.24
 31
2.08375
  0
LINE
  5
E7
  8
0
 10
0.7
 20
0.24
 30
1.66575
 11
0.7
 21
0.24
 31
2.08375
  0
LINE
  5
E8
  8
0
 10
0.7
 20
0.24
 30
2.08375
 11
0.415
 21
0.24
 31
2.08375
  0
LINE
  5
E9
  8
0
 10
0.415
 20
0.24
 30
2.08375
 11
0.415
 21
0.24
 31
1.66575
  0
LINE
  5
EA
  8
0
 10
0.415
 20
0.24
 30
1.66575
 11
0.7
 21
0.24
 31
1.66575
  0
LINE
  5
EB
  8
0
 10
1.14
 20
-1.415
 30
2.08375
 11
1.425
 21
-1.415
 31
2.08375
  0
LINE
  5
EC
  8
0
 10
1.425
 20
-1.415
 30
2.08375
 11
1.425
 21
-1.415
 31
1.66575
  0
LINE
  5
ED
  8
0
 10
1.425
 20
-1.415
 30
1.66575
 11
1.14
 21
-1.415
 31
1.66575
  0
LINE
  5
EE
  8
0
 10
1.14
 20
-1.415
 30
1.66575
 11
1.14
 21
-1.415
 31
2.08375
  0
LINE
  5
EF
  8
0
 10
0.7
 20
-1.415
 30
1.66575
 11
0.7
 21
-1.415
 31
2.08375
  0
LINE
  5
F0
  8
0
 10
0.7
 20
-1.415
 30
2.08375
 11
0.415
 21
-1.415
 31
2.08375
  0
LINE
  5
F1
  8
0
 10
0.415
 20
-1.415
 30
2.08375
 11
0.415
 21
-1.415
 31
1.66575
  0
3DFACE
  5
F2
  8
0
 10
1.58
 20
-1.415
 30
2.62875
 11
1.58
 21
-1.415
 31
1.41875
 12
0.0
 22
-1.415
 32
1.41875
 13
0.0
 23
-1.415
 33
2.62875
  0
3DFACE
  5
F3
  8
0
 10
1.58
 20
-1.415
 30
1.41875
 11
1.58
 21
-1.415
 31
1.41875
 12
0.0
 22
-1.415
 32
1.41875
 13
0.0
 23
-1.415
 33
1.41875
  0
3DFACE
  5
F4
  8
0
 10
0.0
 20
-1.415
 30
2.62875
 11
0.0
 21
-1.415
 31
1.41875
 12
0.0
 22
0.24
 32
1.41875
 13
0.0
 23
0.24
 33
2.62875
  0
3DFACE
  5
F5
  8
0
 10
0.0
 20
-1.415
 30
1.41875
 11
0.0
 21
-1.415
 31
1.41875
 12
0.0
 22
-1.415
 32
1.41875
 13
0.0
 23
0.24
 33
1.41875
  0
3DFACE
  5
F6
  8
0
 10
0.0
 20
0.24
 30
2.62875
 11
0.0
 21
0.24
 31
1.41875
 12
1.58
 22
0.24
 32
1.41875
 13
1.58
 23
0.24
 33
2.62875
  0
3DFACE
  5
F7
  8
0
 10
0.0
 20
0.24
 30
1.41875
 11
0.0
 21
-1.415
 31
1.41875
 12
1.58
 22
-1.415
 32
1.41875
 13
1.58
 23
0.24
 33
1.41875
  0
3DFACE
  5
F8
  8
0
 10
1.58
 20
0.24
 30
2.62875
 11
1.58
 21
0.24
 31
1.41875
 12
1.58
 22
0.24
 32
2.62875
 13
1.58
 23
0.24
 33
2.62875
  0
3DFACE
  5
F9
  8
0
 10
1.58
 20
0.24
 30
1.41875
 11
1.58
 21
-1.415
 31
1.41875
 12
1.58
 22
-1.415
 32
2.62875
 13
1.58
 23
0.24
 33
2.62875
  0
3DFACE
  5
FA
  8
0
 10
1.58
 20
0.24
 30
2.62875
 11
1.58
 21
0.24
 31
2.62875
 12
0.0
 22
0.24
 32
2.62875
 13
0.0
 23
0.24
 33
2.62875
  0
3DFACE
  5
FB
  8
0
 10
1.58
 20
0.24
 30
2.62875
 11
1.58
 21
-1.415
 31
2.62875
 12
0.0
 22
-1.415
 32
2.62875
 13
0.0
 23
0.24
 33
2.62875
  0
POLYLINE
  5
FC
  8
0
 66
     1
 10
0.0
 20
0.0
 30
1.66575
  0
VERTEX
  5
1B8
  8
0
 10
0.415
 20
-1.415
 30
1.66575
  0
VERTEX
  5
1B9
  8
0
 10
0.7
 20
-1.415
 30
1.66575
  0
SEQEND
  5
1BA
  8
0
  0
TEXT
  5
100
  8
0
 10
1.14
 20
2.08375
 30
1.415
 40
0.2
  1
1
210
0.0
220
-1.0
230
0.0
  0
TEXT
  5
101
  8
0
 10
0.415
 20
2.08375
 30
1.415
 40
0.2
  1
3
210
0.0
220
-1.0
230
0.0
  0
TEXT
  5
102
  8
0
 10
-0.655
 20
2.08375
 30
0.24
 40
0.2
  1
4
210
0.0
220
1.0
230
0.0
  0
TEXT
  5
103
  8
0
 10
-1.38
 20
2.08375
 30
0.24
 40
0.2
  1
2
210
0.0
220
1.0
230
0.0
  0
POLYLINE
  5
104
  8
0
 66
     1
 10
0.0
 20
0.0
 30
0.0
 70
    16
 71
     6
 72
     3
  0
VERTEX
  5
105
  8
0
 10
1.58
 20
-1.415
 30
1.41875
 70
    64
  0
VERTEX
  5
106
  8
0
 10
1.58
 20
-1.415
 30
1.0125
 70
    64
  0
VERTEX
  5
107
  8
0
 10
1.58
 20
-1.415
 30
1.0125
 70
    64
  0
VERTEX
  5
108
  8
0
 10
0.0
 20
-1.415
 30
1.41875
 70
    64
  0
VERTEX
  5
109
  8
0
 10
0.0
 20
-1.415
 30
1.0125
 70
    64
  0
VERTEX
  5
10A
  8
0
 10
0.0
 20
-1.415
 30
1.0125
 70
    64
  0
VERTEX
  5
10B
  8
0
 10
0.0
 20
0.24
 30
1.41875
 70
    64
  0
VERTEX
  5
10C
  8
0
 10
0.0
 20
0.24
 30
1.0125
 70
    64
  0
VERTEX
  5
10D
  8
0
 10
0.0
 20
-1.415
 30
1.0125
 70
    64
  0
VERTEX
  5
10E
  8
0
 10
1.58
 20
0.24
 30
1.41875
 70
    64
  0
VERTEX
  5
10F
  8
0
 10
1.58
 20
0.24
 30
1.0125
 70
    64
  0
VERTEX
  5
110
  8
0
 10
1.58
 20
-1.415
 30
1.0125
 70
    64
  0
VERTEX
  5
111
  8
0
 10
1.58
 20
0.24
 30
1.41875
 70
    64
  0
VERTEX
  5
112
  8
0
 10
1.58
 20
0.24
 30
1.41875
 70
    64
  0
VERTEX
  5
113
  8
0
 10
1.58
 20
-1.415
 30
1.41875
 70
    64
  0
VERTEX
  5
114
  8
0
 10
0.0
 20
0.24
 30
1.41875
 70
    64
  0
VERTEX
  5
115
  8
0
 10
0.0
 20
0.24
 30
1.41875
 70
    64
  0
VERTEX
  5
116
  8
0
 10
0.0
 20
-1.415
 30
1.41875
 70
    64
  0
SEQEND
  5
117
  8
0
  0
LINE
  5
118
  8
0
 10
1.08125
 20
-1.415
 30
1.16575
 11
0.79625
 21
-1.415
 31
1.16575
  0
LINE
  5
119
  8
0
 10
0.79625
 20
-1.415
 30
1.16575
 11
0.79625
 21
-1.415
 31
1.58375
  0
LINE
  5
11A
  8
0
 10
1.08125
 20
-1.415
 30
1.58375
 11
1.08125
 21
-1.415
 31
1.16575
  0
LINE
  5
11B
  8
0
 10
0.79625
 20
-1.415
 30
1.58375
 11
1.08125
 21
-1.415
 31
1.58375
  0
TEXT
  5
11C
  8
0
 10
0.79625
 20
1.58375
 30
1.415
 40
0.2
  1
5
210
0.0
220
-1.0
230
0.0
  0
LINE
  5
11D
  8
0
 10
0.07125
 20
-1.415
 30
1.58375
 11
0.07125
 21
-1.415
 31
1.16575
  0
POLYLINE
  5
11E
  8
0
 66
     1
 10
0.0
 20
0.0
 30
1.16575
  0
VERTEX
  5
1BB
  8
0
 10
0.07125
 20
-1.415
 30
1.16575
  0
VERTEX
  5
1BC
  8
0
 10
0.35625
 20
-1.415
 30
1.16575
  0
SEQEND
  5
1BD
  8
0
  0
LINE
  5
122
  8
0
 10
0.35625
 20
-1.415
 30
1.16575
 11
0.35625
 21
-1.415
 31
1.58375
  0
TEXT
  5
123
  8
0
 10
0.07125
 20
1.58375
 30
1.415
 40
0.2
  1
7
210
0.0
220
-1.0
230
0.0
  0
LINE
  5
124
  8
0
 10
0.35625
 20
-1.415
 30
1.58375
 11
0.07125
 21
-1.415
 31
1.58375
  0
LINE
  5
125
  8
0
 10
0.07125
 20
0.24
 30
1.58375
 11
0.07125
 21
0.24
 31
1.16575
  0
LINE
  5
126
  8
0
 10
0.35625
 20
0.24
 30
1.16575
 11
0.35625
 21
0.24
 31
1.58375
  0
LINE
  5
127
  8
0
 10
0.07125
 20
0.24
 30
1.16575
 11
0.35625
 21
0.24
 31
1.16575
  0
LINE
  5
128
  8
0
 10
0.35625
 20
0.24
 30
1.58375
 11
0.07125
 21
0.24
 31
1.58375
  0
TEXT
  5
129
  8
0
 10
-0.31125
 20
1.58375
 30
0.24
 40
0.2
  1
8
210
0.0
220
1.0
230
0.0
  0
LINE
  5
12A
  8
0
 10
1.08125
 20
0.24
 30
1.16575
 11
0.79625
 21
0.24
 31
1.16575
  0
LINE
  5
12B
  8
0
 10
0.79625
 20
0.24
 30
1.58375
 11
1.08125
 21
0.24
 31
1.58375
  0
LINE
  5
12C
  8
0
 10
1.08125
 20
0.24
 30
1.58375
 11
1.08125
 21
0.24
 31
1.16575
  0
TEXT
  5
12D
  8
0
 10
-1.03625
 20
1.58375
 30
0.24
 40
0.2
  1
6
210
0.0
220
1.0
230
0.0
  0
LINE
  5
12E
  8
0
 10
0.79625
 20
0.24
 30
1.16575
 11
0.79625
 21
0.24
 31
1.58375
  0
POINT
  5
12F
  8
DIMS-MTG-HOLES
 10
0.0
 20
0.0
 30
-0.40625
  0
POLYLINE
  5
130
  8
0
 66
     1
 10
0.0
 20
0.0
 30
0.0
 70
    16
 71
     6
 72
     3
  0
VERTEX
  5
131
  8
0
 10
1.58
 20
-1.415
 30
1.0125
 70
    64
  0
VERTEX
  5
132
  8
0
 10
1.58
 20
-1.415
 30
0.60625
 70
    64
  0
VERTEX
  5
133
  8
0
 10
1.58
 20
-1.415
 30
0.60625
 70
    64
  0
VERTEX
  5
134
  8
0
 10
0.0
 20
-1.415
 30
1.0125
 70
    64
  0
VERTEX
  5
135
  8
0
 10
0.0
 20
-1.415
 30
0.60625
 70
    64
  0
VERTEX
  5
136
  8
0
 10
0.0
 20
-1.415
 30
0.60625
 70
    64
  0
VERTEX
  5
137
  8
0
 10
0.0
 20
0.24
 30
1.0125
 70
    64
  0
VERTEX
  5
138
  8
0
 10
0.0
 20
0.24
 30
0.60625
 70
    64
  0
VERTEX
  5
139
  8
0
 10
0.0
 20
-1.415
 30
0.60625
 70
    64
  0
VERTEX
  5
13A
  8
0
 10
1.58
 20
0.24
 30
1.0125
 70
    64
  0
VERTEX
  5
13B
  8
0
 10
1.58
 20
0.24
 30
0.60625
 70
    64
  0
VERTEX
  5
13C
  8
0
 10
1.58
 20
-1.415
 30
0.60625
 70
    64
  0
VERTEX
  5
13D
  8
0
 10
1.58
 20
0.24
 30
1.0125
 70
    64
  0
VERTEX
  5
13E
  8
0
 10
1.58
 20
0.24
 30
1.0125
 70
    64
  0
VERTEX
  5
13F
  8
0
 10
1.58
 20
-1.415
 30
1.0125
 70
    64
  0
VERTEX
  5
140
  8
0
 10
0.0
 20
0.24
 30
1.0125
 70
    64
  0
VERTEX
  5
141
  8
0
 10
0.0
 20
0.24
 30
1.0125
 70
    64
  0
VERTEX
  5
142
  8
0
 10
0.0
 20
-1.415
 30
1.0125
 70
    64
  0
SEQEND
  5
143
  8
0
  0
LINE
  5
144
  8
0
 10
1.14
 20
-1.415
 30
0.66575
 11
1.14
 21
-1.415
 31
1.08375
  0
LINE
  5
145
  8
0
 10
1.425
 20
-1.415
 30
1.08375
 11
1.425
 21
-1.415
 31
0.66575
  0
TEXT
  5
146
  8
0
 10
1.14
 20
1.08375
 30
1.415
 40
0.2
  1
9
210
0.0
220
-1.0
230
0.0
  0
LINE
  5
147
  8
0
 10
1.14
 20
-1.415
 30
1.08375
 11
1.425
 21
-1.415
 31
1.08375
  0
LINE
  5
148
  8
0
 10
1.425
 20
-1.415
 30
0.66575
 11
1.14
 21
-1.415
 31
0.66575
  0
POLYLINE
  5
149
  8
0
 66
     1
 10
0.0
 20
0.0
 30
0.66575
  0
VERTEX
  5
1BE
  8
0
 10
0.415
 20
-1.415
 30
0.66575
  0
VERTEX
  5
1BF
  8
0
 10
0.7
 20
-1.415
 30
0.66575
  0
SEQEND
  5
1C0
  8
0
  0
LINE
  5
14D
  8
0
 10
0.7
 20
-1.415
 30
0.66575
 11
0.7
 21
-1.415
 31
1.08375
  0
LINE
  5
14E
  8
0
 10
0.7
 20
-1.415
 30
1.08375
 11
0.415
 21
-1.415
 31
1.08375
  0
TEXT
  5
14F
  8
0
 10
0.415
 20
1.08375
 30
1.415
 40
0.2
  1
11
210
0.0
220
-1.0
230
0.0
  0
LINE
  5
150
  8
0
 10
0.415
 20
-1.415
 30
1.08375
 11
0.415
 21
-1.415
 31
0.66575
  0
LINE
  5
151
  8
0
 10
0.415
 20
0.24
 30
1.08375
 11
0.415
 21
0.24
 31
0.66575
  0
LINE
  5
152
  8
0
 10
0.415
 20
0.24
 30
0.66575
 11
0.7
 21
0.24
 31
0.66575
  0
LINE
  5
153
  8
0
 10
0.7
 20
0.24
 30
0.66575
 11
0.7
 21
0.24
 31
1.08375
  0
TEXT
  5
154
  8
0
 10
-0.655
 20
1.08375
 30
0.24
 40
0.2
  1
12
210
0.0
220
1.0
230
0.0
  0
LINE
  5
155
  8
0
 10
0.7
 20
0.24
 30
1.08375
 11
0.415
 21
0.24
 31
1.08375
  0
LINE
  5
156
  8
0
 10
1.14
 20
0.24
 30
0.66575
 11
1.14
 21
0.24
 31
1.08375
  0
LINE
  5
157
  8
0
 10
1.425
 20
0.24
 30
0.66575
 11
1.14
 21
0.24
 31
0.66575
  0
LINE
  5
158
  8
0
 10
1.425
 20
0.24
 30
1.08375
 11
1.425
 21
0.24
 31
0.66575
  0
TEXT
  5
159
  8
0
 10
-1.38
 20
1.08375
 30
0.24
 40
0.2
  1
10
210
0.0
220
1.0
230
0.0
  0
POLYLINE
  5
15A
  8
0
 66
     1
 10
0.0
 20
0.0
 30
0.0
 70
    16
 71
     6
 72
     3
  0
VERTEX
  5
15B
  8
0
 10
1.58
 20
-1.415
 30
0.60625
 70
    64
  0
VERTEX
  5
15C
  8
0
 10
1.58
 20
-1.415
 30
0.2
 70
    64
  0
VERTEX
  5
15D
  8
0
 10
1.58
 20
-1.415
 30
0.2
 70
    64
  0
VERTEX
  5
15E
  8
0
 10
0.0
 20
-1.415
 30
0.60625
 70
    64
  0
VERTEX
  5
15F
  8
0
 10
0.0
 20
-1.415
 30
0.2
 70
    64
  0
VERTEX
  5
160
  8
0
 10
0.0
 20
-1.415
 30
0.2
 70
    64
  0
VERTEX
  5
161
  8
0
 10
0.0
 20
0.24
 30
0.60625
 70
    64
  0
VERTEX
  5
162
  8
0
 10
0.0
 20
0.24
 30
0.2
 70
    64
  0
VERTEX
  5
163
  8
0
 10
0.0
 20
-1.415
 30
0.2
 70
    64
  0
VERTEX
  5
164
  8
0
 10
1.58
 20
0.24
 30
0.60625
 70
    64
  0
VERTEX
  5
165
  8
0
 10
1.58
 20
0.24
 30
0.2
 70
    64
  0
VERTEX
  5
166
  8
0
 10
1.58
 20
-1.415
 30
0.2
 70
    64
  0
VERTEX
  5
167
  8
0
 10
1.58
 20
0.24
 30
0.60625
 70
    64
  0
VERTEX
  5
168
  8
0
 10
1.58
 20
0.24
 30
0.60625
 70
    64
  0
VERTEX
  5
169
  8
0
 10
1.58
 20
-1.415
 30
0.60625
 70
    64
  0
VERTEX
  5
16A
  8
0
 10
0.0
 20
0.24
 30
0.60625
 70
    64
  0
VERTEX
  5
16B
  8
0
 10
0.0
 20
0.24
 30
0.60625
 70
    64
  0
VERTEX
  5
16C
  8
0
 10
0.0
 20
-1.415
 30
0.60625
 70
    64
  0
SEQEND
  5
16D
  8
0
  0
LINE
  5
16E
  8
0
 10
1.08125
 20
-1.415
 30
0.63375
 11
1.08125
 21
-1.415
 31
0.21575
  0
LINE
  5
16F
  8
0
 10
1.08125
 20
-1.415
 30
0.21575
 11
0.79625
 21
-1.415
 31
0.21575
  0
LINE
  5
170
  8
0
 10
0.79625
 20
-1.415
 30
0.21575
 11
0.79625
 21
-1.415
 31
0.63375
  0
LINE
  5
171
  8
0
 10
0.79625
 20
-1.415
 30
0.63375
 11
1.08125
 21
-1.415
 31
0.63375
  0
TEXT
  5
172
  8
0
 10
0.79625
 20
0.63375
 30
1.415
 40
0.2
  1
13
210
0.0
220
-1.0
230
0.0
  0
TEXT
  5
173
  8
0
 10
0.07125
 20
0.63375
 30
1.415
 40
0.2
  1
15
210
0.0
220
-1.0
230
0.0
  0
LINE
  5
174
  8
0
 10
0.35625
 20
-1.415
 30
0.63375
 11
0.07125
 21
-1.415
 31
0.63375
  0
LINE
  5
175
  8
0
 10
0.35625
 20
-1.415
 30
0.21575
 11
0.35625
 21
-1.415
 31
0.63375
  0
POLYLINE
  5
176
  8
0
 66
     1
 10
0.0
 20
0.0
 30
0.21575
  0
VERTEX
  5
1C1
  8
0
 10
0.07125
 20
-1.415
 30
0.21575
  0
VERTEX
  5
1C2
  8
0
 10
0.35625
 20
-1.415
 30
0.21575
  0
SEQEND
  5
1C3
  8
0
  0
LINE
  5
17A
  8
0
 10
0.07125
 20
-1.415
 30
0.63375
 11
0.07125
 21
-1.415
 31
0.21575
  0
LINE
  5
17B
  8
0
 10
0.35625
 20
0.24
 30
0.21575
 11
0.35625
 21
0.24
 31
0.63375
  0
LINE
  5
17C
  8
0
 10
0.35625
 20
0.24
 30
0.63375
 11
0.07125
 21
0.24
 31
0.63375
  0
LINE
  5
17D
  8
0
 10
0.07125
 20
0.24
 30
0.63375
 11
0.07125
 21
0.24
 31
0.21575
  0
LINE
  5
17E
  8
0
 10
0.07125
 20
0.24
 30
0.21575
 11
0.35625
 21
0.24
 31
0.21575
  0
TEXT
  5
17F
  8
0
 10
-0.31125
 20
0.63375
 30
0.24
 40
0.2
  1
16
210
0.0
220
1.0
230
0.0
  0
TEXT
  5
180
  8
0
 10
-1.03625
 20
0.63375
 30
0.24
 40
0.2
  1
14
210
0.0
220
1.0
230
0.0
  0
LINE
  5
181
  8
0
 10
0.79625
 20
0.24
 30
0.63375
 11
1.08125
 21
0.24
 31
0.63375
  0
LINE
  5
182
  8
0
 10
0.79625
 20
0.24
 30
0.21575
 11
0.79625
 21
0.24
 31
0.63375
  0
LINE
  5
183
  8
0
 10
1.08125
 20
0.24
 30
0.63375
 11
1.08125
 21
0.24
 31
0.21575
  0
LINE
  5
184
  8
0
 10
1.08125
 20
0.24
 30
0.21575
 11
0.79625
 21
0.24
 31
0.21575
  0
POLYLINE
  5
185
  8
0
 66
     1
 10
0.0
 20
0.0
 30
0.0
 70
    16
 71
     6
 72
     3
  0
VERTEX
  5
186
  8
0
 10
1.58
 20
-1.415
 30
0.2
 70
    64
  0
VERTEX
  5
187
  8
0
 10
1.58
 20
-1.415
 30
-0.20625
 70
    64
  0
VERTEX
  5
188
  8
0
 10
1.58
 20
-1.415
 30
-0.20625
 70
    64
  0
VERTEX
  5
189
  8
0
 10
0.0
 20
-1.415
 30
0.2
 70
    64
  0
VERTEX
  5
18A
  8
0
 10
0.0
 20
-1.415
 30
-0.20625
 70
    64
  0
VERTEX
  5
18B
  8
0
 10
0.0
 20
-1.415
 30
-0.20625
 70
    64
  0
VERTEX
  5
18C
  8
0
 10
0.0
 20
0.24
 30
0.2
 70
    64
  0
VERTEX
  5
18D
  8
0
 10
0.0
 20
0.24
 30
-0.20625
 70
    64
  0
VERTEX
  5
18E
  8
0
 10
0.0
 20
-1.415
 30
-0.20625
 70
    64
  0
VERTEX
  5
18F
  8
0
 10
1.58
 20
0.24
 30
0.2
 70
    64
  0
VERTEX
  5
190
  8
0
 10
1.58
 20
0.24
 30
-0.20625
 70
    64
  0
VERTEX
  5
191
  8
0
 10
1.58
 20
-1.415
 30
-0.20625
 70
    64
  0
VERTEX
  5
192
  8
0
 10
1.58
 20
0.24
 30
0.2
 70
    64
  0
VERTEX
  5
193
  8
0
 10
1.58
 20
0.24
 30
0.2
 70
    64
  0
VERTEX
  5
194
  8
0
 10
1.58
 20
-1.415
 30
0.2
 70
    64
  0
VERTEX
  5
195
  8
0
 10
0.0
 20
0.24
 30
0.2
 70
    64
  0
VERTEX
  5
196
  8
0
 10
0.0
 20
0.24
 30
0.2
 70
    64
  0
VERTEX
  5
197
  8
0
 10
0.0
 20
-1.415
 30
0.2
 70
    64
  0
SEQEND
  5
198
  8
0
  0
POLYLINE
  5
199
  8
0
 66
     1
 10
0.0
 20
0.0
 30
-0.13425
  0
VERTEX
  5
1C4
  8
0
 10
0.415
 20
-1.415
 30
-0.13425
  0
VERTEX
  5
1C5
  8
0
 10
0.7
 20
-1.415
 30
-0.13425
  0
SEQEND
  5
1C6
  8
0
  0
LINE
  5
19D
  8
0
 10
0.7
 20
-1.415
 30
-0.13425
 11
0.7
 21
-1.415
 31
0.28375
  0
LINE
  5
19E
  8
0
 10
0.415
 20
-1.415
 30
0.28375
 11
0.415
 21
-1.415
 31
-0.13425
  0
LINE
  5
19F
  8
0
 10
0.7
 20
-1.415
 30
0.28375
 11
0.415
 21
-1.415
 31
0.28375
  0
TEXT
  5
1A0
  8
0
 10
0.415
 20
0.28375
 30
1.415
 40
0.2
  1
19
210
0.0
220
-1.0
230
0.0
  0
LINE
  5
1A1
  8
0
 10
1.425
 20
-1.415
 30
-0.13425
 11
1.14
 21
-1.415
 31
-0.13425
  0
LINE
  5
1A2
  8
0
 10
1.14
 20
-1.415
 30
-0.13425
 11
1.14
 21
-1.415
 31
0.28375
  0
LINE
  5
1A3
  8
0
 10
1.425
 20
-1.415
 30
0.28375
 11
1.425
 21
-1.415
 31
-0.13425
  0
LINE
  5
1A4
  8
0
 10
1.14
 20
-1.415
 30
0.28375
 11
1.425
 21
-1.415
 31
0.28375
  0
TEXT
  5
1A5
  8
0
 10
1.14
 20
0.28375
 30
1.415
 40
0.2
  1
17
210
0.0
220
-1.0
230
0.0
  0
LINE
  5
1A6
  8
0
 10
1.425
 20
0.24
 30
-0.13425
 11
1.14
 21
0.24
 31
-0.13425
  0
LINE
  5
1A7
  8
0
 10
1.14
 20
0.24
 30
-0.13425
 11
1.14
 21
0.24
 31
0.28375
  0
LINE
  5
1A8
  8
0
 10
1.425
 20
0.24
 30
0.28375
 11
1.425
 21
0.24
 31
-0.13425
  0
TEXT
  5
1A9
  8
0
 10
-0.655
 20
0.28375
 30
0.24
 40
0.2
  1
20
210
0.0
220
1.0
230
0.0
  0
LINE
  5
1AA
  8
0
 10
0.7
 20
0.24
 30
0.18375
 11
0.415
 21
0.24
 31
0.18375
  0
LINE
  5
1AB
  8
0
 10
0.7
 20
0.24
 30
-0.13425
 11
0.7
 21
0.24
 31
0.28375
  0
LINE
  5
1AC
  8
0
 10
0.415
 20
0.24
 30
0.28375
 11
0.415
 21
0.24
 31
-0.13425
  0
LINE
  5
1AD
  8
0
 10
0.415
 20
0.24
 30
-0.13425
 11
0.7
 21
0.24
 31
-0.13425
  0
TEXT
  5
1AE
  8
0
 10
-1.38
 20
0.28375
 30
0.24
 40
0.2
  1
18
210
0.0
220
1.0
230
0.0
  0
LINE
  5
1AF
  8
0
 10
1.425
 20
0.24
 30
1.08375
 11
1.14
 21
0.24
 31
1.08375
  0
LINE
  5
1B0
  8
0
 10
1.425
 20
0.24
 30
0.28375
 11
1.14
 21
0.24
 31
0.28375
  0
LINE
  5
1B1
  8
0
 10
0.7
 20
0.24
 30
0.28375
 11
0.415
 21
0.24
 31
0.28375
  0
VIEWPORT
  5
27
 67
     1
  8
0
 10
6.142923
 20
4.575897
 30
0.0
 40
14.291121
 41
9.885702
 68
    -1
 69
     1
1001
ACAD
1000
MVIEW
1002
{
1070
    16
1010
0.0
1020
0.0
1030
0.0
1010
0.0
1020
0.0
1030
1.0
1040
0.0
1040
9.885702
1040
6.142923
1040
4.575897
1040
50.0
1040
0.0
1040
0.0
1070
     0
1070
   100
1070
     1
1070
     0
1070
     0
1070
     0
1070
     0
1070
     0
1040
0.0
1040
0.0
1040
0.0
1040
1.0
1040
1.0
1040
0.0
1040
0.0
1070
     0
1002
{
1002
}
1002
}
  0
ENDSEC
  0
EOF
