  0
SECTION
  2
HEADER
  9
$ACADVER
  1
AC1009
  9
$INSBASE
 10
0.0
 20
0.0
 30
0.0
  9
$EXTMIN
 10
-1.215403
 20
-1.215312
 30
-0.000036
  9
$EXTMAX
 10
1.215426
 20
1.215458
 30
1.190036
  9
$LIMMIN
 10
0.0
 20
0.0
  9
$LIMMAX
 10
12.0
 20
9.0
  9
$ORTHOMODE
 70
     1
  9
$REGENMODE
 70
     1
  9
$FILLMODE
 70
     1
  9
$QTEXTMODE
 70
     0
  9
$MIRRTEXT
 70
     1
  9
$DRAGMODE
 70
     2
  9
$LTSCALE
 40
1.0
  9
$OSMODE
 70
     1
  9
$ATTMODE
 70
     0
  9
$TEXTSIZE
 40
0.15
  9
$TRACEWID
 40
0.05
  9
$TEXTSTYLE
  7
STANDARD
  9
$CLAYER
  8
0
  9
$CELTYPE
  6
BYLAYER
  9
$CECOLOR
 62
   256
  9
$DIMSCALE
 40
1.0
  9
$DIMASZ
 40
0.18
  9
$DIMEXO
 40
0.0625
  9
$DIMDLI
 40
0.38
  9
$DIMRND
 40
0.0
  9
$DIMDLE
 40
0.0
  9
$DIMEXE
 40
0.18
  9
$DIMTP
 40
0.0
  9
$DIMTM
 40
0.0
  9
$DIMTXT
 40
0.18
  9
$DIMCEN
 40
0.09
  9
$DIMTSZ
 40
0.0
  9
$DIMTOL
 70
     0
  9
$DIMLIM
 70
     0
  9
$DIMTIH
 70
     1
  9
$DIMTOH
 70
     1
  9
$DIMSE1
 70
     0
  9
$DIMSE2
 70
     0
  9
$DIMTAD
 70
     0
  9
$DIMZIN
 70
     0
  9
$DIMBLK
  1

  9
$DIMASO
 70
     1
  9
$DIMSHO
 70
     1
  9
$DIMPOST
  1

  9
$DIMAPOST
  1

  9
$DIMALT
 70
     0
  9
$DIMALTD
 70
     2
  9
$DIMALTF
 40
25.4
  9
$DIMLFAC
 40
1.0
  9
$DIMTOFL
 70
     0
  9
$DIMTVP
 40
0.0
  9
$DIMTIX
 70
     0
  9
$DIMSOXD
 70
     0
  9
$DIMSAH
 70
     0
  9
$DIMBLK1
  1

  9
$DIMBLK2
  1

  9
$DIMSTYLE
  2
STANDARD
  9
$DIMCLRD
 70
     0
  9
$DIMCLRE
 70
     0
  9
$DIMCLRT
 70
     0
  9
$DIMTFAC
 40
1.0
  9
$DIMGAP
 40
0.09
  9
$LUNITS
 70
     2
  9
$LUPREC
 70
     4
  9
$SKETCHINC
 40
0.1
  9
$FILLETRAD
 40
0.0
  9
$AUNITS
 70
     0
  9
$AUPREC
 70
     0
  9
$MENU
  1
acad
  9
$ELEVATION
 40
0.0
  9
$PELEVATION
 40
0.0
  9
$THICKNESS
 40
0.0
  9
$LIMCHECK
 70
     0
  9
$BLIPMODE
 70
     0
  9
$CHAMFERA
 40
0.0
  9
$CHAMFERB
 40
0.0
  9
$SKPOLY
 70
     0
  9
$TDCREATE
 40
2450692.701997
  9
$TDUPDATE
 40
2451164.464966
  9
$TDINDWG
 40
0.007603
  9
$TDUSRTIMER
 40
0.007603
  9
$USRTIMER
 70
     1
  9
$ANGBASE
 50
0.0
  9
$ANGDIR
 70
     0
  9
$PDMODE
 70
    96
  9
$PDSIZE
 40
0.09
  9
$PLINEWID
 40
0.0
  9
$COORDS
 70
     1
  9
$SPLFRAME
 70
     1
  9
$SPLINETYPE
 70
     6
  9
$SPLINESEGS
 70
     8
  9
$ATTDIA
 70
     0
  9
$ATTREQ
 70
     1
  9
$HANDLING
 70
     1
  9
$HANDSEED
  5
3E311
  9
$SURFTAB1
 70
     6
  9
$SURFTAB2
 70
     6
  9
$SURFTYPE
 70
     6
  9
$SURFU
 70
     6
  9
$SURFV
 70
     6
  9
$UCSNAME
  2

  9
$UCSORG
 10
0.0
 20
0.0
 30
0.0
  9
$UCSXDIR
 10
1.0
 20
0.0
 30
0.0
  9
$UCSYDIR
 10
0.0
 20
1.0
 30
0.0
  9
$PUCSNAME
  2

  9
$PUCSORG
 10
0.0
 20
0.0
 30
0.0
  9
$PUCSXDIR
 10
1.0
 20
0.0
 30
0.0
  9
$PUCSYDIR
 10
0.0
 20
1.0
 30
0.0
  9
$USERI1
 70
     0
  9
$USERI2
 70
     0
  9
$USERI3
 70
     0
  9
$USERI4
 70
     0
  9
$USERI5
 70
     0
  9
$USERR1
 40
0.0
  9
$USERR2
 40
0.0
  9
$USERR3
 40
0.0
  9
$USERR4
 40
0.0
  9
$USERR5
 40
0.0
  9
$WORLDVIEW
 70
     1
  9
$SHADEDGE
 70
     3
  9
$SHADEDIF
 70
    70
  9
$TILEMODE
 70
     1
  9
$MAXACTVP
 70
    16
  9
$PLIMCHECK
 70
     0
  9
$PEXTMIN
 10
1.000000E+020
 20
1.000000E+020
 30
1.000000E+020
  9
$PEXTMAX
 10
-1.000000E+020
 20
-1.000000E+020
 30
-1.000000E+020
  9
$PLIMMIN
 10
0.0
 20
0.0
  9
$PLIMMAX
 10
12.0
 20
9.0
  9
$UNITMODE
 70
     0
  9
$VISRETAIN
 70
     0
  9
$PLINEGEN
 70
     0
  9
$PSLTSCALE
 70
     1
  0
ENDSEC
  0
SECTION
  2
TABLES
  0
TABLE
  2
VPORT
 70
     2
  0
VPORT
  2
*ACTIVE
 70
     0
 10
0.0
 20
0.0
 11
1.0
 21
1.0
 12
0.000011
 22
0.000073
 13
0.0
 23
0.0
 14
0.25
 24
0.25
 15
0.25
 25
0.25
 16
0.0
 26
0.0
 36
1.0
 17
0.0
 27
0.0
 37
0.0
 40
2.584814
 41
1.603066
 42
50.0
 43
0.0
 44
0.0
 50
0.0
 51
0.0
 71
     0
 72
 20000
 73
     1
 74
     1
 75
     0
 76
     0
 77
     0
 78
     0
  0
ENDTAB
  0
TABLE
  2
LTYPE
 70
     1
  0
LTYPE
  2
CONTINUOUS
 70
     0
  3
Solid line
 72
    65
 73
     0
 40
0.0
  0
ENDTAB
  0
TABLE
  2
LAYER
 70
     2
  0
LAYER
  2
0
 70
     0
 62
     7
  6
CONTINUOUS
  0
LAYER
  2
DIMS-MTG-HOLES
 70
     0
 62
     1
  6
CONTINUOUS
  0
ENDTAB
  0
TABLE
  2
STYLE
 70
     1
  0
STYLE
  2
STANDARD
 70
     0
 40
0.0
 41
1.0
 50
0.0
 71
     0
 42
0.15
  3
txt
  4

  0
ENDTAB
  0
TABLE
  2
VIEW
 70
     0
  0
ENDTAB
  0
TABLE
  2
UCS
 70
     0
  0
ENDTAB
  0
TABLE
  2
APPID
 70
     1
  0
APPID
  2
ACAD
 70
     0
  0
ENDTAB
  0
TABLE
  2
DIMSTYLE
 70
     1
  0
DIMSTYLE
  2
STANDARD
 70
     0
  3

  4

  5

  6

  7

 40
1.0
 41
0.18
 42
0.0625
 43
0.38
 44
0.18
 45
0.0
 46
0.0
 47
0.0
 48
0.0
140
0.18
141
0.09
142
0.0
143
25.4
144
1.0
145
0.0
146
1.0
147
0.09
 71
     0
 72
     0
 73
     1
 74
     1
 75
     0
 76
     0
 77
     0
 78
     0
170
     0
171
     2
172
     0
173
     0
174
     0
175
     0
176
     0
177
     0
178
     0
  0
ENDTAB
  0
ENDSEC
  0
SECTION
  2
BLOCKS
  0
BLOCK
  8
0
  2
$MODEL_SPACE
 70
     0
 10
0.0
 20
0.0
 30
0.0
  3
$MODEL_SPACE
  1

  0
ENDBLK
  5
3E2F9
  8
0
  0
BLOCK
 67
     1
  8
0
  2
$PAPER_SPACE
 70
     0
 10
0.0
 20
0.0
 30
0.0
  3
$PAPER_SPACE
  1

  0
ENDBLK
  5
3E2F7
 67
     1
  8
0
  0
BLOCK
  8
0
 62
     0
  2
WMF0
 70
     0
 10
0.0
 20
0.0
 30
0.0
  3
WMF0
  1

  0
POLYLINE
  5
3E283
  8
0
 62
     7
 66
     1
 10
0.0
 20
0.0
 30
0.0
  0
VERTEX
  5
3E302
  8
0
 62
     7
 10
0.0
 20
0.0
 30
0.0
  0
VERTEX
  5
3E303
  8
0
 62
     7
 10
2.679188
 20
0.0
 30
0.0
  0
VERTEX
  5
3E304
  8
0
 62
     7
 10
2.679188
 20
-1.235277
 30
0.0
  0
VERTEX
  5
3E305
  8
0
 62
     7
 10
0.0
 20
-1.235277
 30
0.0
  0
VERTEX
  5
3E306
  8
0
 62
     7
 10
0.0
 20
0.0
 30
0.0
  0
SEQEND
  5
3E307
  8
0
 62
     7
  0
POLYLINE
  5
3E28A
  8
0
 62
     7
 66
     1
 10
0.0
 20
0.0
 30
0.0
  0
VERTEX
  5
3E308
  8
0
 62
     7
 10
1.625589
 20
-0.195949
 30
0.0
  0
VERTEX
  5
3E309
  8
0
 62
     7
 10
1.70053
 20
-0.14596
 30
0.0
  0
VERTEX
  5
3E30A
  8
0
 62
     7
 10
1.700614
 20
-0.14596
 30
0.0
  0
SEQEND
  5
3E30B
  8
0
 62
     7
  0
POLYLINE
  5
3E28F
  8
0
 62
     7
 66
     1
 10
0.0
 20
0.0
 30
0.0
  0
VERTEX
  5
3E30C
  8
0
 62
     7
 10
1.70053
 20
-0.120924
 30
0.0
  0
VERTEX
  5
3E30D
  8
0
 62
     7
 10
1.625589
 20
-0.070935
 30
0.0
  0
VERTEX
  5
3E30E
  8
0
 62
     7
 10
1.625672
 20
-0.070935
 30
0.0
  0
SEQEND
  5
3E30F
  8
0
 62
     7
  0
ENDBLK
  5
3E294
  8
0
 62
     7
  0
ENDSEC
  0
SECTION
  2
ENTITIES
  0
POLYLINE
  5
3E1F5
  8
0
 66
     1
 10
0.0
 20
0.0
 30
0.0
 70
    16
 71
     6
 72
     3
  0
VERTEX
  5
3E1F6
  8
0
 10
-0.216
 20
-1.1275
 30
1.19
 70
    64
  0
VERTEX
  5
3E1F7
  8
0
 10
-0.216
 20
-1.1275
 30
0.395
 70
    64
  0
VERTEX
  5
3E1F8
  8
0
 10
-0.216
 20
-1.1275
 30
0.395
 70
    64
  0
VERTEX
  5
3E1F9
  8
0
 10
-0.216
 20
0.7725
 30
1.19
 70
    64
  0
VERTEX
  5
3E1FA
  8
0
 10
-0.216
 20
0.7725
 30
0.395
 70
    64
  0
VERTEX
  5
3E1FB
  8
0
 10
-0.216
 20
0.7725
 30
0.395
 70
    64
  0
VERTEX
  5
3E1FC
  8
0
 10
0.216
 20
0.7725
 30
1.19
 70
    64
  0
VERTEX
  5
3E1FD
  8
0
 10
0.216
 20
0.7725
 30
0.395
 70
    64
  0
VERTEX
  5
3E1FE
  8
0
 10
-0.216
 20
0.7725
 30
0.395
 70
    64
  0
VERTEX
  5
3E1FF
  8
0
 10
0.216
 20
-1.1275
 30
1.19
 70
    64
  0
VERTEX
  5
3E200
  8
0
 10
0.216
 20
-1.1275
 30
0.395
 70
    64
  0
VERTEX
  5
3E201
  8
0
 10
-0.216
 20
-1.1275
 30
0.395
 70
    64
  0
VERTEX
  5
3E202
  8
0
 10
0.216
 20
-1.1275
 30
1.19
 70
    64
  0
VERTEX
  5
3E203
  8
0
 10
0.216
 20
-1.1275
 30
1.19
 70
    64
  0
VERTEX
  5
3E204
  8
0
 10
-0.216
 20
-1.1275
 30
1.19
 70
    64
  0
VERTEX
  5
3E205
  8
0
 10
0.216
 20
0.7725
 30
1.19
 70
    64
  0
VERTEX
  5
3E206
  8
0
 10
0.216
 20
0.7725
 30
1.19
 70
    64
  0
VERTEX
  5
3E207
  8
0
 10
-0.216
 20
0.7725
 30
1.19
 70
    64
  0
SEQEND
  5
3E208
  8
0
  0
POLYLINE
  5
3E209
  8
0
 66
     1
 10
0.0
 20
0.0
 30
0.0
 70
    16
 71
     6
 72
     3
  0
VERTEX
  5
3E20A
  8
0
 10
1.215
 20
-1.215
 30
0.325
 70
    64
  0
VERTEX
  5
3E20B
  8
0
 10
1.215
 20
-1.215
 30
0.0
 70
    64
  0
VERTEX
  5
3E20C
  8
0
 10
1.215
 20
-1.215
 30
0.0
 70
    64
  0
VERTEX
  5
3E20D
  8
0
 10
-1.215
 20
-1.215
 30
0.325
 70
    64
  0
VERTEX
  5
3E20E
  8
0
 10
-1.215
 20
-1.215
 30
0.0
 70
    64
  0
VERTEX
  5
3E20F
  8
0
 10
-1.215
 20
-1.215
 30
0.0
 70
    64
  0
VERTEX
  5
3E210
  8
0
 10
-1.215
 20
1.215
 30
0.325
 70
    64
  0
VERTEX
  5
3E211
  8
0
 10
-1.215
 20
1.215
 30
0.0
 70
    64
  0
VERTEX
  5
3E212
  8
0
 10
-1.215
 20
-1.215
 30
0.0
 70
    64
  0
VERTEX
  5
3E213
  8
0
 10
1.215
 20
1.215
 30
0.325
 70
    64
  0
VERTEX
  5
3E214
  8
0
 10
1.215
 20
1.215
 30
0.0
 70
    64
  0
VERTEX
  5
3E215
  8
0
 10
1.215
 20
-1.215
 30
0.0
 70
    64
  0
VERTEX
  5
3E216
  8
0
 10
1.215
 20
1.215
 30
0.325
 70
    64
  0
VERTEX
  5
3E217
  8
0
 10
1.215
 20
1.215
 30
0.325
 70
    64
  0
VERTEX
  5
3E218
  8
0
 10
1.215
 20
-1.215
 30
0.325
 70
    64
  0
VERTEX
  5
3E219
  8
0
 10
-1.215
 20
1.215
 30
0.325
 70
    64
  0
VERTEX
  5
3E21A
  8
0
 10
-1.215
 20
1.215
 30
0.325
 70
    64
  0
VERTEX
  5
3E21B
  8
0
 10
-1.215
 20
-1.215
 30
0.325
 70
    64
  0
SEQEND
  5
3E21C
  8
0
  0
ARC
  5
3E21D
  8
0
 39
0.15
 10
0.0
 20
0.0
 30
0.395
 40
0.5575
 50
292.795547
 51
67.204453
  0
LINE
  5
3E21E
  8
0
 10
0.216
 20
-0.513955
 30
0.545
 11
0.216
 21
0.513955
 31
0.545
  0
ARC
  5
3E21F
  8
0
 39
0.15
 10
0.0
 20
0.0
 30
0.395
 40
0.5575
 50
112.795547
 51
247.204453
  0
LINE
  5
3E220
  8
0
 10
-0.216
 20
0.513955
 30
0.545
 11
-0.216
 21
-0.513955
 31
0.545
  0
CIRCLE
  5
3E221
  8
0
 10
0.0
 20
0.0
 30
0.545
 40
0.5575
  0
LINE
  5
3E222
  8
0
 10
0.03
 20
0.7725
 30
1.19
 11
0.03
 21
0.4505
 31
1.19
  0
LINE
  5
3E223
  8
0
 10
-0.03
 20
0.7725
 30
1.19
 11
-0.03
 21
0.4505
 31
1.19
  0
LINE
  5
3E224
  8
0
 10
0.03
 20
0.4505
 30
1.19
 11
-0.03
 21
0.4505
 31
1.19
  0
POINT
  5
3E225
  8
DIMS-MTG-HOLES
 10
0.0
 20
0.0
 30
0.0
  0
TEXT
  5
3E227
  8
0
 10
-0.017398
 20
0.928908
 30
0.325
 40
0.15
  1
Y
  0
TEXT
  5
3E255
  8
0
 10
-0.915197
 20
0.573063
 30
0.325
 40
0.15
  1
O
  0
LINE
  5
3E29A
  8
0
 62
     7
 10
0.843297
 20
0.572073
 30
0.325
 11
0.943274
 21
0.721955
 31
0.325
  0
LINE
  5
3E29B
  8
0
 62
     7
 10
0.943274
 20
0.721955
 30
0.325
 11
0.943274
 21
0.722122
 31
0.325
  0
LINE
  5
3E29C
  8
0
 62
     7
 10
0.943274
 20
0.722122
 30
0.325
 11
1.043251
 21
0.57224
 31
0.325
  0
LINE
  5
3E29E
  8
0
 10
0.843297
 20
0.572073
 30
0.325
 11
1.043251
 21
0.57224
 31
0.325
  0
ENDSEC
  0
EOF
