  0
SECTION
  2
HEADER
  9
$ACADVER
  1
AC1009
  9
$INSBASE
 10
0.0
 20
0.0
 30
0.0
  9
$EXTMIN
 10
-0.945395
 20
-1.190311
 30
-0.000038
  9
$EXTMAX
 10
0.945907
 20
0.945304
 30
1.230038
  9
$LIMMIN
 10
0.0
 20
0.0
  9
$LIMMAX
 10
12.0
 20
9.0
  9
$ORTHOMODE
 70
     0
  9
$REGENMODE
 70
     1
  9
$FILLMODE
 70
     1
  9
$QTEXTMODE
 70
     0
  9
$MIRRTEXT
 70
     1
  9
$DRAGMODE
 70
     2
  9
$LTSCALE
 40
1.0
  9
$OSMODE
 70
     1
  9
$ATTMODE
 70
     0
  9
$TEXTSIZE
 40
0.15
  9
$TRACEWID
 40
0.05
  9
$TEXTSTYLE
  7
STANDARD
  9
$CLAYER
  8
0
  9
$CELTYPE
  6
BYLAYER
  9
$CECOLOR
 62
   256
  9
$DIMSCALE
 40
1.0
  9
$DIMASZ
 40
0.18
  9
$DIMEXO
 40
0.0625
  9
$DIMDLI
 40
0.38
  9
$DIMRND
 40
0.0
  9
$DIMDLE
 40
0.0
  9
$DIMEXE
 40
0.18
  9
$DIMTP
 40
0.0
  9
$DIMTM
 40
0.0
  9
$DIMTXT
 40
0.18
  9
$DIMCEN
 40
0.09
  9
$DIMTSZ
 40
0.0
  9
$DIMTOL
 70
     0
  9
$DIMLIM
 70
     0
  9
$DIMTIH
 70
     1
  9
$DIMTOH
 70
     1
  9
$DIMSE1
 70
     0
  9
$DIMSE2
 70
     0
  9
$DIMTAD
 70
     0
  9
$DIMZIN
 70
     0
  9
$DIMBLK
  1

  9
$DIMASO
 70
     1
  9
$DIMSHO
 70
     1
  9
$DIMPOST
  1

  9
$DIMAPOST
  1

  9
$DIMALT
 70
     0
  9
$DIMALTD
 70
     2
  9
$DIMALTF
 40
25.4
  9
$DIMLFAC
 40
1.0
  9
$DIMTOFL
 70
     0
  9
$DIMTVP
 40
0.0
  9
$DIMTIX
 70
     0
  9
$DIMSOXD
 70
     0
  9
$DIMSAH
 70
     0
  9
$DIMBLK1
  1

  9
$DIMBLK2
  1

  9
$DIMSTYLE
  2
STANDARD
  9
$DIMCLRD
 70
     0
  9
$DIMCLRE
 70
     0
  9
$DIMCLRT
 70
     0
  9
$DIMTFAC
 40
1.0
  9
$DIMGAP
 40
0.09
  9
$LUNITS
 70
     2
  9
$LUPREC
 70
     4
  9
$SKETCHINC
 40
0.1
  9
$FILLETRAD
 40
0.0
  9
$AUNITS
 70
     0
  9
$AUPREC
 70
     0
  9
$MENU
  1
acad
  9
$ELEVATION
 40
0.0
  9
$PELEVATION
 40
0.0
  9
$THICKNESS
 40
0.0
  9
$LIMCHECK
 70
     0
  9
$BLIPMODE
 70
     0
  9
$CHAMFERA
 40
0.0
  9
$CHAMFERB
 40
0.0
  9
$SKPOLY
 70
     0
  9
$TDCREATE
 40
2450692.624106
  9
$TDUPDATE
 40
2451164.462125
  9
$TDINDWG
 40
0.000432
  9
$TDUSRTIMER
 40
0.000432
  9
$USRTIMER
 70
     1
  9
$ANGBASE
 50
0.0
  9
$ANGDIR
 70
     0
  9
$PDMODE
 70
    96
  9
$PDSIZE
 40
0.09
  9
$PLINEWID
 40
0.0
  9
$COORDS
 70
     1
  9
$SPLFRAME
 70
     1
  9
$SPLINETYPE
 70
     6
  9
$SPLINESEGS
 70
     8
  9
$ATTDIA
 70
     0
  9
$ATTREQ
 70
     1
  9
$HANDLING
 70
     1
  9
$HANDSEED
  5
3E336
  9
$SURFTAB1
 70
     6
  9
$SURFTAB2
 70
     6
  9
$SURFTYPE
 70
     6
  9
$SURFU
 70
     6
  9
$SURFV
 70
     6
  9
$UCSNAME
  2

  9
$UCSORG
 10
0.0
 20
0.0
 30
0.0
  9
$UCSXDIR
 10
1.0
 20
0.0
 30
0.0
  9
$UCSYDIR
 10
0.0
 20
1.0
 30
0.0
  9
$PUCSNAME
  2

  9
$PUCSORG
 10
0.0
 20
0.0
 30
0.0
  9
$PUCSXDIR
 10
1.0
 20
0.0
 30
0.0
  9
$PUCSYDIR
 10
0.0
 20
1.0
 30
0.0
  9
$USERI1
 70
     0
  9
$USERI2
 70
     0
  9
$USERI3
 70
     0
  9
$USERI4
 70
     0
  9
$USERI5
 70
     0
  9
$USERR1
 40
0.0
  9
$USERR2
 40
0.0
  9
$USERR3
 40
0.0
  9
$USERR4
 40
0.0
  9
$USERR5
 40
0.0
  9
$WORLDVIEW
 70
     1
  9
$SHADEDGE
 70
     3
  9
$SHADEDIF
 70
    70
  9
$TILEMODE
 70
     1
  9
$MAXACTVP
 70
    16
  9
$PLIMCHECK
 70
     0
  9
$PEXTMIN
 10
1.000000E+020
 20
1.000000E+020
 30
1.000000E+020
  9
$PEXTMAX
 10
-1.000000E+020
 20
-1.000000E+020
 30
-1.000000E+020
  9
$PLIMMIN
 10
0.0
 20
0.0
  9
$PLIMMAX
 10
12.0
 20
9.0
  9
$UNITMODE
 70
     0
  9
$VISRETAIN
 70
     0
  9
$PLINEGEN
 70
     0
  9
$PSLTSCALE
 70
     1
  0
ENDSEC
  0
SECTION
  2
TABLES
  0
TABLE
  2
VPORT
 70
     2
  0
VPORT
  2
*ACTIVE
 70
     0
 10
0.0
 20
0.0
 11
1.0
 21
1.0
 12
0.000256
 22
-0.122504
 13
0.0
 23
0.0
 14
0.25
 24
0.25
 15
0.25
 25
0.25
 16
0.0
 26
0.0
 36
1.0
 17
0.0
 27
0.0
 37
0.0
 40
2.270954
 41
1.603066
 42
50.0
 43
0.0
 44
0.0
 50
0.0
 51
0.0
 71
     0
 72
 20000
 73
     1
 74
     1
 75
     0
 76
     0
 77
     0
 78
     0
  0
ENDTAB
  0
TABLE
  2
LTYPE
 70
     1
  0
LTYPE
  2
CONTINUOUS
 70
     0
  3
Solid line
 72
    65
 73
     0
 40
0.0
  0
ENDTAB
  0
TABLE
  2
LAYER
 70
     2
  0
LAYER
  2
0
 70
     0
 62
     7
  6
CONTINUOUS
  0
LAYER
  2
DIMS-MTG-HOLES
 70
     0
 62
     1
  6
CONTINUOUS
  0
ENDTAB
  0
TABLE
  2
STYLE
 70
     1
  0
STYLE
  2
STANDARD
 70
     0
 40
0.0
 41
1.0
 50
0.0
 71
     0
 42
0.15
  3
txt
  4

  0
ENDTAB
  0
TABLE
  2
VIEW
 70
     0
  0
ENDTAB
  0
TABLE
  2
UCS
 70
     0
  0
ENDTAB
  0
TABLE
  2
APPID
 70
     1
  0
APPID
  2
ACAD
 70
     0
  0
ENDTAB
  0
TABLE
  2
DIMSTYLE
 70
     1
  0
DIMSTYLE
  2
STANDARD
 70
     0
  3

  4

  5

  6

  7

 40
1.0
 41
0.18
 42
0.0625
 43
0.38
 44
0.18
 45
0.0
 46
0.0
 47
0.0
 48
0.0
140
0.18
141
0.09
142
0.0
143
25.4
144
1.0
145
0.0
146
1.0
147
0.09
 71
     0
 72
     0
 73
     1
 74
     1
 75
     0
 76
     0
 77
     0
 78
     0
170
     0
171
     2
172
     0
173
     0
174
     0
175
     0
176
     0
177
     0
178
     0
  0
ENDTAB
  0
ENDSEC
  0
SECTION
  2
BLOCKS
  0
BLOCK
  8
0
  2
$MODEL_SPACE
 70
     0
 10
0.0
 20
0.0
 30
0.0
  3
$MODEL_SPACE
  1

  0
ENDBLK
  5
3E32C
  8
0
  0
BLOCK
 67
     1
  8
0
  2
$PAPER_SPACE
 70
     0
 10
0.0
 20
0.0
 30
0.0
  3
$PAPER_SPACE
  1

  0
ENDBLK
  5
3E32A
 67
     1
  8
0
  0
BLOCK
  8
0
  2
ABDSC480
 70
     0
 10
0.0
 20
0.0
 30
0.0
  3
ABDSC480
  1

  0
LINE
  5
3E199
  8
0
 10
0.195382
 20
-0.869905
 30
0.52
 11
0.195382
 21
-0.869905
 31
0.295
  0
LINE
  5
3E19A
  8
0
 10
0.195382
 20
-0.619905
 30
0.52
 11
0.195382
 21
-0.619905
 31
0.295
  0
ARC
  5
3E19B
  8
0
 10
0.744905
 20
0.52
 30
-0.195382
 40
0.125
210
-1.0
220
0.0
230
0.0
 50
0.0
 51
180.0
  0
LINE
  5
3E19C
  8
0
 10
-0.195
 20
-0.59997
 30
0.52
 11
-0.195
 21
-0.59997
 31
0.295
  0
ARC
  5
3E19D
  8
0
 10
0.72497
 20
0.52
 30
0.195
 40
0.125
210
-1.0
220
0.0
230
0.0
 50
0.0
 51
180.0
  0
LINE
  5
3E19E
  8
0
 10
-0.195
 20
-0.84997
 30
0.52
 11
-0.195
 21
-0.84997
 31
0.295
  0
CIRCLE
  5
3E19F
  8
0
 10
0.0
 20
0.0
 30
0.54
 40
0.48
  0
ARC
  5
3E1A0
  8
0
 39
0.245
 10
0.0
 20
0.0
 30
0.295
 40
0.48
 50
293.969482
 51
66.030518
  0
ARC
  5
3E1A1
  8
0
 39
0.245
 10
0.0
 20
0.0
 30
0.295
 40
0.48
 50
113.969482
 51
246.030518
  0
LINE
  5
3E1A2
  8
0
 10
0.195
 20
0.438606
 30
0.54
 11
0.195
 21
-0.438606
 31
0.54
  0
LINE
  5
3E1A3
  8
0
 10
-0.195
 20
0.438606
 30
0.54
 11
-0.195
 21
-0.438606
 31
0.54
  0
LINE
  5
3E1A4
  8
0
 10
0.04
 20
0.438606
 30
1.23
 11
0.04
 21
0.27
 31
1.23
  0
LINE
  5
3E1A5
  8
0
 10
-0.04
 20
0.27
 30
1.23
 11
-0.04
 21
0.438606
 31
1.23
  0
LINE
  5
3E1A6
  8
0
 10
0.04
 20
0.27
 30
1.23
 11
-0.04
 21
0.27
 31
1.23
  0
POLYLINE
  5
3E1A7
  8
0
 66
     1
 10
0.0
 20
0.0
 30
0.0
 70
    16
 71
     6
 72
     3
  0
VERTEX
  5
3E1A8
  8
0
 10
0.1
 20
-1.19
 30
1.135
 70
    64
  0
VERTEX
  5
3E1A9
  8
0
 10
0.1
 20
-1.19
 30
0.64
 70
    64
  0
VERTEX
  5
3E1AA
  8
0
 10
0.1
 20
-1.19
 30
0.64
 70
    64
  0
VERTEX
  5
3E1AB
  8
0
 10
-0.1
 20
-1.19
 30
1.135
 70
    64
  0
VERTEX
  5
3E1AC
  8
0
 10
-0.1
 20
-1.19
 30
0.64
 70
    64
  0
VERTEX
  5
3E1AD
  8
0
 10
-0.1
 20
-1.19
 30
0.64
 70
    64
  0
VERTEX
  5
3E1AE
  8
0
 10
-0.1
 20
-0.95
 30
1.135
 70
    64
  0
VERTEX
  5
3E1AF
  8
0
 10
-0.1
 20
-0.95
 30
0.64
 70
    64
  0
VERTEX
  5
3E1B0
  8
0
 10
-0.1
 20
-1.19
 30
0.64
 70
    64
  0
VERTEX
  5
3E1B1
  8
0
 10
0.1
 20
-0.95
 30
1.135
 70
    64
  0
VERTEX
  5
3E1B2
  8
0
 10
0.1
 20
-0.95
 30
0.64
 70
    64
  0
VERTEX
  5
3E1B3
  8
0
 10
0.1
 20
-1.19
 30
0.64
 70
    64
  0
VERTEX
  5
3E1B4
  8
0
 10
0.1
 20
-0.95
 30
1.135
 70
    64
  0
VERTEX
  5
3E1B5
  8
0
 10
0.1
 20
-0.95
 30
1.135
 70
    64
  0
VERTEX
  5
3E1B6
  8
0
 10
0.1
 20
-1.19
 30
1.135
 70
    64
  0
VERTEX
  5
3E1B7
  8
0
 10
-0.1
 20
-0.95
 30
1.135
 70
    64
  0
VERTEX
  5
3E1B8
  8
0
 10
-0.1
 20
-0.95
 30
1.135
 70
    64
  0
VERTEX
  5
3E1B9
  8
0
 10
-0.1
 20
-1.19
 30
1.135
 70
    64
  0
SEQEND
  5
3E1BA
  8
0
  0
POLYLINE
  5
3E1BB
  8
0
 66
     1
 10
0.0
 20
0.0
 30
0.0
 70
    16
 71
     6
 72
     3
  0
VERTEX
  5
3E1BC
  8
0
 10
0.195
 20
-0.95
 30
1.23
 70
    64
  0
VERTEX
  5
3E1BD
  8
0
 10
0.195
 20
-0.95
 30
0.295
 70
    64
  0
VERTEX
  5
3E1BE
  8
0
 10
0.195
 20
-0.95
 30
0.295
 70
    64
  0
VERTEX
  5
3E1BF
  8
0
 10
-0.195
 20
-0.95
 30
1.23
 70
    64
  0
VERTEX
  5
3E1C0
  8
0
 10
-0.195
 20
-0.95
 30
0.295
 70
    64
  0
VERTEX
  5
3E1C1
  8
0
 10
-0.195
 20
-0.95
 30
0.295
 70
    64
  0
VERTEX
  5
3E1C2
  8
0
 10
-0.195
 20
0.438606
 30
1.23
 70
    64
  0
VERTEX
  5
3E1C3
  8
0
 10
-0.195
 20
0.438606
 30
0.295
 70
    64
  0
VERTEX
  5
3E1C4
  8
0
 10
-0.195
 20
-0.95
 30
0.295
 70
    64
  0
VERTEX
  5
3E1C5
  8
0
 10
0.195
 20
0.438606
 30
1.23
 70
    64
  0
VERTEX
  5
3E1C6
  8
0
 10
0.195
 20
0.438606
 30
0.295
 70
    64
  0
VERTEX
  5
3E1C7
  8
0
 10
0.195
 20
-0.95
 30
0.295
 70
    64
  0
VERTEX
  5
3E1C8
  8
0
 10
0.195
 20
0.438606
 30
1.23
 70
    64
  0
VERTEX
  5
3E1C9
  8
0
 10
0.195
 20
0.438606
 30
1.23
 70
    64
  0
VERTEX
  5
3E1CA
  8
0
 10
0.195
 20
-0.95
 30
1.23
 70
    64
  0
VERTEX
  5
3E1CB
  8
0
 10
-0.195
 20
0.438606
 30
1.23
 70
    64
  0
VERTEX
  5
3E1CC
  8
0
 10
-0.195
 20
0.438606
 30
1.23
 70
    64
  0
VERTEX
  5
3E1CD
  8
0
 10
-0.195
 20
-0.95
 30
1.23
 70
    64
  0
SEQEND
  5
3E1CE
  8
0
  0
POLYLINE
  5
3E1CF
  8
0
 66
     1
 10
0.0
 20
0.0
 30
0.0
 70
    16
 71
     6
 72
     3
  0
VERTEX
  5
3E1D0
  8
0
 10
0.945
 20
-0.945
 30
0.295
 70
    64
  0
VERTEX
  5
3E1D1
  8
0
 10
0.945
 20
-0.945
 30
0.0
 70
    64
  0
VERTEX
  5
3E1D2
  8
0
 10
0.945
 20
-0.945
 30
0.0
 70
    64
  0
VERTEX
  5
3E1D3
  8
0
 10
-0.945
 20
-0.945
 30
0.295
 70
    64
  0
VERTEX
  5
3E1D4
  8
0
 10
-0.945
 20
-0.945
 30
0.0
 70
    64
  0
VERTEX
  5
3E1D5
  8
0
 10
-0.945
 20
-0.945
 30
0.0
 70
    64
  0
VERTEX
  5
3E1D6
  8
0
 10
-0.945
 20
0.945
 30
0.295
 70
    64
  0
VERTEX
  5
3E1D7
  8
0
 10
-0.945
 20
0.945
 30
0.0
 70
    64
  0
VERTEX
  5
3E1D8
  8
0
 10
-0.945
 20
-0.945
 30
0.0
 70
    64
  0
VERTEX
  5
3E1D9
  8
0
 10
0.945
 20
0.945
 30
0.295
 70
    64
  0
VERTEX
  5
3E1DA
  8
0
 10
0.945
 20
0.945
 30
0.0
 70
    64
  0
VERTEX
  5
3E1DB
  8
0
 10
0.945
 20
-0.945
 30
0.0
 70
    64
  0
VERTEX
  5
3E1DC
  8
0
 10
0.945
 20
0.945
 30
0.295
 70
    64
  0
VERTEX
  5
3E1DD
  8
0
 10
0.945
 20
0.945
 30
0.295
 70
    64
  0
VERTEX
  5
3E1DE
  8
0
 10
0.945
 20
-0.945
 30
0.295
 70
    64
  0
VERTEX
  5
3E1DF
  8
0
 10
-0.945
 20
0.945
 30
0.295
 70
    64
  0
VERTEX
  5
3E1E0
  8
0
 10
-0.945
 20
0.945
 30
0.295
 70
    64
  0
VERTEX
  5
3E1E1
  8
0
 10
-0.945
 20
-0.945
 30
0.295
 70
    64
  0
SEQEND
  5
3E1E2
  8
0
  0
LINE
  5
3E23E
  8
0
 10
0.945
 20
0.0
 30
0.0
 11
-0.945
 21
0.0
 31
0.0
  0
POINT
  5
3E23F
  8
DIMS-MTG-HOLES
 10
0.0
 20
0.0
 30
0.0
  0
ENDBLK
  5
3E241
  8
0
  0
BLOCK
  8
0
  2
ABDSB040
 70
     2
 10
0.0
 20
0.0
 30
0.0
  3
ABDSB040
  1

  0
LINE
  5
3E117
  8
0
 10
0.083
 20
-0.89
 30
1.045
 11
0.083
 21
-0.96
 31
1.045
  0
LINE
  5
3E118
  8
0
 10
0.0
 20
-0.96
 30
1.045
 11
0.0
 21
-0.89
 31
1.045
  0
LINE
  5
3E119
  8
0
 10
0.0
 20
-0.96
 30
0.875
 11
0.0
 21
-0.89
 31
0.875
  0
LINE
  5
3E11A
  8
0
 10
0.0
 20
-1.7275
 30
1.15
 11
0.0
 21
-0.1225
 31
1.15
  0
LINE
  5
3E11B
  8
0
 10
0.4
 20
-0.1225
 30
1.15
 11
0.4
 21
-1.7275
 31
1.15
  0
3DFACE
  5
3E11C
  8
0
 10
0.4
 20
-1.7275
 30
1.15
 11
0.0
 21
-1.7275
 31
1.15
 12
0.0
 22
-0.1225
 32
1.15
 13
0.4
 23
-0.1225
 33
1.15
 70
    14
  0
LINE
  5
3E11D
  8
0
 10
0.0
 20
-0.96
 30
0.407
 11
0.0
 21
-0.89
 31
0.407
  0
3DFACE
  5
3E11E
  8
0
 10
0.0
 20
-0.96
 30
0.407
 11
-0.136
 21
-0.96
 31
0.407
 12
-0.136
 22
-0.89
 32
0.407
 13
0.0
 23
-0.89
 33
0.407
 70
    14
  0
3DFACE
  5
3E11F
  8
0
 10
0.0
 20
-1.0825
 30
0.795
 11
0.0
 21
-1.0825
 31
0.37
 12
0.0
 22
-0.7675
 32
0.37
 13
0.0
 23
-0.7675
 33
0.795
 70
    14
  0
3DFACE
  5
3E120
  8
0
 10
0.0
 20
0.0
 30
0.44
 11
0.0
 21
-0.1225
 31
0.475
 12
0.0
 22
-1.7275
 32
0.475
 13
0.0
 23
-1.85
 33
0.44
 70
    14
  0
3DFACE
  5
3E121
  8
0
 10
0.4
 20
-1.7275
 30
0.475
 11
0.4
 21
-1.85
 31
0.44
 12
0.4
 22
0.0
 32
0.44
 13
0.4
 23
-0.1225
 33
0.475
 70
    14
  0
LINE
  5
3E122
  8
0
 10
0.083
 20
-0.96
 30
0.12
 11
0.083
 21
-0.89
 31
0.12
  0
LINE
  5
3E123
  8
0
 10
0.0
 20
-0.89
 30
0.29
 11
0.0
 21
-0.96
 31
0.29
  0
LINE
  5
3E124
  8
0
 10
0.0
 20
-0.89
 30
0.12
 11
0.0
 21
-0.96
 31
0.12
  0
ATTDEF
  5
3E125
  8
0
 10
-0.105229
 20
-0.99197
 30
0.0
 40
0.052291
  1

 41
0.8
 51
10.0
  3
Customer part number
  2
AC_CPART_NO
 70
     1
  0
LINE
  5
3E126
  8
0
 10
0.0
 20
0.0
 30
0.0
 11
0.0
 21
-1.85
 31
0.0
  0
LINE
  5
3E127
  8
0
 10
0.4
 20
-1.85
 30
0.0
 11
0.4
 21
0.0
 31
0.0
  0
3DFACE
  5
3E128
  8
0
 10
0.0
 20
0.0
 30
0.44
 11
0.0
 21
0.0
 31
0.0
 12
0.0
 22
-1.85
 32
0.0
 13
0.0
 23
-1.85
 33
0.44
 70
    14
  0
3DFACE
  5
3E129
  8
0
 10
0.4
 20
-1.85
 30
0.44
 11
0.4
 21
-1.85
 31
0.0
 12
0.4
 22
0.0
 32
0.0
 13
0.4
 23
0.0
 33
0.44
 70
    14
  0
LINE
  5
3E12A
  8
0
 39
0.117
 10
-0.136
 20
-0.96
 30
0.29
 11
-0.136
 21
-0.89
 31
0.29
  0
3DFACE
  5
3E12B
  8
0
 10
0.0
 20
-1.0825
 30
0.37
 11
0.0
 21
-0.96
 31
0.29
 12
0.0
 22
-0.89
 32
0.29
 13
0.0
 23
-0.7675
 33
0.37
 70
    14
  0
3DFACE
  5
3E12C
  8
0
 10
0.0
 20
-0.1225
 30
0.475
 11
0.0
 21
-0.1225
 31
1.15
 12
0.0
 22
-1.7275
 32
1.15
 13
0.0
 23
-1.7275
 33
0.475
 70
    14
  0
3DFACE
  5
3E12D
  8
0
 10
0.4
 20
-1.7275
 30
1.15
 11
0.4
 21
-1.7275
 31
0.475
 12
0.4
 22
-0.1225
 32
0.475
 13
0.4
 23
-0.1225
 33
1.15
 70
    14
  0
3DFACE
  5
3E12E
  8
0
 10
0.0
 20
-1.0825
 30
0.795
 11
0.0
 21
-0.96
 31
0.875
 12
0.0
 22
-0.89
 32
0.875
 13
0.0
 23
-0.7675
 33
0.795
 70
    14
  0
LINE
  5
3E12F
  8
0
 10
0.4
 20
-1.7275
 30
1.15
 11
0.4
 21
-1.7275
 31
0.475
  0
LINE
  5
3E130
  8
0
 10
0.0
 20
-1.0825
 30
0.965
 11
0.0
 21
-1.0825
 31
0.2
  0
LINE
  5
3E131
  8
0
 10
0.083
 20
-1.0825
 30
0.965
 11
0.083
 21
-1.0825
 31
0.2
  0
LINE
  5
3E132
  8
0
 10
0.0
 20
-1.7275
 30
0.475
 11
0.0
 21
-1.7275
 31
1.15
  0
3DFACE
  5
3E133
  8
0
 10
0.4
 20
-1.7275
 30
1.15
 11
0.4
 21
-1.7275
 31
0.475
 12
0.0
 22
-1.7275
 32
0.475
 13
0.0
 23
-1.7275
 33
1.15
 70
    14
  0
LINE
  5
3E134
  8
0
 10
0.4
 20
-1.85
 30
0.44
 11
0.4
 21
-1.85
 31
0.0
  0
LINE
  5
3E135
  8
0
 10
0.0
 20
-1.85
 30
0.44
 11
0.0
 21
-1.85
 31
0.0
  0
LINE
  5
3E136
  8
0
 39
0.44
 10
0.0
 20
-1.85
 30
0.0
 11
0.4
 21
-1.85
 31
0.0
  0
3DFACE
  5
3E137
  8
0
 10
0.4
 20
-1.85
 30
0.44
 11
0.4
 21
-1.85
 31
0.0
 12
0.0
 22
-1.85
 32
0.0
 13
0.0
 23
-1.85
 33
0.44
 70
    14
  0
LINE
  5
3E138
  8
0
 10
0.0
 20
-1.0825
 30
0.2
 11
0.083
 21
-1.0825
 31
0.2
  0
LINE
  5
3E139
  8
0
 10
0.083
 20
-0.96
 30
0.12
 11
0.0
 21
-0.96
 31
0.12
  0
ATTDEF
  5
3E13A
  8
0
 10
-0.105229
 20
-1.148756
 30
0.0
 40
0.052291
  1

 41
0.8
 51
10.0
  3
Fastener Data
  2
FASTENER
 70
     1
  0
ATTDEF
  5
3E13B
  8
0
 10
-0.105229
 20
-1.070363
 30
0.0
 40
0.052291
  1

 41
0.8
 51
10.0
  3
Customer note
  2
AC_NOTE
 70
     1
  0
ATTDEF
  5
3E13C
  8
0
 10
-0.105229
 20
-1.22715
 30
0.0
 40
0.052291
  1

 41
0.8
 51
10.0
  3
Unit of scale (meter, mm, or inch)
  2
AC_SCALE_UNT
 70
     1
  0
ATTDEF
  5
3E13D
  8
0
 10
-0.105229
 20
-1.305543
 30
0.0
 40
0.052291
  1

 41
0.8
 51
10.0
  3
View code (top, front, right, etc.)
  2
AC_VIEW_CODE
 70
     1
  0
LINE
  5
3E13E
  8
0
 10
0.0
 20
-1.85
 30
0.0
 11
0.4
 21
-1.85
 31
0.0
  0
LINE
  5
3E13F
  8
0
 10
0.0
 20
-0.96
 30
0.12
 11
0.0
 21
-1.0825
 31
0.2
  0
LINE
  5
3E140
  8
0
 10
0.083
 20
-1.0825
 30
0.2
 11
0.083
 21
-0.96
 31
0.12
  0
LINE
  5
3E141
  8
0
 10
0.0
 20
-1.85
 30
0.44
 11
0.4
 21
-1.85
 31
0.44
  0
LINE
  5
3E142
  8
0
 10
0.4
 20
-1.7275
 30
0.475
 11
0.0
 21
-1.7275
 31
0.475
  0
3DFACE
  5
3E143
  8
0
 10
0.4
 20
-1.7275
 30
0.475
 11
0.4
 21
-1.85
 31
0.44
 12
0.0
 22
-1.85
 32
0.44
 13
0.0
 23
-1.7275
 33
0.475
 70
    14
  0
LINE
  5
3E144
  8
0
 39
0.117
 10
0.0
 20
-0.96
 30
0.29
 11
-0.136
 21
-0.96
 31
0.29
  0
LINE
  5
3E145
  8
0
 10
0.0
 20
-0.96
 30
0.29
 11
0.0
 21
-1.0825
 31
0.37
  0
LINE
  5
3E146
  8
0
 10
0.0
 20
-1.7275
 30
0.475
 11
0.0
 21
-1.85
 31
0.44
  0
LINE
  5
3E147
  8
0
 10
0.4
 20
-1.7275
 30
0.475
 11
0.4
 21
-1.85
 31
0.44
  0
CIRCLE
  5
3E148
  8
0
 10
0.200462
 20
-1.7275
 30
0.437051
 40
0.09
  0
LINE
  5
3E149
  8
0
 10
0.0
 20
-1.0825
 30
0.795
 11
0.0
 21
-0.96
 31
0.875
  0
LINE
  5
3E14A
  8
0
 10
0.083
 20
-0.96
 30
1.045
 11
0.0
 21
-0.96
 31
1.045
  0
LINE
  5
3E14B
  8
0
 10
0.083
 20
-1.0825
 30
0.965
 11
0.0
 21
-1.0825
 31
0.965
  0
LINE
  5
3E14C
  8
0
 10
0.4
 20
-1.7275
 30
1.15
 11
0.0
 21
-1.7275
 31
1.15
  0
LINE
  5
3E14D
  8
0
 10
0.0
 20
-1.0825
 30
0.965
 11
0.0
 21
-0.96
 31
1.045
  0
LINE
  5
3E14E
  8
0
 10
0.083
 20
-0.96
 30
1.045
 11
0.083
 21
-1.0825
 31
0.965
  0
CIRCLE
  5
3E14F
  8
0
 10
0.2
 20
-1.5075
 30
1.15
 40
0.09
  0
LINE
  5
3E150
  8
0
 10
0.4
 20
-0.1225
 30
1.15
 11
0.4
 21
-0.1225
 31
0.475
  0
LINE
  5
3E151
  8
0
 10
0.0
 20
-0.1225
 30
0.475
 11
0.0
 21
-0.1225
 31
1.15
  0
3DFACE
  5
3E152
  8
0
 10
0.083
 20
-0.7675
 30
0.965
 11
0.0
 21
-0.7675
 31
0.965
 12
0.0
 22
-0.7675
 32
0.2
 13
0.083
 23
-0.7675
 33
0.2
 70
    14
  0
LINE
  5
3E153
  8
0
 10
0.0
 20
-0.7675
 30
0.2
 11
0.0
 21
-0.7675
 31
0.965
  0
LINE
  5
3E154
  8
0
 10
0.083
 20
-0.7675
 30
0.965
 11
0.083
 21
-0.7675
 31
0.2
  0
3DFACE
  5
3E155
  8
0
 10
0.4
 20
-0.1225
 30
1.15
 11
0.4
 21
-0.1225
 31
0.475
 12
0.0
 22
-0.1225
 32
0.475
 13
0.0
 23
-0.1225
 33
1.15
 70
    14
  0
LINE
  5
3E156
  8
0
 10
0.4
 20
0.0
 30
0.0
 11
0.4
 21
0.0
 31
0.44
  0
LINE
  5
3E157
  8
0
 10
0.0
 20
0.0
 30
0.0
 11
0.0
 21
0.0
 31
0.44
  0
LINE
  5
3E158
  8
0
 39
0.44
 10
0.4
 20
0.0
 30
0.0
 11
0.0
 21
0.0
 31
0.0
  0
LINE
  5
3E159
  8
0
 10
0.083
 20
-0.7675
 30
0.2
 11
0.0
 21
-0.7675
 31
0.2
  0
LINE
  5
3E15A
  8
0
 10
0.083
 20
-0.89
 30
0.12
 11
0.0
 21
-0.89
 31
0.12
  0
ATTDEF
  5
3E15B
  8
0
 10
-0.105229
 20
-0.913576
 30
0.0
 40
0.052291
  1

 41
0.8
 51
10.0
  3
Device ID
  2
DEVICE_ID
 70
     1
  0
ATTDEF
  5
3E15C
  8
0
 10
-0.105229
 20
-0.756789
 30
0.0
 40
0.052291
  1

 41
0.8
 51
10.0
  3
Manufacturer part number
  2
AC_PART_NO
 70
     1
  0
ATTDEF
  5
3E15D
  8
0
 10
-0.105229
 20
-0.835183
 30
0.0
 40
0.052291
  1

 41
0.8
 51
10.0
  3
Manufacturer part description
  2
AC_DESCRIPTN
 70
     1
  0
ATTDEF
  5
3E15E
  8
0
 10
-0.105229
 20
-0.678396
 30
0.0
 40
0.052291
  1

 41
0.8
 51
10.0
  3
Manufacturer name
  2
AC_VND_LABEL
 70
     1
  0
LINE
  5
3E15F
  8
0
 10
0.4
 20
0.0
 30
0.0
 11
0.0
 21
0.0
 31
0.0
  0
LINE
  5
3E160
  8
0
 10
0.0
 20
-0.7675
 30
0.2
 11
0.0
 21
-0.89
 31
0.12
  0
LINE
  5
3E161
  8
0
 10
0.083
 20
-0.89
 30
0.12
 11
0.083
 21
-0.7675
 31
0.2
  0
3DFACE
  5
3E162
  8
0
 10
0.4
 20
-0.1225
 30
0.475
 11
0.4
 21
0.0
 31
0.44
 12
0.0
 22
0.0
 32
0.44
 13
0.0
 23
-0.1225
 33
0.475
 70
    14
  0
LINE
  5
3E163
  8
0
 10
0.4
 20
0.0
 30
0.44
 11
0.0
 21
0.0
 31
0.44
  0
LINE
  5
3E164
  8
0
 10
0.4
 20
-0.1225
 30
0.475
 11
0.0
 21
-0.1225
 31
0.475
  0
LINE
  5
3E165
  8
0
 39
0.117
 10
0.0
 20
-0.89
 30
0.29
 11
-0.136
 21
-0.89
 31
0.29
  0
LINE
  5
3E166
  8
0
 10
0.0
 20
-0.7675
 30
0.37
 11
0.0
 21
-0.89
 31
0.29
  0
LINE
  5
3E167
  8
0
 10
0.0
 20
0.0
 30
0.44
 11
0.0
 21
-0.1225
 31
0.475
  0
LINE
  5
3E168
  8
0
 10
0.4
 20
0.0
 30
0.44
 11
0.4
 21
-0.1225
 31
0.475
  0
CIRCLE
  5
3E169
  8
0
 10
0.200462
 20
-0.1225
 30
0.437051
 40
0.09
  0
LINE
  5
3E16A
  8
0
 10
0.0
 20
-0.89
 30
0.875
 11
0.0
 21
-0.7675
 31
0.795
  0
LINE
  5
3E16B
  8
0
 10
0.0
 20
-0.1225
 30
1.15
 11
0.4
 21
-0.1225
 31
1.15
  0
LINE
  5
3E16C
  8
0
 10
0.083
 20
-0.89
 30
1.045
 11
0.0
 21
-0.89
 31
1.045
  0
LINE
  5
3E16D
  8
0
 10
0.0
 20
-0.7675
 30
0.965
 11
0.083
 21
-0.7675
 31
0.965
  0
LINE
  5
3E16E
  8
0
 10
0.0
 20
-0.89
 30
1.045
 11
0.0
 21
-0.7675
 31
0.965
  0
LINE
  5
3E16F
  8
0
 10
0.083
 20
-0.7675
 30
0.965
 11
0.083
 21
-0.89
 31
1.045
  0
CIRCLE
  5
3E170
  8
0
 10
0.2
 20
-0.3425
 30
1.15
 40
0.09
  0
ENDBLK
  5
3E171
  8
0
  0
ENDSEC
  0
SECTION
  2
ENTITIES
  0
LINE
  5
3E28F
  8
0
 10
0.195382
 20
-0.869905
 30
0.52
 11
0.195382
 21
-0.869905
 31
0.295
  0
LINE
  5
3E290
  8
0
 10
0.195382
 20
-0.619905
 30
0.52
 11
0.195382
 21
-0.619905
 31
0.295
  0
ARC
  5
3E291
  8
0
 10
0.744905
 20
0.52
 30
-0.195382
 40
0.125
210
-1.0
220
0.0
230
0.0
 50
0.0
 51
180.0
  0
LINE
  5
3E292
  8
0
 10
-0.195
 20
-0.59997
 30
0.52
 11
-0.195
 21
-0.59997
 31
0.295
  0
ARC
  5
3E293
  8
0
 10
0.72497
 20
0.52
 30
0.195
 40
0.125
210
-1.0
220
0.0
230
0.0
 50
0.0
 51
180.0
  0
LINE
  5
3E294
  8
0
 10
-0.195
 20
-0.84997
 30
0.52
 11
-0.195
 21
-0.84997
 31
0.295
  0
CIRCLE
  5
3E295
  8
0
 10
0.0
 20
0.0
 30
0.54
 40
0.48
  0
ARC
  5
3E296
  8
0
 39
0.245
 10
0.0
 20
0.0
 30
0.295
 40
0.48
 50
293.969482
 51
66.030518
  0
ARC
  5
3E297
  8
0
 39
0.245
 10
0.0
 20
0.0
 30
0.295
 40
0.48
 50
113.969482
 51
246.030518
  0
LINE
  5
3E298
  8
0
 10
0.195
 20
0.438606
 30
0.54
 11
0.195
 21
-0.438606
 31
0.54
  0
LINE
  5
3E299
  8
0
 10
-0.195
 20
0.438606
 30
0.54
 11
-0.195
 21
-0.438606
 31
0.54
  0
LINE
  5
3E29A
  8
0
 10
0.04
 20
0.438606
 30
1.23
 11
0.04
 21
0.27
 31
1.23
  0
LINE
  5
3E29B
  8
0
 10
-0.04
 20
0.27
 30
1.23
 11
-0.04
 21
0.438606
 31
1.23
  0
LINE
  5
3E29C
  8
0
 10
0.04
 20
0.27
 30
1.23
 11
-0.04
 21
0.27
 31
1.23
  0
POLYLINE
  5
3E29D
  8
0
 66
     1
 10
0.0
 20
0.0
 30
0.0
 70
    16
 71
     6
 72
     3
  0
VERTEX
  5
3E29E
  8
0
 10
0.1
 20
-1.19
 30
1.135
 70
    64
  0
VERTEX
  5
3E29F
  8
0
 10
0.1
 20
-1.19
 30
0.64
 70
    64
  0
VERTEX
  5
3E2A0
  8
0
 10
0.1
 20
-1.19
 30
0.64
 70
    64
  0
VERTEX
  5
3E2A1
  8
0
 10
-0.1
 20
-1.19
 30
1.135
 70
    64
  0
VERTEX
  5
3E2A2
  8
0
 10
-0.1
 20
-1.19
 30
0.64
 70
    64
  0
VERTEX
  5
3E2A3
  8
0
 10
-0.1
 20
-1.19
 30
0.64
 70
    64
  0
VERTEX
  5
3E2A4
  8
0
 10
-0.1
 20
-0.95
 30
1.135
 70
    64
  0
VERTEX
  5
3E2A5
  8
0
 10
-0.1
 20
-0.95
 30
0.64
 70
    64
  0
VERTEX
  5
3E2A6
  8
0
 10
-0.1
 20
-1.19
 30
0.64
 70
    64
  0
VERTEX
  5
3E2A7
  8
0
 10
0.1
 20
-0.95
 30
1.135
 70
    64
  0
VERTEX
  5
3E2A8
  8
0
 10
0.1
 20
-0.95
 30
0.64
 70
    64
  0
VERTEX
  5
3E2A9
  8
0
 10
0.1
 20
-1.19
 30
0.64
 70
    64
  0
VERTEX
  5
3E2AA
  8
0
 10
0.1
 20
-0.95
 30
1.135
 70
    64
  0
VERTEX
  5
3E2AB
  8
0
 10
0.1
 20
-0.95
 30
1.135
 70
    64
  0
VERTEX
  5
3E2AC
  8
0
 10
0.1
 20
-1.19
 30
1.135
 70
    64
  0
VERTEX
  5
3E2AD
  8
0
 10
-0.1
 20
-0.95
 30
1.135
 70
    64
  0
VERTEX
  5
3E2AE
  8
0
 10
-0.1
 20
-0.95
 30
1.135
 70
    64
  0
VERTEX
  5
3E2AF
  8
0
 10
-0.1
 20
-1.19
 30
1.135
 70
    64
  0
SEQEND
  5
3E2B0
  8
0
  0
POLYLINE
  5
3E2B1
  8
0
 66
     1
 10
0.0
 20
0.0
 30
0.0
 70
    16
 71
     6
 72
     3
  0
VERTEX
  5
3E2B2
  8
0
 10
0.195
 20
-0.95
 30
1.23
 70
    64
  0
VERTEX
  5
3E2B3
  8
0
 10
0.195
 20
-0.95
 30
0.295
 70
    64
  0
VERTEX
  5
3E2B4
  8
0
 10
0.195
 20
-0.95
 30
0.295
 70
    64
  0
VERTEX
  5
3E2B5
  8
0
 10
-0.195
 20
-0.95
 30
1.23
 70
    64
  0
VERTEX
  5
3E2B6
  8
0
 10
-0.195
 20
-0.95
 30
0.295
 70
    64
  0
VERTEX
  5
3E2B7
  8
0
 10
-0.195
 20
-0.95
 30
0.295
 70
    64
  0
VERTEX
  5
3E2B8
  8
0
 10
-0.195
 20
0.438606
 30
1.23
 70
    64
  0
VERTEX
  5
3E2B9
  8
0
 10
-0.195
 20
0.438606
 30
0.295
 70
    64
  0
VERTEX
  5
3E2BA
  8
0
 10
-0.195
 20
-0.95
 30
0.295
 70
    64
  0
VERTEX
  5
3E2BB
  8
0
 10
0.195
 20
0.438606
 30
1.23
 70
    64
  0
VERTEX
  5
3E2BC
  8
0
 10
0.195
 20
0.438606
 30
0.295
 70
    64
  0
VERTEX
  5
3E2BD
  8
0
 10
0.195
 20
-0.95
 30
0.295
 70
    64
  0
VERTEX
  5
3E2BE
  8
0
 10
0.195
 20
0.438606
 30
1.23
 70
    64
  0
VERTEX
  5
3E2BF
  8
0
 10
0.195
 20
0.438606
 30
1.23
 70
    64
  0
VERTEX
  5
3E2C0
  8
0
 10
0.195
 20
-0.95
 30
1.23
 70
    64
  0
VERTEX
  5
3E2C1
  8
0
 10
-0.195
 20
0.438606
 30
1.23
 70
    64
  0
VERTEX
  5
3E2C2
  8
0
 10
-0.195
 20
0.438606
 30
1.23
 70
    64
  0
VERTEX
  5
3E2C3
  8
0
 10
-0.195
 20
-0.95
 30
1.23
 70
    64
  0
SEQEND
  5
3E2C4
  8
0
  0
POLYLINE
  5
3E2C5
  8
0
 66
     1
 10
0.0
 20
0.0
 30
0.0
 70
    16
 71
     6
 72
     3
  0
VERTEX
  5
3E2C6
  8
0
 10
0.945
 20
-0.945
 30
0.295
 70
    64
  0
VERTEX
  5
3E2C7
  8
0
 10
0.945
 20
-0.945
 30
0.0
 70
    64
  0
VERTEX
  5
3E2C8
  8
0
 10
0.945
 20
-0.945
 30
0.0
 70
    64
  0
VERTEX
  5
3E2C9
  8
0
 10
-0.945
 20
-0.945
 30
0.295
 70
    64
  0
VERTEX
  5
3E2CA
  8
0
 10
-0.945
 20
-0.945
 30
0.0
 70
    64
  0
VERTEX
  5
3E2CB
  8
0
 10
-0.945
 20
-0.945
 30
0.0
 70
    64
  0
VERTEX
  5
3E2CC
  8
0
 10
-0.945
 20
0.945
 30
0.295
 70
    64
  0
VERTEX
  5
3E2CD
  8
0
 10
-0.945
 20
0.945
 30
0.0
 70
    64
  0
VERTEX
  5
3E2CE
  8
0
 10
-0.945
 20
-0.945
 30
0.0
 70
    64
  0
VERTEX
  5
3E2CF
  8
0
 10
0.945
 20
0.945
 30
0.295
 70
    64
  0
VERTEX
  5
3E2D0
  8
0
 10
0.945
 20
0.945
 30
0.0
 70
    64
  0
VERTEX
  5
3E2D1
  8
0
 10
0.945
 20
-0.945
 30
0.0
 70
    64
  0
VERTEX
  5
3E2D2
  8
0
 10
0.945
 20
0.945
 30
0.295
 70
    64
  0
VERTEX
  5
3E2D3
  8
0
 10
0.945
 20
0.945
 30
0.295
 70
    64
  0
VERTEX
  5
3E2D4
  8
0
 10
0.945
 20
-0.945
 30
0.295
 70
    64
  0
VERTEX
  5
3E2D5
  8
0
 10
-0.945
 20
0.945
 30
0.295
 70
    64
  0
VERTEX
  5
3E2D6
  8
0
 10
-0.945
 20
0.945
 30
0.295
 70
    64
  0
VERTEX
  5
3E2D7
  8
0
 10
-0.945
 20
-0.945
 30
0.295
 70
    64
  0
SEQEND
  5
3E2D8
  8
0
  0
LINE
  5
3E2D9
  8
0
 10
0.945
 20
0.0
 30
0.0
 11
-0.945
 21
0.0
 31
0.0
  0
POINT
  5
3E2DA
  8
DIMS-MTG-HOLES
 10
0.0
 20
0.0
 30
0.0
  0
TEXT
  5
3E2DB
  8
0
 10
-0.902278
 20
-0.118091
 30
0.295
 40
0.15
  1
OFF
  0
TEXT
  5
3E2DC
  8
0
 10
-0.126483
 20
0.563775
 30
0.295
 40
0.15
  1
ON
  0
ENDSEC
  0
EOF
