  0
SECTION
  2
HEADER
  9
$ACADVER
  1
AC1009
  9
$INSBASE
 10
0.0
 20
0.0
 30
0.0
  9
$EXTMIN
 10
-1.237904
 20
-1.237812
 30
-0.000034
  9
$EXTMAX
 10
1.27281
 20
1.827845
 30
1.120034
  9
$LIMMIN
 10
0.0
 20
0.0
  9
$LIMMAX
 10
12.0
 20
9.0
  9
$ORTHOMODE
 70
     0
  9
$REGENMODE
 70
     1
  9
$FILLMODE
 70
     1
  9
$QTEXTMODE
 70
     0
  9
$MIRRTEXT
 70
     1
  9
$DRAGMODE
 70
     2
  9
$LTSCALE
 40
1.0
  9
$OSMODE
 70
     0
  9
$ATTMODE
 70
     0
  9
$TEXTSIZE
 40
0.15
  9
$TRACEWID
 40
0.05
  9
$TEXTSTYLE
  7
STANDARD
  9
$CLAYER
  8
0
  9
$CELTYPE
  6
BYLAYER
  9
$CECOLOR
 62
   256
  9
$DIMSCALE
 40
1.0
  9
$DIMASZ
 40
0.18
  9
$DIMEXO
 40
0.0625
  9
$DIMDLI
 40
0.38
  9
$DIMRND
 40
0.0
  9
$DIMDLE
 40
0.0
  9
$DIMEXE
 40
0.18
  9
$DIMTP
 40
0.0
  9
$DIMTM
 40
0.0
  9
$DIMTXT
 40
0.18
  9
$DIMCEN
 40
0.09
  9
$DIMTSZ
 40
0.0
  9
$DIMTOL
 70
     0
  9
$DIMLIM
 70
     0
  9
$DIMTIH
 70
     1
  9
$DIMTOH
 70
     1
  9
$DIMSE1
 70
     0
  9
$DIMSE2
 70
     0
  9
$DIMTAD
 70
     0
  9
$DIMZIN
 70
     0
  9
$DIMBLK
  1

  9
$DIMASO
 70
     1
  9
$DIMSHO
 70
     1
  9
$DIMPOST
  1

  9
$DIMAPOST
  1

  9
$DIMALT
 70
     0
  9
$DIMALTD
 70
     2
  9
$DIMALTF
 40
25.4
  9
$DIMLFAC
 40
1.0
  9
$DIMTOFL
 70
     0
  9
$DIMTVP
 40
0.0
  9
$DIMTIX
 70
     0
  9
$DIMSOXD
 70
     0
  9
$DIMSAH
 70
     0
  9
$DIMBLK1
  1

  9
$DIMBLK2
  1

  9
$DIMSTYLE
  2
STANDARD
  9
$DIMCLRD
 70
     0
  9
$DIMCLRE
 70
     0
  9
$DIMCLRT
 70
     0
  9
$DIMTFAC
 40
1.0
  9
$DIMGAP
 40
0.09
  9
$LUNITS
 70
     2
  9
$LUPREC
 70
     4
  9
$SKETCHINC
 40
0.1
  9
$FILLETRAD
 40
0.0
  9
$AUNITS
 70
     0
  9
$AUPREC
 70
     0
  9
$MENU
  1
acad
  9
$ELEVATION
 40
0.0
  9
$PELEVATION
 40
0.0
  9
$THICKNESS
 40
0.0
  9
$LIMCHECK
 70
     0
  9
$BLIPMODE
 70
     0
  9
$CHAMFERA
 40
0.0
  9
$CHAMFERB
 40
0.0
  9
$SKPOLY
 70
     0
  9
$TDCREATE
 40
2450692.750253
  9
$TDUPDATE
 40
2451164.459641
  9
$TDINDWG
 40
0.000135
  9
$TDUSRTIMER
 40
0.000135
  9
$USRTIMER
 70
     1
  9
$ANGBASE
 50
0.0
  9
$ANGDIR
 70
     0
  9
$PDMODE
 70
    96
  9
$PDSIZE
 40
0.09
  9
$PLINEWID
 40
0.0
  9
$COORDS
 70
     1
  9
$SPLFRAME
 70
     1
  9
$SPLINETYPE
 70
     6
  9
$SPLINESEGS
 70
     8
  9
$ATTDIA
 70
     0
  9
$ATTREQ
 70
     1
  9
$HANDLING
 70
     1
  9
$HANDSEED
  5
3E1DD
  9
$SURFTAB1
 70
     6
  9
$SURFTAB2
 70
     6
  9
$SURFTYPE
 70
     6
  9
$SURFU
 70
     6
  9
$SURFV
 70
     6
  9
$UCSNAME
  2

  9
$UCSORG
 10
0.0
 20
0.0
 30
0.0
  9
$UCSXDIR
 10
1.0
 20
0.0
 30
0.0
  9
$UCSYDIR
 10
0.0
 20
1.0
 30
0.0
  9
$PUCSNAME
  2

  9
$PUCSORG
 10
0.0
 20
0.0
 30
0.0
  9
$PUCSXDIR
 10
1.0
 20
0.0
 30
0.0
  9
$PUCSYDIR
 10
0.0
 20
1.0
 30
0.0
  9
$USERI1
 70
     0
  9
$USERI2
 70
     0
  9
$USERI3
 70
     0
  9
$USERI4
 70
     0
  9
$USERI5
 70
     0
  9
$USERR1
 40
0.0
  9
$USERR2
 40
0.0
  9
$USERR3
 40
0.0
  9
$USERR4
 40
0.0
  9
$USERR5
 40
0.0
  9
$WORLDVIEW
 70
     1
  9
$SHADEDGE
 70
     3
  9
$SHADEDIF
 70
    70
  9
$TILEMODE
 70
     1
  9
$MAXACTVP
 70
    16
  9
$PLIMCHECK
 70
     0
  9
$PEXTMIN
 10
1.000000E+020
 20
1.000000E+020
 30
1.000000E+020
  9
$PEXTMAX
 10
-1.000000E+020
 20
-1.000000E+020
 30
-1.000000E+020
  9
$PLIMMIN
 10
0.0
 20
0.0
  9
$PLIMMAX
 10
12.0
 20
9.0
  9
$UNITMODE
 70
     0
  9
$VISRETAIN
 70
     0
  9
$PLINEGEN
 70
     0
  9
$PSLTSCALE
 70
     1
  0
ENDSEC
  0
SECTION
  2
TABLES
  0
TABLE
  2
VPORT
 70
     2
  0
VPORT
  2
*ACTIVE
 70
     0
 10
0.0
 20
0.0
 11
1.0
 21
1.0
 12
0.017453
 22
0.295016
 13
0.0
 23
0.0
 14
0.25
 24
0.25
 15
0.25
 25
0.25
 16
0.0
 26
0.0
 36
1.0
 17
0.0
 27
0.0
 37
0.0
 40
3.259937
 41
1.603066
 42
50.0
 43
0.0
 44
0.0
 50
0.0
 51
0.0
 71
     0
 72
 20000
 73
     1
 74
     1
 75
     0
 76
     0
 77
     0
 78
     0
  0
ENDTAB
  0
TABLE
  2
LTYPE
 70
     1
  0
LTYPE
  2
CONTINUOUS
 70
     0
  3
Solid line
 72
    65
 73
     0
 40
0.0
  0
ENDTAB
  0
TABLE
  2
LAYER
 70
     2
  0
LAYER
  2
0
 70
     0
 62
     7
  6
CONTINUOUS
  0
LAYER
  2
DIMS-MTG-HOLES
 70
     0
 62
     1
  6
CONTINUOUS
  0
ENDTAB
  0
TABLE
  2
STYLE
 70
     1
  0
STYLE
  2
STANDARD
 70
     0
 40
0.0
 41
1.0
 50
0.0
 71
     0
 42
0.15
  3
txt
  4

  0
ENDTAB
  0
TABLE
  2
VIEW
 70
     0
  0
ENDTAB
  0
TABLE
  2
UCS
 70
     0
  0
ENDTAB
  0
TABLE
  2
APPID
 70
     1
  0
APPID
  2
ACAD
 70
     0
  0
ENDTAB
  0
TABLE
  2
DIMSTYLE
 70
     1
  0
DIMSTYLE
  2
STANDARD
 70
     0
  3

  4

  5

  6

  7

 40
1.0
 41
0.18
 42
0.0625
 43
0.38
 44
0.18
 45
0.0
 46
0.0
 47
0.0
 48
0.0
140
0.18
141
0.09
142
0.0
143
25.4
144
1.0
145
0.0
146
1.0
147
0.09
 71
     0
 72
     0
 73
     1
 74
     1
 75
     0
 76
     0
 77
     0
 78
     0
170
     0
171
     2
172
     0
173
     0
174
     0
175
     0
176
     0
177
     0
178
     0
  0
ENDTAB
  0
ENDSEC
  0
SECTION
  2
BLOCKS
  0
BLOCK
  8
0
  2
$MODEL_SPACE
 70
     0
 10
0.0
 20
0.0
 30
0.0
  3
$MODEL_SPACE
  1

  0
ENDBLK
  5
3E1D3
  8
0
  0
BLOCK
 67
     1
  8
0
  2
$PAPER_SPACE
 70
     0
 10
0.0
 20
0.0
 30
0.0
  3
$PAPER_SPACE
  1

  0
ENDBLK
  5
3E1D1
 67
     1
  8
0
  0
BLOCK
  8
0
  2
ABDSC520
 70
     0
 10
0.0
 20
0.0
 30
0.0
  3
ABDSC520
  1

  0
CIRCLE
  5
3E111
  8
0
 10
0.0
 20
0.0
 30
0.482
 40
0.5575
  0
ARC
  5
3E112
  8
0
 39
0.142
 10
0.0
 20
0.0
 30
0.34
 40
0.5575
 50
113.522123
 51
246.477877
  0
ARC
  5
3E113
  8
0
 39
0.142
 10
0.0
 20
0.0
 30
0.34
 40
0.5575
 50
293.522123
 51
66.477877
  0
LINE
  5
3E114
  8
0
 10
-0.2225
 20
-0.511175
 30
0.482
 11
-0.2225
 21
0.511175
 31
0.482
  0
LINE
  5
3E115
  8
0
 10
0.2225
 20
0.511175
 30
0.482
 11
0.2225
 21
-0.511175
 31
0.482
  0
POLYLINE
  5
3E116
  8
0
 66
     1
 10
0.0
 20
0.0
 30
0.0
 70
    16
 71
     6
 72
     3
  0
VERTEX
  5
3E117
  8
0
 10
1.2725
 20
-1.2375
 30
0.34
 70
    64
  0
VERTEX
  5
3E118
  8
0
 10
1.2725
 20
-1.2375
 30
0.0
 70
    64
  0
VERTEX
  5
3E119
  8
0
 10
1.2725
 20
-1.2375
 30
0.0
 70
    64
  0
VERTEX
  5
3E11A
  8
0
 10
-1.2375
 20
-1.2375
 30
0.34
 70
    64
  0
VERTEX
  5
3E11B
  8
0
 10
-1.2375
 20
-1.2375
 30
0.0
 70
    64
  0
VERTEX
  5
3E11C
  8
0
 10
-1.2375
 20
-1.2375
 30
0.0
 70
    64
  0
VERTEX
  5
3E11D
  8
0
 10
-1.2375
 20
1.8275
 30
0.34
 70
    64
  0
VERTEX
  5
3E11E
  8
0
 10
-1.2375
 20
1.8275
 30
0.0
 70
    64
  0
VERTEX
  5
3E11F
  8
0
 10
-1.2375
 20
-1.2375
 30
0.0
 70
    64
  0
VERTEX
  5
3E120
  8
0
 10
1.2725
 20
1.8275
 30
0.34
 70
    64
  0
VERTEX
  5
3E121
  8
0
 10
1.2725
 20
1.8275
 30
0.0
 70
    64
  0
VERTEX
  5
3E122
  8
0
 10
1.2725
 20
-1.2375
 30
0.0
 70
    64
  0
VERTEX
  5
3E123
  8
0
 10
1.2725
 20
1.8275
 30
0.34
 70
    64
  0
VERTEX
  5
3E124
  8
0
 10
1.2725
 20
1.8275
 30
0.34
 70
    64
  0
VERTEX
  5
3E125
  8
0
 10
1.2725
 20
-1.2375
 30
0.34
 70
    64
  0
VERTEX
  5
3E126
  8
0
 10
-1.2375
 20
1.8275
 30
0.34
 70
    64
  0
VERTEX
  5
3E127
  8
0
 10
-1.2375
 20
1.8275
 30
0.34
 70
    64
  0
VERTEX
  5
3E128
  8
0
 10
-1.2375
 20
-1.2375
 30
0.34
 70
    64
  0
SEQEND
  5
3E129
  8
0
  0
POLYLINE
  5
3E12A
  8
0
 66
     1
 10
0.0
 20
0.0
 30
0.0
 70
    16
 71
     6
 72
     3
  0
VERTEX
  5
3E12B
  8
0
 10
0.2225
 20
-1.1525
 30
1.12
 70
    64
  0
VERTEX
  5
3E12C
  8
0
 10
0.2225
 20
-1.1525
 30
0.34
 70
    64
  0
VERTEX
  5
3E12D
  8
0
 10
0.2225
 20
-1.1525
 30
0.34
 70
    64
  0
VERTEX
  5
3E12E
  8
0
 10
-0.2225
 20
-1.1525
 30
1.12
 70
    64
  0
VERTEX
  5
3E12F
  8
0
 10
-0.2225
 20
-1.1525
 30
0.34
 70
    64
  0
VERTEX
  5
3E130
  8
0
 10
-0.2225
 20
-1.1525
 30
0.34
 70
    64
  0
VERTEX
  5
3E131
  8
0
 10
-0.2225
 20
0.7575
 30
1.12
 70
    64
  0
VERTEX
  5
3E132
  8
0
 10
-0.2225
 20
0.7575
 30
0.34
 70
    64
  0
VERTEX
  5
3E133
  8
0
 10
-0.2225
 20
-1.1525
 30
0.34
 70
    64
  0
VERTEX
  5
3E134
  8
0
 10
0.2225
 20
0.7575
 30
1.12
 70
    64
  0
VERTEX
  5
3E135
  8
0
 10
0.2225
 20
0.7575
 30
0.34
 70
    64
  0
VERTEX
  5
3E136
  8
0
 10
0.2225
 20
-1.1525
 30
0.34
 70
    64
  0
VERTEX
  5
3E137
  8
0
 10
0.2225
 20
0.7575
 30
1.12
 70
    64
  0
VERTEX
  5
3E138
  8
0
 10
0.2225
 20
0.7575
 30
1.12
 70
    64
  0
VERTEX
  5
3E139
  8
0
 10
0.2225
 20
-1.1525
 30
1.12
 70
    64
  0
VERTEX
  5
3E13A
  8
0
 10
-0.2225
 20
0.7575
 30
1.12
 70
    64
  0
VERTEX
  5
3E13B
  8
0
 10
-0.2225
 20
0.7575
 30
1.12
 70
    64
  0
VERTEX
  5
3E13C
  8
0
 10
-0.2225
 20
-1.1525
 30
1.12
 70
    64
  0
SEQEND
  5
3E13D
  8
0
  0
LINE
  5
3E13E
  8
0
 10
1.2275
 20
-1.1925
 30
0.34
 11
1.2275
 21
1.2675
 31
0.34
  0
LINE
  5
3E13F
  8
0
 10
1.2275
 20
1.2675
 30
0.34
 11
-1.1925
 21
1.2675
 31
0.34
  0
LINE
  5
3E140
  8
0
 10
-1.1925
 20
1.2675
 30
0.34
 11
-1.1925
 21
-1.1925
 31
0.34
  0
LINE
  5
3E141
  8
0
 10
-1.1925
 20
-1.1925
 30
0.34
 11
1.2275
 21
-1.1925
 31
0.34
  0
LINE
  5
3E142
  8
0
 10
1.2275
 20
1.3125
 30
0.34
 11
1.2275
 21
1.7825
 31
0.34
  0
LINE
  5
3E143
  8
0
 10
1.2275
 20
1.7825
 30
0.34
 11
-1.1925
 21
1.7825
 31
0.34
  0
LINE
  5
3E144
  8
0
 10
-1.1925
 20
1.7825
 30
0.34
 11
-1.1925
 21
1.3125
 31
0.34
  0
LINE
  5
3E145
  8
0
 10
-1.1925
 20
1.3125
 30
0.34
 11
1.2275
 21
1.3125
 31
0.34
  0
LINE
  5
3E146
  8
0
 10
-0.0625
 20
0.7575
 30
1.12
 11
-0.0625
 21
0.5575
 31
1.12
  0
LINE
  5
3E147
  8
0
 10
-0.0625
 20
0.5575
 30
1.12
 11
0.0625
 21
0.5575
 31
1.12
  0
LINE
  5
3E148
  8
0
 10
0.0625
 20
0.5575
 30
1.12
 11
0.0625
 21
0.7575
 31
1.12
  0
POINT
  5
3E14C
  8
DIMS-MTG-HOLES
 10
0.0
 20
0.0
 30
0.0
  0
ENDBLK
  5
3E14E
  8
0
  0
ENDSEC
  0
SECTION
  2
ENTITIES
  0
CIRCLE
  5
3E175
  8
0
 10
0.0
 20
0.0
 30
0.482
 40
0.5575
  0
ARC
  5
3E176
  8
0
 39
0.142
 10
0.0
 20
0.0
 30
0.34
 40
0.5575
 50
113.522123
 51
246.477877
  0
ARC
  5
3E177
  8
0
 39
0.142
 10
0.0
 20
0.0
 30
0.34
 40
0.5575
 50
293.522123
 51
66.477877
  0
LINE
  5
3E178
  8
0
 10
-0.2225
 20
-0.511175
 30
0.482
 11
-0.2225
 21
0.511175
 31
0.482
  0
LINE
  5
3E179
  8
0
 10
0.2225
 20
0.511175
 30
0.482
 11
0.2225
 21
-0.511175
 31
0.482
  0
POLYLINE
  5
3E17A
  8
0
 66
     1
 10
0.0
 20
0.0
 30
0.0
 70
    16
 71
     6
 72
     3
  0
VERTEX
  5
3E17B
  8
0
 10
1.2725
 20
-1.2375
 30
0.34
 70
    64
  0
VERTEX
  5
3E17C
  8
0
 10
1.2725
 20
-1.2375
 30
0.0
 70
    64
  0
VERTEX
  5
3E17D
  8
0
 10
1.2725
 20
-1.2375
 30
0.0
 70
    64
  0
VERTEX
  5
3E17E
  8
0
 10
-1.2375
 20
-1.2375
 30
0.34
 70
    64
  0
VERTEX
  5
3E17F
  8
0
 10
-1.2375
 20
-1.2375
 30
0.0
 70
    64
  0
VERTEX
  5
3E180
  8
0
 10
-1.2375
 20
-1.2375
 30
0.0
 70
    64
  0
VERTEX
  5
3E181
  8
0
 10
-1.2375
 20
1.8275
 30
0.34
 70
    64
  0
VERTEX
  5
3E182
  8
0
 10
-1.2375
 20
1.8275
 30
0.0
 70
    64
  0
VERTEX
  5
3E183
  8
0
 10
-1.2375
 20
-1.2375
 30
0.0
 70
    64
  0
VERTEX
  5
3E184
  8
0
 10
1.2725
 20
1.8275
 30
0.34
 70
    64
  0
VERTEX
  5
3E185
  8
0
 10
1.2725
 20
1.8275
 30
0.0
 70
    64
  0
VERTEX
  5
3E186
  8
0
 10
1.2725
 20
-1.2375
 30
0.0
 70
    64
  0
VERTEX
  5
3E187
  8
0
 10
1.2725
 20
1.8275
 30
0.34
 70
    64
  0
VERTEX
  5
3E188
  8
0
 10
1.2725
 20
1.8275
 30
0.34
 70
    64
  0
VERTEX
  5
3E189
  8
0
 10
1.2725
 20
-1.2375
 30
0.34
 70
    64
  0
VERTEX
  5
3E18A
  8
0
 10
-1.2375
 20
1.8275
 30
0.34
 70
    64
  0
VERTEX
  5
3E18B
  8
0
 10
-1.2375
 20
1.8275
 30
0.34
 70
    64
  0
VERTEX
  5
3E18C
  8
0
 10
-1.2375
 20
-1.2375
 30
0.34
 70
    64
  0
SEQEND
  5
3E18D
  8
0
  0
POLYLINE
  5
3E18E
  8
0
 66
     1
 10
0.0
 20
0.0
 30
0.0
 70
    16
 71
     6
 72
     3
  0
VERTEX
  5
3E18F
  8
0
 10
0.2225
 20
-1.1525
 30
1.12
 70
    64
  0
VERTEX
  5
3E190
  8
0
 10
0.2225
 20
-1.1525
 30
0.34
 70
    64
  0
VERTEX
  5
3E191
  8
0
 10
0.2225
 20
-1.1525
 30
0.34
 70
    64
  0
VERTEX
  5
3E192
  8
0
 10
-0.2225
 20
-1.1525
 30
1.12
 70
    64
  0
VERTEX
  5
3E193
  8
0
 10
-0.2225
 20
-1.1525
 30
0.34
 70
    64
  0
VERTEX
  5
3E194
  8
0
 10
-0.2225
 20
-1.1525
 30
0.34
 70
    64
  0
VERTEX
  5
3E195
  8
0
 10
-0.2225
 20
0.7575
 30
1.12
 70
    64
  0
VERTEX
  5
3E196
  8
0
 10
-0.2225
 20
0.7575
 30
0.34
 70
    64
  0
VERTEX
  5
3E197
  8
0
 10
-0.2225
 20
-1.1525
 30
0.34
 70
    64
  0
VERTEX
  5
3E198
  8
0
 10
0.2225
 20
0.7575
 30
1.12
 70
    64
  0
VERTEX
  5
3E199
  8
0
 10
0.2225
 20
0.7575
 30
0.34
 70
    64
  0
VERTEX
  5
3E19A
  8
0
 10
0.2225
 20
-1.1525
 30
0.34
 70
    64
  0
VERTEX
  5
3E19B
  8
0
 10
0.2225
 20
0.7575
 30
1.12
 70
    64
  0
VERTEX
  5
3E19C
  8
0
 10
0.2225
 20
0.7575
 30
1.12
 70
    64
  0
VERTEX
  5
3E19D
  8
0
 10
0.2225
 20
-1.1525
 30
1.12
 70
    64
  0
VERTEX
  5
3E19E
  8
0
 10
-0.2225
 20
0.7575
 30
1.12
 70
    64
  0
VERTEX
  5
3E19F
  8
0
 10
-0.2225
 20
0.7575
 30
1.12
 70
    64
  0
VERTEX
  5
3E1A0
  8
0
 10
-0.2225
 20
-1.1525
 30
1.12
 70
    64
  0
SEQEND
  5
3E1A1
  8
0
  0
LINE
  5
3E1A2
  8
0
 10
1.2275
 20
-1.1925
 30
0.34
 11
1.2275
 21
1.2675
 31
0.34
  0
LINE
  5
3E1A3
  8
0
 10
1.2275
 20
1.2675
 30
0.34
 11
-1.1925
 21
1.2675
 31
0.34
  0
LINE
  5
3E1A4
  8
0
 10
-1.1925
 20
1.2675
 30
0.34
 11
-1.1925
 21
-1.1925
 31
0.34
  0
LINE
  5
3E1A5
  8
0
 10
-1.1925
 20
-1.1925
 30
0.34
 11
1.2275
 21
-1.1925
 31
0.34
  0
LINE
  5
3E1A6
  8
0
 10
1.2275
 20
1.3125
 30
0.34
 11
1.2275
 21
1.7825
 31
0.34
  0
LINE
  5
3E1A7
  8
0
 10
1.2275
 20
1.7825
 30
0.34
 11
-1.1925
 21
1.7825
 31
0.34
  0
LINE
  5
3E1A8
  8
0
 10
-1.1925
 20
1.7825
 30
0.34
 11
-1.1925
 21
1.3125
 31
0.34
  0
LINE
  5
3E1A9
  8
0
 10
-1.1925
 20
1.3125
 30
0.34
 11
1.2275
 21
1.3125
 31
0.34
  0
LINE
  5
3E1AA
  8
0
 10
-0.0625
 20
0.7575
 30
1.12
 11
-0.0625
 21
0.5575
 31
1.12
  0
LINE
  5
3E1AB
  8
0
 10
-0.0625
 20
0.5575
 30
1.12
 11
0.0625
 21
0.5575
 31
1.12
  0
LINE
  5
3E1AC
  8
0
 10
0.0625
 20
0.5575
 30
1.12
 11
0.0625
 21
0.7575
 31
1.12
  0
POINT
  5
3E1AD
  8
DIMS-MTG-HOLES
 10
0.0
 20
0.0
 30
0.0
  0
TEXT
  5
3E1AE
  8
0
 10
-0.140809
 20
1.023745
 30
0.34
 40
0.15
  1
ON
  0
TEXT
  5
3E1AF
  8
0
 10
-1.036452
 20
-0.093057
 30
0.34
 40
0.15
  1
OFF
  0
ENDSEC
  0
EOF
