  0
SECTION
  2
HEADER
  9
$ACADVER
  1
AC1009
  9
$INSBASE
 10
0.0
 20
0.0
 30
0.0
  9
$EXTMIN
 10
-0.000705
 20
-2.440698
 30
-0.000246
  9
$EXTMAX
 10
4.240138
 20
0.950244
 30
4.030246
  9
$LIMMIN
 10
0.0
 20
0.0
  9
$LIMMAX
 10
12.0
 20
9.0
  9
$ORTHOMODE
 70
     1
  9
$REGENMODE
 70
     1
  9
$FILLMODE
 70
     1
  9
$QTEXTMODE
 70
     0
  9
$MIRRTEXT
 70
     1
  9
$DRAGMODE
 70
     2
  9
$LTSCALE
 40
1.0
  9
$OSMODE
 70
     8
  9
$ATTMODE
 70
     0
  9
$TEXTSIZE
 40
0.12
  9
$TRACEWID
 40
0.05
  9
$TEXTSTYLE
  7
STANDARD
  9
$CLAYER
  8
0
  9
$CELTYPE
  6
BYLAYER
  9
$CECOLOR
 62
   256
  9
$DIMSCALE
 40
1.0
  9
$DIMASZ
 40
0.18
  9
$DIMEXO
 40
0.0625
  9
$DIMDLI
 40
0.38
  9
$DIMRND
 40
0.0
  9
$DIMDLE
 40
0.0
  9
$DIMEXE
 40
0.18
  9
$DIMTP
 40
0.0
  9
$DIMTM
 40
0.0
  9
$DIMTXT
 40
0.18
  9
$DIMCEN
 40
0.09
  9
$DIMTSZ
 40
0.0
  9
$DIMTOL
 70
     0
  9
$DIMLIM
 70
     0
  9
$DIMTIH
 70
     1
  9
$DIMTOH
 70
     1
  9
$DIMSE1
 70
     0
  9
$DIMSE2
 70
     0
  9
$DIMTAD
 70
     0
  9
$DIMZIN
 70
     0
  9
$DIMBLK
  1

  9
$DIMASO
 70
     1
  9
$DIMSHO
 70
     1
  9
$DIMPOST
  1

  9
$DIMAPOST
  1

  9
$DIMALT
 70
     0
  9
$DIMALTD
 70
     2
  9
$DIMALTF
 40
25.4
  9
$DIMLFAC
 40
1.0
  9
$DIMTOFL
 70
     0
  9
$DIMTVP
 40
0.0
  9
$DIMTIX
 70
     0
  9
$DIMSOXD
 70
     0
  9
$DIMSAH
 70
     0
  9
$DIMBLK1
  1

  9
$DIMBLK2
  1

  9
$DIMSTYLE
  2
STANDARD
  9
$DIMCLRD
 70
     0
  9
$DIMCLRE
 70
     0
  9
$DIMCLRT
 70
     0
  9
$DIMTFAC
 40
1.0
  9
$DIMGAP
 40
0.09
  9
$LUNITS
 70
     2
  9
$LUPREC
 70
     4
  9
$SKETCHINC
 40
0.1
  9
$FILLETRAD
 40
0.05
  9
$AUNITS
 70
     0
  9
$AUPREC
 70
     0
  9
$MENU
  1
acad
  9
$ELEVATION
 40
0.0
  9
$PELEVATION
 40
0.0
  9
$THICKNESS
 40
0.0
  9
$LIMCHECK
 70
     0
  9
$BLIPMODE
 70
     0
  9
$CHAMFERA
 40
0.0
  9
$CHAMFERB
 40
0.0
  9
$SKPOLY
 70
     0
  9
$TDCREATE
 40
2450671.917666
  9
$TDUPDATE
 40
2451166.500702
  9
$TDINDWG
 40
0.007939
  9
$TDUSRTIMER
 40
0.007939
  9
$USRTIMER
 70
     1
  9
$ANGBASE
 50
0.0
  9
$ANGDIR
 70
     0
  9
$PDMODE
 70
    96
  9
$PDSIZE
 40
0.09
  9
$PLINEWID
 40
0.0
  9
$COORDS
 70
     1
  9
$SPLFRAME
 70
     1
  9
$SPLINETYPE
 70
     6
  9
$SPLINESEGS
 70
     8
  9
$ATTDIA
 70
     0
  9
$ATTREQ
 70
     1
  9
$HANDLING
 70
     1
  9
$HANDSEED
  5
3F48A
  9
$SURFTAB1
 70
     6
  9
$SURFTAB2
 70
     6
  9
$SURFTYPE
 70
     6
  9
$SURFU
 70
     6
  9
$SURFV
 70
     6
  9
$UCSNAME
  2

  9
$UCSORG
 10
0.0
 20
0.0
 30
0.0
  9
$UCSXDIR
 10
1.0
 20
0.0
 30
0.0
  9
$UCSYDIR
 10
0.0
 20
1.0
 30
0.0
  9
$PUCSNAME
  2

  9
$PUCSORG
 10
0.0
 20
0.0
 30
0.0
  9
$PUCSXDIR
 10
1.0
 20
0.0
 30
0.0
  9
$PUCSYDIR
 10
0.0
 20
1.0
 30
0.0
  9
$USERI1
 70
     0
  9
$USERI2
 70
     0
  9
$USERI3
 70
     0
  9
$USERI4
 70
     0
  9
$USERI5
 70
     0
  9
$USERR1
 40
0.0
  9
$USERR2
 40
0.0
  9
$USERR3
 40
0.0
  9
$USERR4
 40
0.0
  9
$USERR5
 40
0.0
  9
$WORLDVIEW
 70
     1
  9
$SHADEDGE
 70
     3
  9
$SHADEDIF
 70
    70
  9
$TILEMODE
 70
     1
  9
$MAXACTVP
 70
    16
  9
$PLIMCHECK
 70
     0
  9
$PEXTMIN
 10
1.000000E+020
 20
1.000000E+020
 30
1.000000E+020
  9
$PEXTMAX
 10
-1.000000E+020
 20
-1.000000E+020
 30
-1.000000E+020
  9
$PLIMMIN
 10
0.0
 20
0.0
  9
$PLIMMAX
 10
12.0
 20
9.0
  9
$UNITMODE
 70
     0
  9
$VISRETAIN
 70
     0
  9
$PLINEGEN
 70
     0
  9
$PSLTSCALE
 70
     1
  0
ENDSEC
  0
SECTION
  2
TABLES
  0
TABLE
  2
VPORT
 70
     2
  0
VPORT
  2
*ACTIVE
 70
     0
 10
0.0
 20
0.0
 11
1.0
 21
1.0
 12
2.119716
 22
-0.745227
 13
0.0
 23
0.0
 14
0.25
 24
0.25
 15
0.25
 25
0.25
 16
0.0
 26
0.0
 36
1.0
 17
0.0
 27
0.0
 37
0.0
 40
3.605835
 41
1.603066
 42
50.0
 43
0.0
 44
0.0
 50
0.0
 51
0.0
 71
     0
 72
 20000
 73
     1
 74
     1
 75
     0
 76
     0
 77
     0
 78
     0
  0
ENDTAB
  0
TABLE
  2
LTYPE
 70
     1
  0
LTYPE
  2
CONTINUOUS
 70
     0
  3
Solid line
 72
    65
 73
     0
 40
0.0
  0
ENDTAB
  0
TABLE
  2
LAYER
 70
     2
  0
LAYER
  2
0
 70
     0
 62
     7
  6
CONTINUOUS
  0
LAYER
  2
DIMS-MTG-HOLES
 70
     0
 62
     1
  6
CONTINUOUS
  0
ENDTAB
  0
TABLE
  2
STYLE
 70
     1
  0
STYLE
  2
STANDARD
 70
     0
 40
0.0
 41
1.0
 50
0.0
 71
     0
 42
0.12
  3
txt
  4

  0
ENDTAB
  0
TABLE
  2
VIEW
 70
     0
  0
ENDTAB
  0
TABLE
  2
UCS
 70
     0
  0
ENDTAB
  0
TABLE
  2
APPID
 70
     1
  0
APPID
  2
ACAD
 70
     0
  0
ENDTAB
  0
TABLE
  2
DIMSTYLE
 70
     1
  0
DIMSTYLE
  2
STANDARD
 70
     0
  3

  4

  5

  6

  7

 40
1.0
 41
0.18
 42
0.0625
 43
0.38
 44
0.18
 45
0.0
 46
0.0
 47
0.0
 48
0.0
140
0.18
141
0.09
142
0.0
143
25.4
144
1.0
145
0.0
146
1.0
147
0.09
 71
     0
 72
     0
 73
     1
 74
     1
 75
     0
 76
     0
 77
     0
 78
     0
170
     0
171
     2
172
     0
173
     0
174
     0
175
     0
176
     0
177
     0
178
     0
  0
ENDTAB
  0
ENDSEC
  0
SECTION
  2
BLOCKS
  0
BLOCK
  8
0
  2
$MODEL_SPACE
 70
     0
 10
0.0
 20
0.0
 30
0.0
  3
$MODEL_SPACE
  1

  0
ENDBLK
  5
3F3AD
  8
0
  0
BLOCK
 67
     1
  8
0
  2
$PAPER_SPACE
 70
     0
 10
0.0
 20
0.0
 30
0.0
  3
$PAPER_SPACE
  1

  0
ENDBLK
  5
3F3AB
 67
     1
  8
0
  0
ENDSEC
  0
SECTION
  2
ENTITIES
  0
POLYLINE
  5
3E1C3
  8
0
 66
     1
 10
0.0
 20
0.0
 30
0.0
 70
    16
 71
     6
 72
     3
  0
VERTEX
  5
3E1C4
  8
0
 10
0.85
 20
-2.44
 30
0.15
 70
    64
  0
VERTEX
  5
3E1C5
  8
0
 10
0.85
 20
-2.44
 30
0.0
 70
    64
  0
VERTEX
  5
3E1C6
  8
0
 10
0.85
 20
-2.44
 30
0.0
 70
    64
  0
VERTEX
  5
3E1C7
  8
0
 10
0.47
 20
-2.44
 30
0.15
 70
    64
  0
VERTEX
  5
3E1C8
  8
0
 10
0.47
 20
-2.44
 30
0.0
 70
    64
  0
VERTEX
  5
3E1C9
  8
0
 10
0.47
 20
-2.44
 30
0.0
 70
    64
  0
VERTEX
  5
3E1CA
  8
0
 10
0.47
 20
-2.16
 30
0.15
 70
    64
  0
VERTEX
  5
3E1CB
  8
0
 10
0.47
 20
-2.16
 30
0.0
 70
    64
  0
VERTEX
  5
3E1CC
  8
0
 10
0.47
 20
-2.44
 30
0.0
 70
    64
  0
VERTEX
  5
3E1CD
  8
0
 10
0.85
 20
-2.16
 30
0.15
 70
    64
  0
VERTEX
  5
3E1CE
  8
0
 10
0.85
 20
-2.16
 30
0.0
 70
    64
  0
VERTEX
  5
3E1CF
  8
0
 10
0.85
 20
-2.44
 30
0.0
 70
    64
  0
VERTEX
  5
3E1D0
  8
0
 10
0.85
 20
-2.16
 30
0.15
 70
    64
  0
VERTEX
  5
3E1D1
  8
0
 10
0.85
 20
-2.16
 30
0.15
 70
    64
  0
VERTEX
  5
3E1D2
  8
0
 10
0.85
 20
-2.44
 30
0.15
 70
    64
  0
VERTEX
  5
3E1D3
  8
0
 10
0.47
 20
-2.16
 30
0.15
 70
    64
  0
VERTEX
  5
3E1D4
  8
0
 10
0.47
 20
-2.16
 30
0.15
 70
    64
  0
VERTEX
  5
3E1D5
  8
0
 10
0.47
 20
-2.44
 30
0.15
 70
    64
  0
SEQEND
  5
3E1D6
  8
0
  0
CIRCLE
  5
3E1D8
  8
0
 10
0.66
 20
-2.3
 30
0.15
 40
0.09
  0
CIRCLE
  5
3E1D9
  8
0
 10
0.66
 20
-2.3
 30
0.0
 40
0.09
  0
LINE
  5
3E1DA
  8
DIMS-MTG-HOLES
  6
CONTINUOUS
 10
0.57
 20
-2.3
 30
0.0
 11
0.75
 21
-2.3
 31
0.0
  0
LINE
  5
3E1DB
  8
DIMS-MTG-HOLES
  6
CONTINUOUS
 10
0.66
 20
-2.39
 30
0.0
 11
0.66
 21
-2.21
 31
0.0
  0
POLYLINE
  5
3E1DC
  8
0
 66
     1
 10
0.0
 20
0.0
 30
0.0
 70
    16
 71
     6
 72
     3
  0
VERTEX
  5
3E1DD
  8
0
 10
1.65
 20
0.67
 30
0.15
 70
    64
  0
VERTEX
  5
3E1DE
  8
0
 10
1.65
 20
0.67
 30
0.0
 70
    64
  0
VERTEX
  5
3E1DF
  8
0
 10
1.65
 20
0.67
 30
0.0
 70
    64
  0
VERTEX
  5
3E1E0
  8
0
 10
1.27
 20
0.67
 30
0.15
 70
    64
  0
VERTEX
  5
3E1E1
  8
0
 10
1.27
 20
0.67
 30
0.0
 70
    64
  0
VERTEX
  5
3E1E2
  8
0
 10
1.27
 20
0.67
 30
0.0
 70
    64
  0
VERTEX
  5
3E1E3
  8
0
 10
1.27
 20
0.95
 30
0.15
 70
    64
  0
VERTEX
  5
3E1E4
  8
0
 10
1.27
 20
0.95
 30
0.0
 70
    64
  0
VERTEX
  5
3E1E5
  8
0
 10
1.27
 20
0.67
 30
0.0
 70
    64
  0
VERTEX
  5
3E1E6
  8
0
 10
1.65
 20
0.95
 30
0.15
 70
    64
  0
VERTEX
  5
3E1E7
  8
0
 10
1.65
 20
0.95
 30
0.0
 70
    64
  0
VERTEX
  5
3E1E8
  8
0
 10
1.65
 20
0.67
 30
0.0
 70
    64
  0
VERTEX
  5
3E1E9
  8
0
 10
1.65
 20
0.95
 30
0.15
 70
    64
  0
VERTEX
  5
3E1EA
  8
0
 10
1.65
 20
0.95
 30
0.15
 70
    64
  0
VERTEX
  5
3E1EB
  8
0
 10
1.65
 20
0.67
 30
0.15
 70
    64
  0
VERTEX
  5
3E1EC
  8
0
 10
1.27
 20
0.95
 30
0.15
 70
    64
  0
VERTEX
  5
3E1ED
  8
0
 10
1.27
 20
0.95
 30
0.15
 70
    64
  0
VERTEX
  5
3E1EE
  8
0
 10
1.27
 20
0.67
 30
0.15
 70
    64
  0
SEQEND
  5
3E1EF
  8
0
  0
LINE
  5
3E1F0
  8
DIMS-MTG-HOLES
  6
CONTINUOUS
 10
1.37
 20
0.81
 30
0.0
 11
1.55
 21
0.81
 31
0.0
  0
CIRCLE
  5
3E1F1
  8
0
 10
1.46
 20
0.81
 30
0.0
 40
0.09
  0
LINE
  5
3E1F2
  8
DIMS-MTG-HOLES
  6
CONTINUOUS
 10
1.46
 20
0.72
 30
0.0
 11
1.46
 21
0.9
 31
0.0
  0
3DFACE
  5
3E277
  8
0
 10
0.0
 20
-0.62
 30
1.45
 11
0.0
 21
-0.87
 31
1.45
 12
0.0
 22
-0.87
 32
0.85
 13
0.0
 23
-0.62
 33
0.85
  0
3DFACE
  5
3E27D
  8
0
 10
0.0
 20
-0.62
 30
0.97
 11
0.0
 21
-0.87
 31
0.97
 12
0.0
 22
-0.87
 32
1.14
 13
0.0
 23
-0.62
 33
1.14
  0
POLYLINE
  5
3E371
  8
0
 66
     1
 10
0.0
 20
0.0
 30
0.0
 70
    16
 71
     6
 72
     3
  0
VERTEX
  5
3E372
  8
0
 10
2.12
 20
-2.16
 30
0.2
 70
    64
  0
VERTEX
  5
3E373
  8
0
 10
2.12
 20
-2.16
 30
0.0
 70
    64
  0
VERTEX
  5
3E374
  8
0
 10
2.12
 20
-2.16
 30
0.0
 70
    64
  0
VERTEX
  5
3E375
  8
0
 10
0.0
 20
-2.16
 30
0.2
 70
    64
  0
VERTEX
  5
3E376
  8
0
 10
0.0
 20
-2.16
 30
0.0
 70
    64
  0
VERTEX
  5
3E377
  8
0
 10
0.0
 20
-2.16
 30
0.0
 70
    64
  0
VERTEX
  5
3E378
  8
0
 10
0.0
 20
-1.39
 30
0.2
 70
    64
  0
VERTEX
  5
3E379
  8
0
 10
0.0
 20
-1.39
 30
0.0
 70
    64
  0
VERTEX
  5
3E37A
  8
0
 10
0.0
 20
-2.16
 30
0.0
 70
    64
  0
VERTEX
  5
3E37B
  8
0
 10
2.12
 20
-1.39
 30
0.2
 70
    64
  0
VERTEX
  5
3E37C
  8
0
 10
2.12
 20
-1.39
 30
0.0
 70
    64
  0
VERTEX
  5
3E37D
  8
0
 10
2.12
 20
-2.16
 30
0.0
 70
    64
  0
VERTEX
  5
3E37E
  8
0
 10
2.12
 20
-1.39
 30
0.2
 70
    64
  0
VERTEX
  5
3E37F
  8
0
 10
2.12
 20
-1.39
 30
0.2
 70
    64
  0
VERTEX
  5
3E380
  8
0
 10
2.12
 20
-2.16
 30
0.2
 70
    64
  0
VERTEX
  5
3E381
  8
0
 10
0.0
 20
-1.39
 30
0.2
 70
    64
  0
VERTEX
  5
3E382
  8
0
 10
0.0
 20
-1.39
 30
0.2
 70
    64
  0
VERTEX
  5
3E383
  8
0
 10
0.0
 20
-2.16
 30
0.2
 70
    64
  0
SEQEND
  5
3E384
  8
0
  0
POLYLINE
  5
3E385
  8
0
 66
     1
 10
0.0
 20
0.0
 30
0.0
 70
    16
 71
     6
 72
     3
  0
VERTEX
  5
3E386
  8
0
 10
2.12
 20
-2.16
 30
2.15
 70
    64
  0
VERTEX
  5
3E387
  8
0
 10
2.12
 20
-2.16
 30
0.2
 70
    64
  0
VERTEX
  5
3E388
  8
0
 10
2.12
 20
-2.16
 30
0.2
 70
    64
  0
VERTEX
  5
3E389
  8
0
 10
0.0
 20
-2.16
 30
2.15
 70
    64
  0
VERTEX
  5
3E38A
  8
0
 10
0.0
 20
-2.16
 30
0.2
 70
    64
  0
VERTEX
  5
3E38B
  8
0
 10
0.0
 20
-2.16
 30
0.2
 70
    64
  0
VERTEX
  5
3E38C
  8
0
 10
0.0
 20
0.67
 30
2.15
 70
    64
  0
VERTEX
  5
3E38D
  8
0
 10
0.0
 20
0.67
 30
0.2
 70
    64
  0
VERTEX
  5
3E38E
  8
0
 10
0.0
 20
-2.16
 30
0.2
 70
    64
  0
VERTEX
  5
3E38F
  8
0
 10
2.12
 20
0.67
 30
2.15
 70
    64
  0
VERTEX
  5
3E390
  8
0
 10
2.12
 20
0.67
 30
0.2
 70
    64
  0
VERTEX
  5
3E391
  8
0
 10
2.12
 20
-2.16
 30
0.2
 70
    64
  0
VERTEX
  5
3E392
  8
0
 10
2.12
 20
0.67
 30
2.15
 70
    64
  0
VERTEX
  5
3E393
  8
0
 10
2.12
 20
0.67
 30
2.15
 70
    64
  0
VERTEX
  5
3E394
  8
0
 10
2.12
 20
-2.16
 30
2.15
 70
    64
  0
VERTEX
  5
3E395
  8
0
 10
0.0
 20
0.67
 30
2.15
 70
    64
  0
VERTEX
  5
3E396
  8
0
 10
0.0
 20
0.67
 30
2.15
 70
    64
  0
VERTEX
  5
3E397
  8
0
 10
0.0
 20
-2.16
 30
2.15
 70
    64
  0
SEQEND
  5
3E398
  8
0
  0
POLYLINE
  5
3E399
  8
0
 66
     1
 10
0.0
 20
0.0
 30
0.0
 70
    16
 71
     6
 72
     3
  0
VERTEX
  5
3E39A
  8
0
 10
2.12
 20
0.0
 30
0.2
 70
    64
  0
VERTEX
  5
3E39B
  8
0
 10
2.12
 20
0.0
 30
0.0
 70
    64
  0
VERTEX
  5
3E39C
  8
0
 10
2.12
 20
0.0
 30
0.0
 70
    64
  0
VERTEX
  5
3E39D
  8
0
 10
0.0
 20
0.0
 30
0.2
 70
    64
  0
VERTEX
  5
3E39E
  8
0
 10
0.0
 20
0.0
 30
0.0
 70
    64
  0
VERTEX
  5
3E39F
  8
0
 10
0.0
 20
0.0
 30
0.0
 70
    64
  0
VERTEX
  5
3E3A0
  8
0
 10
0.0
 20
0.67
 30
0.2
 70
    64
  0
VERTEX
  5
3E3A1
  8
0
 10
0.0
 20
0.67
 30
0.0
 70
    64
  0
VERTEX
  5
3E3A2
  8
0
 10
0.0
 20
0.0
 30
0.0
 70
    64
  0
VERTEX
  5
3E3A3
  8
0
 10
2.12
 20
0.67
 30
0.2
 70
    64
  0
VERTEX
  5
3E3A4
  8
0
 10
2.12
 20
0.67
 30
0.0
 70
    64
  0
VERTEX
  5
3E3A5
  8
0
 10
2.12
 20
0.0
 30
0.0
 70
    64
  0
VERTEX
  5
3E3A6
  8
0
 10
2.12
 20
0.67
 30
0.2
 70
    64
  0
VERTEX
  5
3E3A7
  8
0
 10
2.12
 20
0.67
 30
0.2
 70
    64
  0
VERTEX
  5
3E3A8
  8
0
 10
2.12
 20
0.0
 30
0.2
 70
    64
  0
VERTEX
  5
3E3A9
  8
0
 10
0.0
 20
0.67
 30
0.2
 70
    64
  0
VERTEX
  5
3E3AA
  8
0
 10
0.0
 20
0.67
 30
0.2
 70
    64
  0
VERTEX
  5
3E3AB
  8
0
 10
0.0
 20
0.0
 30
0.2
 70
    64
  0
SEQEND
  5
3E3AC
  8
0
  0
POLYLINE
  5
3E3AD
  8
0
 66
     1
 10
0.0
 20
0.0
 30
0.0
 70
    16
 71
     6
 72
     3
  0
VERTEX
  5
3E3AE
  8
0
 10
2.12
 20
-1.385
 30
2.9
 70
    64
  0
VERTEX
  5
3E3AF
  8
0
 10
2.12
 20
-1.385
 30
2.15
 70
    64
  0
VERTEX
  5
3E3B0
  8
0
 10
2.12
 20
-1.385
 30
2.15
 70
    64
  0
VERTEX
  5
3E3B1
  8
0
 10
0.0
 20
-1.385
 30
2.9
 70
    64
  0
VERTEX
  5
3E3B2
  8
0
 10
0.0
 20
-1.385
 30
2.15
 70
    64
  0
VERTEX
  5
3E3B3
  8
0
 10
0.0
 20
-1.385
 30
2.15
 70
    64
  0
VERTEX
  5
3E3B4
  8
0
 10
0.0
 20
-0.105
 30
2.9
 70
    64
  0
VERTEX
  5
3E3B5
  8
0
 10
0.0
 20
-0.105
 30
2.15
 70
    64
  0
VERTEX
  5
3E3B6
  8
0
 10
0.0
 20
-1.385
 30
2.15
 70
    64
  0
VERTEX
  5
3E3B7
  8
0
 10
2.12
 20
-0.105
 30
2.9
 70
    64
  0
VERTEX
  5
3E3B8
  8
0
 10
2.12
 20
-0.105
 30
2.15
 70
    64
  0
VERTEX
  5
3E3B9
  8
0
 10
2.12
 20
-1.385
 30
2.15
 70
    64
  0
VERTEX
  5
3E3BA
  8
0
 10
2.12
 20
-0.105
 30
2.9
 70
    64
  0
VERTEX
  5
3E3BB
  8
0
 10
2.12
 20
-0.105
 30
2.9
 70
    64
  0
VERTEX
  5
3E3BC
  8
0
 10
2.12
 20
-1.385
 30
2.9
 70
    64
  0
VERTEX
  5
3E3BD
  8
0
 10
0.0
 20
-0.105
 30
2.9
 70
    64
  0
VERTEX
  5
3E3BE
  8
0
 10
0.0
 20
-0.105
 30
2.9
 70
    64
  0
VERTEX
  5
3E3BF
  8
0
 10
0.0
 20
-1.385
 30
2.9
 70
    64
  0
SEQEND
  5
3E3C0
  8
0
  0
POLYLINE
  5
3E3C1
  8
0
 66
     1
 10
0.0
 20
0.0
 30
0.0
 70
    16
 71
     6
 72
     3
  0
VERTEX
  5
3E3C2
  8
0
 10
0.46
 20
-1.485
 30
2.9
 70
    64
  0
VERTEX
  5
3E3C3
  8
0
 10
0.46
 20
-1.485
 30
2.15
 70
    64
  0
VERTEX
  5
3E3C4
  8
0
 10
0.46
 20
-1.485
 30
2.15
 70
    64
  0
VERTEX
  5
3E3C5
  8
0
 10
0.0
 20
-1.485
 30
2.9
 70
    64
  0
VERTEX
  5
3E3C6
  8
0
 10
0.0
 20
-1.485
 30
2.15
 70
    64
  0
VERTEX
  5
3E3C7
  8
0
 10
0.0
 20
-1.485
 30
2.15
 70
    64
  0
VERTEX
  5
3E3C8
  8
0
 10
0.0
 20
-1.385
 30
2.9
 70
    64
  0
VERTEX
  5
3E3C9
  8
0
 10
0.0
 20
-1.385
 30
2.15
 70
    64
  0
VERTEX
  5
3E3CA
  8
0
 10
0.0
 20
-1.485
 30
2.15
 70
    64
  0
VERTEX
  5
3E3CB
  8
0
 10
0.46
 20
-1.385
 30
2.9
 70
    64
  0
VERTEX
  5
3E3CC
  8
0
 10
0.46
 20
-1.385
 30
2.15
 70
    64
  0
VERTEX
  5
3E3CD
  8
0
 10
0.46
 20
-1.485
 30
2.15
 70
    64
  0
VERTEX
  5
3E3CE
  8
0
 10
0.46
 20
-1.385
 30
2.9
 70
    64
  0
VERTEX
  5
3E3CF
  8
0
 10
0.46
 20
-1.385
 30
2.9
 70
    64
  0
VERTEX
  5
3E3D0
  8
0
 10
0.46
 20
-1.485
 30
2.9
 70
    64
  0
VERTEX
  5
3E3D1
  8
0
 10
0.0
 20
-1.385
 30
2.9
 70
    64
  0
VERTEX
  5
3E3D2
  8
0
 10
0.0
 20
-1.385
 30
2.9
 70
    64
  0
VERTEX
  5
3E3D3
  8
0
 10
0.0
 20
-1.485
 30
2.9
 70
    64
  0
SEQEND
  5
3E3D4
  8
0
  0
POLYLINE
  5
3E3E9
  8
0
 66
     1
 10
0.0
 20
0.0
 30
0.0
 70
    16
 71
     6
 72
     3
  0
VERTEX
  5
3E3EA
  8
0
 10
0.46
 20
-1.485
 30
2.15
 70
    64
  0
VERTEX
  5
3E3EB
  8
0
 10
0.46
 20
-1.485
 30
2.15
 70
    64
  0
VERTEX
  5
3E3EC
  8
0
 10
0.46
 20
-1.485
 30
2.15
 70
    64
  0
VERTEX
  5
3E3ED
  8
0
 10
0.0
 20
-1.82
 30
2.15
 70
    64
  0
VERTEX
  5
3E3EE
  8
0
 10
0.0
 20
-1.485
 30
2.15
 70
    64
  0
VERTEX
  5
3E3EF
  8
0
 10
0.0
 20
-1.485
 30
2.15
 70
    64
  0
VERTEX
  5
3E3F0
  8
0
 10
0.0
 20
-1.82
 30
2.9
 70
    64
  0
VERTEX
  5
3E3F1
  8
0
 10
0.0
 20
-1.485
 30
2.9
 70
    64
  0
VERTEX
  5
3E3F2
  8
0
 10
0.0
 20
-1.485
 30
2.15
 70
    64
  0
VERTEX
  5
3E3F3
  8
0
 10
0.46
 20
-1.485
 30
2.9
 70
    64
  0
VERTEX
  5
3E3F4
  8
0
 10
0.46
 20
-1.485
 30
2.9
 70
    64
  0
VERTEX
  5
3E3F5
  8
0
 10
0.46
 20
-1.485
 30
2.15
 70
    64
  0
VERTEX
  5
3E3F6
  8
0
 10
0.46
 20
-1.485
 30
2.9
 70
    64
  0
VERTEX
  5
3E3F7
  8
0
 10
0.46
 20
-1.485
 30
2.9
 70
    64
  0
VERTEX
  5
3E3F8
  8
0
 10
0.46
 20
-1.485
 30
2.15
 70
    64
  0
VERTEX
  5
3E3F9
  8
0
 10
0.0
 20
-1.82
 30
2.9
 70
    64
  0
VERTEX
  5
3E3FA
  8
0
 10
0.0
 20
-1.82
 30
2.9
 70
    64
  0
VERTEX
  5
3E3FB
  8
0
 10
0.0
 20
-1.82
 30
2.15
 70
    64
  0
SEQEND
  5
3E3FC
  8
0
  0
POLYLINE
  5
3E3FD
  8
0
 66
     1
 10
0.0
 20
0.0
 30
0.0
 70
    16
 71
     6
 72
     3
  0
VERTEX
  5
3E3FE
  8
0
 10
1.66
 20
-1.485
 30
2.9
 70
    64
  0
VERTEX
  5
3E3FF
  8
0
 10
1.66
 20
-1.485
 30
2.15
 70
    64
  0
VERTEX
  5
3E400
  8
0
 10
1.66
 20
-1.485
 30
2.15
 70
    64
  0
VERTEX
  5
3E401
  8
0
 10
2.12
 20
-1.485
 30
2.9
 70
    64
  0
VERTEX
  5
3E402
  8
0
 10
2.12
 20
-1.485
 30
2.15
 70
    64
  0
VERTEX
  5
3E403
  8
0
 10
2.12
 20
-1.485
 30
2.15
 70
    64
  0
VERTEX
  5
3E404
  8
0
 10
2.12
 20
-1.385
 30
2.9
 70
    64
  0
VERTEX
  5
3E405
  8
0
 10
2.12
 20
-1.385
 30
2.15
 70
    64
  0
VERTEX
  5
3E406
  8
0
 10
2.12
 20
-1.485
 30
2.15
 70
    64
  0
VERTEX
  5
3E407
  8
0
 10
1.66
 20
-1.385
 30
2.9
 70
    64
  0
VERTEX
  5
3E408
  8
0
 10
1.66
 20
-1.385
 30
2.15
 70
    64
  0
VERTEX
  5
3E409
  8
0
 10
1.66
 20
-1.485
 30
2.15
 70
    64
  0
VERTEX
  5
3E40A
  8
0
 10
1.66
 20
-1.385
 30
2.9
 70
    64
  0
VERTEX
  5
3E40B
  8
0
 10
1.66
 20
-1.385
 30
2.9
 70
    64
  0
VERTEX
  5
3E40C
  8
0
 10
1.66
 20
-1.485
 30
2.9
 70
    64
  0
VERTEX
  5
3E40D
  8
0
 10
2.12
 20
-1.385
 30
2.9
 70
    64
  0
VERTEX
  5
3E40E
  8
0
 10
2.12
 20
-1.385
 30
2.9
 70
    64
  0
VERTEX
  5
3E40F
  8
0
 10
2.12
 20
-1.485
 30
2.9
 70
    64
  0
SEQEND
  5
3E410
  8
0
  0
POLYLINE
  5
3E411
  8
0
 66
     1
 10
0.0
 20
0.0
 30
0.0
 70
    16
 71
     6
 72
     3
  0
VERTEX
  5
3E412
  8
0
 10
1.66
 20
-1.485
 30
2.15
 70
    64
  0
VERTEX
  5
3E413
  8
0
 10
1.66
 20
-1.485
 30
2.15
 70
    64
  0
VERTEX
  5
3E414
  8
0
 10
1.66
 20
-1.485
 30
2.15
 70
    64
  0
VERTEX
  5
3E415
  8
0
 10
2.12
 20
-1.82
 30
2.15
 70
    64
  0
VERTEX
  5
3E416
  8
0
 10
2.12
 20
-1.485
 30
2.15
 70
    64
  0
VERTEX
  5
3E417
  8
0
 10
2.12
 20
-1.485
 30
2.15
 70
    64
  0
VERTEX
  5
3E418
  8
0
 10
2.12
 20
-1.82
 30
2.9
 70
    64
  0
VERTEX
  5
3E419
  8
0
 10
2.12
 20
-1.485
 30
2.9
 70
    64
  0
VERTEX
  5
3E41A
  8
0
 10
2.12
 20
-1.485
 30
2.15
 70
    64
  0
VERTEX
  5
3E41B
  8
0
 10
1.66
 20
-1.485
 30
2.9
 70
    64
  0
VERTEX
  5
3E41C
  8
0
 10
1.66
 20
-1.485
 30
2.9
 70
    64
  0
VERTEX
  5
3E41D
  8
0
 10
1.66
 20
-1.485
 30
2.15
 70
    64
  0
VERTEX
  5
3E41E
  8
0
 10
1.66
 20
-1.485
 30
2.9
 70
    64
  0
VERTEX
  5
3E41F
  8
0
 10
1.66
 20
-1.485
 30
2.9
 70
    64
  0
VERTEX
  5
3E420
  8
0
 10
1.66
 20
-1.485
 30
2.15
 70
    64
  0
VERTEX
  5
3E421
  8
0
 10
2.12
 20
-1.82
 30
2.9
 70
    64
  0
VERTEX
  5
3E422
  8
0
 10
2.12
 20
-1.82
 30
2.9
 70
    64
  0
VERTEX
  5
3E423
  8
0
 10
2.12
 20
-1.82
 30
2.15
 70
    64
  0
SEQEND
  5
3E424
  8
0
  0
POLYLINE
  5
3E425
  8
0
 66
     1
 10
0.0
 20
0.0
 30
0.0
 70
    16
 71
     6
 72
     3
  0
VERTEX
  5
3E426
  8
0
 10
0.46
 20
-0.005
 30
2.9
 70
    64
  0
VERTEX
  5
3E427
  8
0
 10
0.46
 20
-0.005
 30
2.15
 70
    64
  0
VERTEX
  5
3E428
  8
0
 10
0.46
 20
-0.005
 30
2.15
 70
    64
  0
VERTEX
  5
3E429
  8
0
 10
0.0
 20
-0.005
 30
2.9
 70
    64
  0
VERTEX
  5
3E42A
  8
0
 10
0.0
 20
-0.005
 30
2.15
 70
    64
  0
VERTEX
  5
3E42B
  8
0
 10
0.0
 20
-0.005
 30
2.15
 70
    64
  0
VERTEX
  5
3E42C
  8
0
 10
0.0
 20
-0.105
 30
2.9
 70
    64
  0
VERTEX
  5
3E42D
  8
0
 10
0.0
 20
-0.105
 30
2.15
 70
    64
  0
VERTEX
  5
3E42E
  8
0
 10
0.0
 20
-0.005
 30
2.15
 70
    64
  0
VERTEX
  5
3E42F
  8
0
 10
0.46
 20
-0.105
 30
2.9
 70
    64
  0
VERTEX
  5
3E430
  8
0
 10
0.46
 20
-0.105
 30
2.15
 70
    64
  0
VERTEX
  5
3E431
  8
0
 10
0.46
 20
-0.005
 30
2.15
 70
    64
  0
VERTEX
  5
3E432
  8
0
 10
0.46
 20
-0.105
 30
2.9
 70
    64
  0
VERTEX
  5
3E433
  8
0
 10
0.46
 20
-0.105
 30
2.9
 70
    64
  0
VERTEX
  5
3E434
  8
0
 10
0.46
 20
-0.005
 30
2.9
 70
    64
  0
VERTEX
  5
3E435
  8
0
 10
0.0
 20
-0.105
 30
2.9
 70
    64
  0
VERTEX
  5
3E436
  8
0
 10
0.0
 20
-0.105
 30
2.9
 70
    64
  0
VERTEX
  5
3E437
  8
0
 10
0.0
 20
-0.005
 30
2.9
 70
    64
  0
SEQEND
  5
3E438
  8
0
  0
POLYLINE
  5
3E439
  8
0
 66
     1
 10
0.0
 20
0.0
 30
0.0
 70
    16
 71
     6
 72
     3
  0
VERTEX
  5
3E43A
  8
0
 10
0.46
 20
-0.005
 30
2.15
 70
    64
  0
VERTEX
  5
3E43B
  8
0
 10
0.46
 20
-0.005
 30
2.15
 70
    64
  0
VERTEX
  5
3E43C
  8
0
 10
0.46
 20
-0.005
 30
2.15
 70
    64
  0
VERTEX
  5
3E43D
  8
0
 10
0.0
 20
0.33
 30
2.15
 70
    64
  0
VERTEX
  5
3E43E
  8
0
 10
0.0
 20
-0.005
 30
2.15
 70
    64
  0
VERTEX
  5
3E43F
  8
0
 10
0.0
 20
-0.005
 30
2.15
 70
    64
  0
VERTEX
  5
3E440
  8
0
 10
0.0
 20
0.33
 30
2.9
 70
    64
  0
VERTEX
  5
3E441
  8
0
 10
0.0
 20
-0.005
 30
2.9
 70
    64
  0
VERTEX
  5
3E442
  8
0
 10
0.0
 20
-0.005
 30
2.15
 70
    64
  0
VERTEX
  5
3E443
  8
0
 10
0.46
 20
-0.005
 30
2.9
 70
    64
  0
VERTEX
  5
3E444
  8
0
 10
0.46
 20
-0.005
 30
2.9
 70
    64
  0
VERTEX
  5
3E445
  8
0
 10
0.46
 20
-0.005
 30
2.15
 70
    64
  0
VERTEX
  5
3E446
  8
0
 10
0.46
 20
-0.005
 30
2.9
 70
    64
  0
VERTEX
  5
3E447
  8
0
 10
0.46
 20
-0.005
 30
2.9
 70
    64
  0
VERTEX
  5
3E448
  8
0
 10
0.46
 20
-0.005
 30
2.15
 70
    64
  0
VERTEX
  5
3E449
  8
0
 10
0.0
 20
0.33
 30
2.9
 70
    64
  0
VERTEX
  5
3E44A
  8
0
 10
0.0
 20
0.33
 30
2.9
 70
    64
  0
VERTEX
  5
3E44B
  8
0
 10
0.0
 20
0.33
 30
2.15
 70
    64
  0
SEQEND
  5
3E44C
  8
0
  0
POLYLINE
  5
3E44D
  8
0
 66
     1
 10
0.0
 20
0.0
 30
0.0
 70
    16
 71
     6
 72
     3
  0
VERTEX
  5
3E44E
  8
0
 10
1.66
 20
-0.005
 30
2.9
 70
    64
  0
VERTEX
  5
3E44F
  8
0
 10
1.66
 20
-0.005
 30
2.15
 70
    64
  0
VERTEX
  5
3E450
  8
0
 10
1.66
 20
-0.005
 30
2.15
 70
    64
  0
VERTEX
  5
3E451
  8
0
 10
2.12
 20
-0.005
 30
2.9
 70
    64
  0
VERTEX
  5
3E452
  8
0
 10
2.12
 20
-0.005
 30
2.15
 70
    64
  0
VERTEX
  5
3E453
  8
0
 10
2.12
 20
-0.005
 30
2.15
 70
    64
  0
VERTEX
  5
3E454
  8
0
 10
2.12
 20
-0.105
 30
2.9
 70
    64
  0
VERTEX
  5
3E455
  8
0
 10
2.12
 20
-0.105
 30
2.15
 70
    64
  0
VERTEX
  5
3E456
  8
0
 10
2.12
 20
-0.005
 30
2.15
 70
    64
  0
VERTEX
  5
3E457
  8
0
 10
1.66
 20
-0.105
 30
2.9
 70
    64
  0
VERTEX
  5
3E458
  8
0
 10
1.66
 20
-0.105
 30
2.15
 70
    64
  0
VERTEX
  5
3E459
  8
0
 10
1.66
 20
-0.005
 30
2.15
 70
    64
  0
VERTEX
  5
3E45A
  8
0
 10
1.66
 20
-0.105
 30
2.9
 70
    64
  0
VERTEX
  5
3E45B
  8
0
 10
1.66
 20
-0.105
 30
2.9
 70
    64
  0
VERTEX
  5
3E45C
  8
0
 10
1.66
 20
-0.005
 30
2.9
 70
    64
  0
VERTEX
  5
3E45D
  8
0
 10
2.12
 20
-0.105
 30
2.9
 70
    64
  0
VERTEX
  5
3E45E
  8
0
 10
2.12
 20
-0.105
 30
2.9
 70
    64
  0
VERTEX
  5
3E45F
  8
0
 10
2.12
 20
-0.005
 30
2.9
 70
    64
  0
SEQEND
  5
3E460
  8
0
  0
POLYLINE
  5
3E461
  8
0
 66
     1
 10
0.0
 20
0.0
 30
0.0
 70
    16
 71
     6
 72
     3
  0
VERTEX
  5
3E462
  8
0
 10
1.66
 20
-0.005
 30
2.15
 70
    64
  0
VERTEX
  5
3E463
  8
0
 10
1.66
 20
-0.005
 30
2.15
 70
    64
  0
VERTEX
  5
3E464
  8
0
 10
1.66
 20
-0.005
 30
2.15
 70
    64
  0
VERTEX
  5
3E465
  8
0
 10
2.12
 20
0.33
 30
2.15
 70
    64
  0
VERTEX
  5
3E466
  8
0
 10
2.12
 20
-0.005
 30
2.15
 70
    64
  0
VERTEX
  5
3E467
  8
0
 10
2.12
 20
-0.005
 30
2.15
 70
    64
  0
VERTEX
  5
3E468
  8
0
 10
2.12
 20
0.33
 30
2.9
 70
    64
  0
VERTEX
  5
3E469
  8
0
 10
2.12
 20
-0.005
 30
2.9
 70
    64
  0
VERTEX
  5
3E46A
  8
0
 10
2.12
 20
-0.005
 30
2.15
 70
    64
  0
VERTEX
  5
3E46B
  8
0
 10
1.66
 20
-0.005
 30
2.9
 70
    64
  0
VERTEX
  5
3E46C
  8
0
 10
1.66
 20
-0.005
 30
2.9
 70
    64
  0
VERTEX
  5
3E46D
  8
0
 10
1.66
 20
-0.005
 30
2.15
 70
    64
  0
VERTEX
  5
3E46E
  8
0
 10
1.66
 20
-0.005
 30
2.9
 70
    64
  0
VERTEX
  5
3E46F
  8
0
 10
1.66
 20
-0.005
 30
2.9
 70
    64
  0
VERTEX
  5
3E470
  8
0
 10
1.66
 20
-0.005
 30
2.15
 70
    64
  0
VERTEX
  5
3E471
  8
0
 10
2.12
 20
0.33
 30
2.9
 70
    64
  0
VERTEX
  5
3E472
  8
0
 10
2.12
 20
0.33
 30
2.9
 70
    64
  0
VERTEX
  5
3E473
  8
0
 10
2.12
 20
0.33
 30
2.15
 70
    64
  0
SEQEND
  5
3E474
  8
0
  0
POLYLINE
  5
3E4E0
  8
0
 66
     1
 10
0.0
 20
0.0
 30
2.9
 70
     1
  0
VERTEX
  5
3F3BA
  8
0
 10
1.236068
 20
-0.85
 30
2.9
  0
VERTEX
  5
3F3BB
  8
0
 10
1.33
 20
-0.85
 30
2.9
 42
0.414214
  0
VERTEX
  5
3F3BC
  8
0
 10
1.38
 20
-0.8
 30
2.9
  0
VERTEX
  5
3F3BD
  8
0
 10
1.38
 20
-0.69
 30
2.9
 42
0.414214
  0
VERTEX
  5
3F3BE
  8
0
 10
1.33
 20
-0.64
 30
2.9
  0
VERTEX
  5
3F3BF
  8
0
 10
1.236068
 20
-0.64
 30
2.9
 42
0.443094
  0
VERTEX
  5
3F3C0
  8
0
 10
0.938345
 20
-0.58
 30
2.9
  0
VERTEX
  5
3F3C1
  8
0
 10
0.79
 20
-0.58
 30
2.9
 42
0.414214
  0
VERTEX
  5
3F3C2
  8
0
 10
0.74
 20
-0.63
 30
2.9
  0
VERTEX
  5
3F3C3
  8
0
 10
0.74
 20
-0.86
 30
2.9
 42
0.414214
  0
VERTEX
  5
3F3C4
  8
0
 10
0.79
 20
-0.91
 30
2.9
  0
VERTEX
  5
3F3C5
  8
0
 10
0.938345
 20
-0.91
 30
2.9
 42
0.443094
  0
SEQEND
  5
3F3C6
  8
0
  0
CIRCLE
  5
3E503
  8
0
 10
1.46
 20
0.81
 30
0.15
 40
0.09
  0
CIRCLE
  5
3E509
  8
0
 10
0.355
 20
-1.795
 30
2.15
 40
0.125
  0
POLYLINE
  5
3E541
  8
0
 66
     1
 10
0.0
 20
0.0
 30
2.15
  0
VERTEX
  5
3F3C7
  8
0
 10
0.37
 20
-1.670903
 30
2.15
  0
VERTEX
  5
3F3C8
  8
0
 10
0.37
 20
-1.78
 30
2.15
  0
VERTEX
  5
3F3C9
  8
0
 10
0.4
 20
-1.78
 30
2.15
  0
VERTEX
  5
3F3CA
  8
0
 10
0.4
 20
-1.81
 30
2.15
  0
VERTEX
  5
3F3CB
  8
0
 10
0.37
 20
-1.81
 30
2.15
  0
VERTEX
  5
3F3CC
  8
0
 10
0.37
 20
-1.919097
 30
2.15
  0
SEQEND
  5
3F3CD
  8
0
  0
POLYLINE
  5
3E549
  8
0
 66
     1
 10
0.0
 20
0.0
 30
2.15
  0
VERTEX
  5
3F3CE
  8
0
 10
0.34
 20
-1.670903
 30
2.15
  0
VERTEX
  5
3F3CF
  8
0
 10
0.34
 20
-1.78
 30
2.15
  0
VERTEX
  5
3F3D0
  8
0
 10
0.295
 20
-1.78
 30
2.15
  0
VERTEX
  5
3F3D1
  8
0
 10
0.295
 20
-1.81
 30
2.15
  0
VERTEX
  5
3F3D2
  8
0
 10
0.34
 20
-1.81
 30
2.15
  0
VERTEX
  5
3F3D3
  8
0
 10
0.34
 20
-1.919097
 30
2.15
  0
SEQEND
  5
3F3D4
  8
0
  0
POLYLINE
  5
3E551
  8
0
 66
     1
 10
0.0
 20
0.0
 30
2.15
  0
VERTEX
  5
3F3D5
  8
0
 10
1.78
 20
-1.670903
 30
2.15
  0
VERTEX
  5
3F3D6
  8
0
 10
1.78
 20
-1.78
 30
2.15
  0
VERTEX
  5
3F3D7
  8
0
 10
1.825
 20
-1.78
 30
2.15
  0
VERTEX
  5
3F3D8
  8
0
 10
1.825
 20
-1.81
 30
2.15
  0
VERTEX
  5
3F3D9
  8
0
 10
1.78
 20
-1.81
 30
2.15
  0
VERTEX
  5
3F3DA
  8
0
 10
1.78
 20
-1.919097
 30
2.15
  0
SEQEND
  5
3F3DB
  8
0
  0
CIRCLE
  5
3E559
  8
0
 10
1.765
 20
-1.795
 30
2.15
 40
0.125
  0
POLYLINE
  5
3E55A
  8
0
 66
     1
 10
0.0
 20
0.0
 30
2.15
  0
VERTEX
  5
3F3DC
  8
0
 10
1.75
 20
-1.670903
 30
2.15
  0
VERTEX
  5
3F3DD
  8
0
 10
1.75
 20
-1.78
 30
2.15
  0
VERTEX
  5
3F3DE
  8
0
 10
1.72
 20
-1.78
 30
2.15
  0
VERTEX
  5
3F3DF
  8
0
 10
1.72
 20
-1.81
 30
2.15
  0
VERTEX
  5
3F3E0
  8
0
 10
1.75
 20
-1.81
 30
2.15
  0
VERTEX
  5
3F3E1
  8
0
 10
1.75
 20
-1.919097
 30
2.15
  0
SEQEND
  5
3F3E2
  8
0
  0
POLYLINE
  5
3E563
  8
0
 66
     1
 10
0.0
 20
0.0
 30
2.15
  0
VERTEX
  5
3F3E3
  8
0
 10
1.045
 20
-1.670903
 30
2.15
  0
VERTEX
  5
3F3E4
  8
0
 10
1.045
 20
-1.78
 30
2.15
  0
VERTEX
  5
3F3E5
  8
0
 10
1.0
 20
-1.78
 30
2.15
  0
VERTEX
  5
3F3E6
  8
0
 10
1.0
 20
-1.81
 30
2.15
  0
VERTEX
  5
3F3E7
  8
0
 10
1.045
 20
-1.81
 30
2.15
  0
VERTEX
  5
3F3E8
  8
0
 10
1.045
 20
-1.919097
 30
2.15
  0
SEQEND
  5
3F3E9
  8
0
  0
CIRCLE
  5
3E56B
  8
0
 10
1.06
 20
-1.795
 30
2.15
 40
0.125
  0
POLYLINE
  5
3E56C
  8
0
 66
     1
 10
0.0
 20
0.0
 30
2.15
  0
VERTEX
  5
3F3EA
  8
0
 10
1.075
 20
-1.670903
 30
2.15
  0
VERTEX
  5
3F3EB
  8
0
 10
1.075
 20
-1.78
 30
2.15
  0
VERTEX
  5
3F3EC
  8
0
 10
1.105
 20
-1.78
 30
2.15
  0
VERTEX
  5
3F3ED
  8
0
 10
1.105
 20
-1.81
 30
2.15
  0
VERTEX
  5
3F3EE
  8
0
 10
1.075
 20
-1.81
 30
2.15
  0
VERTEX
  5
3F3EF
  8
0
 10
1.075
 20
-1.919097
 30
2.15
  0
SEQEND
  5
3F3F0
  8
0
  0
3DFACE
  5
3E574
  8
0
 10
0.2
 20
-2.16
 30
1.28
 11
0.52
 21
-2.16
 31
1.28
 12
0.52
 22
-2.16
 32
0.84
 13
0.2
 23
-2.16
 33
0.84
  0
3DFACE
  5
3E575
  8
0
 10
1.92
 20
-2.16
 30
1.28
 11
1.6
 21
-2.16
 31
1.28
 12
1.6
 22
-2.16
 32
0.84
 13
1.92
 23
-2.16
 33
0.84
  0
3DFACE
  5
3E576
  8
0
 10
0.9
 20
-2.16
 30
1.28
 11
1.22
 21
-2.16
 31
1.28
 12
1.22
 22
-2.16
 32
0.84
 13
0.9
 23
-2.16
 33
0.84
  0
3DFACE
  5
3E577
  8
0
 10
1.92
 20
0.67
 30
1.28
 11
1.6
 21
0.67
 31
1.28
 12
1.6
 22
0.67
 32
0.84
 13
1.92
 23
0.67
 33
0.84
  0
3DFACE
  5
3E578
  8
0
 10
0.9
 20
0.67
 30
1.28
 11
1.22
 21
0.67
 31
1.28
 12
1.22
 22
0.67
 32
0.84
 13
0.9
 23
0.67
 33
0.84
  0
3DFACE
  5
3E579
  8
0
 10
0.2
 20
0.67
 30
1.28
 11
0.52
 21
0.67
 31
1.28
 12
0.52
 22
0.67
 32
0.84
 13
0.2
 23
0.67
 33
0.84
  0
POLYLINE
  5
3E57A
  8
0
 66
     1
 10
0.0
 20
0.0
 30
2.15
  0
VERTEX
  5
3F3F1
  8
0
 10
0.34
 20
0.180903
 30
2.15
  0
VERTEX
  5
3F3F2
  8
0
 10
0.34
 20
0.29
 30
2.15
  0
VERTEX
  5
3F3F3
  8
0
 10
0.295
 20
0.29
 30
2.15
  0
VERTEX
  5
3F3F4
  8
0
 10
0.295
 20
0.32
 30
2.15
  0
VERTEX
  5
3F3F5
  8
0
 10
0.34
 20
0.32
 30
2.15
  0
VERTEX
  5
3F3F6
  8
0
 10
0.34
 20
0.429097
 30
2.15
  0
SEQEND
  5
3F3F7
  8
0
  0
CIRCLE
  5
3E582
  8
0
 10
0.355
 20
0.305
 30
2.15
 40
0.125
  0
POLYLINE
  5
3E583
  8
0
 66
     1
 10
0.0
 20
0.0
 30
2.15
  0
VERTEX
  5
3F3F8
  8
0
 10
0.37
 20
0.180903
 30
2.15
  0
VERTEX
  5
3F3F9
  8
0
 10
0.37
 20
0.29
 30
2.15
  0
VERTEX
  5
3F3FA
  8
0
 10
0.4
 20
0.29
 30
2.15
  0
VERTEX
  5
3F3FB
  8
0
 10
0.4
 20
0.32
 30
2.15
  0
VERTEX
  5
3F3FC
  8
0
 10
0.37
 20
0.32
 30
2.15
  0
VERTEX
  5
3F3FD
  8
0
 10
0.37
 20
0.429097
 30
2.15
  0
SEQEND
  5
3F3FE
  8
0
  0
CIRCLE
  5
3E58B
  8
0
 10
1.06
 20
0.305
 30
2.15
 40
0.125
  0
POLYLINE
  5
3E58C
  8
0
 66
     1
 10
0.0
 20
0.0
 30
2.15
  0
VERTEX
  5
3F3FF
  8
0
 10
1.045
 20
0.180903
 30
2.15
  0
VERTEX
  5
3F400
  8
0
 10
1.045
 20
0.29
 30
2.15
  0
VERTEX
  5
3F401
  8
0
 10
1.0
 20
0.29
 30
2.15
  0
VERTEX
  5
3F402
  8
0
 10
1.0
 20
0.32
 30
2.15
  0
VERTEX
  5
3F403
  8
0
 10
1.045
 20
0.32
 30
2.15
  0
VERTEX
  5
3F404
  8
0
 10
1.045
 20
0.429097
 30
2.15
  0
SEQEND
  5
3F405
  8
0
  0
POLYLINE
  5
3E594
  8
0
 66
     1
 10
0.0
 20
0.0
 30
2.15
  0
VERTEX
  5
3F406
  8
0
 10
1.075
 20
0.180903
 30
2.15
  0
VERTEX
  5
3F407
  8
0
 10
1.075
 20
0.29
 30
2.15
  0
VERTEX
  5
3F408
  8
0
 10
1.105
 20
0.29
 30
2.15
  0
VERTEX
  5
3F409
  8
0
 10
1.105
 20
0.32
 30
2.15
  0
VERTEX
  5
3F40A
  8
0
 10
1.075
 20
0.32
 30
2.15
  0
VERTEX
  5
3F40B
  8
0
 10
1.075
 20
0.429097
 30
2.15
  0
SEQEND
  5
3F40C
  8
0
  0
POLYLINE
  5
3E59C
  8
0
 66
     1
 10
0.0
 20
0.0
 30
2.15
  0
VERTEX
  5
3F40D
  8
0
 10
1.75
 20
0.180903
 30
2.15
  0
VERTEX
  5
3F40E
  8
0
 10
1.75
 20
0.29
 30
2.15
  0
VERTEX
  5
3F40F
  8
0
 10
1.72
 20
0.29
 30
2.15
  0
VERTEX
  5
3F410
  8
0
 10
1.72
 20
0.32
 30
2.15
  0
VERTEX
  5
3F411
  8
0
 10
1.75
 20
0.32
 30
2.15
  0
VERTEX
  5
3F412
  8
0
 10
1.75
 20
0.429097
 30
2.15
  0
SEQEND
  5
3F413
  8
0
  0
CIRCLE
  5
3E5A4
  8
0
 10
1.765
 20
0.305
 30
2.15
 40
0.125
  0
POLYLINE
  5
3E5A5
  8
0
 66
     1
 10
0.0
 20
0.0
 30
2.15
  0
VERTEX
  5
3F414
  8
0
 10
1.78
 20
0.180903
 30
2.15
  0
VERTEX
  5
3F415
  8
0
 10
1.78
 20
0.29
 30
2.15
  0
VERTEX
  5
3F416
  8
0
 10
1.825
 20
0.29
 30
2.15
  0
VERTEX
  5
3F417
  8
0
 10
1.825
 20
0.32
 30
2.15
  0
VERTEX
  5
3F418
  8
0
 10
1.78
 20
0.32
 30
2.15
  0
VERTEX
  5
3F419
  8
0
 10
1.78
 20
0.429097
 30
2.15
  0
SEQEND
  5
3F41A
  8
0
  0
POLYLINE
  5
3E5D4
  8
0
 66
     1
 10
0.0
 20
0.0
 30
2.15
  0
VERTEX
  5
3F41B
  8
0
 10
3.9
 20
0.180903
 30
2.15
  0
VERTEX
  5
3F41C
  8
0
 10
3.9
 20
0.29
 30
2.15
  0
VERTEX
  5
3F41D
  8
0
 10
3.945
 20
0.29
 30
2.15
  0
VERTEX
  5
3F41E
  8
0
 10
3.945
 20
0.32
 30
2.15
  0
VERTEX
  5
3F41F
  8
0
 10
3.9
 20
0.32
 30
2.15
  0
VERTEX
  5
3F420
  8
0
 10
3.9
 20
0.429097
 30
2.15
  0
SEQEND
  5
3F421
  8
0
  0
CIRCLE
  5
3E5D5
  8
0
 10
3.885
 20
0.305
 30
2.15
 40
0.125
  0
POLYLINE
  5
3E5D6
  8
0
 66
     1
 10
0.0
 20
0.0
 30
2.15
  0
VERTEX
  5
3F422
  8
0
 10
3.87
 20
0.180903
 30
2.15
  0
VERTEX
  5
3F423
  8
0
 10
3.87
 20
0.29
 30
2.15
  0
VERTEX
  5
3F424
  8
0
 10
3.84
 20
0.29
 30
2.15
  0
VERTEX
  5
3F425
  8
0
 10
3.84
 20
0.32
 30
2.15
  0
VERTEX
  5
3F426
  8
0
 10
3.87
 20
0.32
 30
2.15
  0
VERTEX
  5
3F427
  8
0
 10
3.87
 20
0.429097
 30
2.15
  0
SEQEND
  5
3F428
  8
0
  0
POLYLINE
  5
3E5D7
  8
0
 66
     1
 10
0.0
 20
0.0
 30
2.15
  0
VERTEX
  5
3F429
  8
0
 10
3.195
 20
0.180903
 30
2.15
  0
VERTEX
  5
3F42A
  8
0
 10
3.195
 20
0.29
 30
2.15
  0
VERTEX
  5
3F42B
  8
0
 10
3.225
 20
0.29
 30
2.15
  0
VERTEX
  5
3F42C
  8
0
 10
3.225
 20
0.32
 30
2.15
  0
VERTEX
  5
3F42D
  8
0
 10
3.195
 20
0.32
 30
2.15
  0
VERTEX
  5
3F42E
  8
0
 10
3.195
 20
0.429097
 30
2.15
  0
SEQEND
  5
3F42F
  8
0
  0
POLYLINE
  5
3E5D8
  8
0
 66
     1
 10
0.0
 20
0.0
 30
2.15
  0
VERTEX
  5
3F430
  8
0
 10
3.165
 20
0.180903
 30
2.15
  0
VERTEX
  5
3F431
  8
0
 10
3.165
 20
0.29
 30
2.15
  0
VERTEX
  5
3F432
  8
0
 10
3.12
 20
0.29
 30
2.15
  0
VERTEX
  5
3F433
  8
0
 10
3.12
 20
0.32
 30
2.15
  0
VERTEX
  5
3F434
  8
0
 10
3.165
 20
0.32
 30
2.15
  0
VERTEX
  5
3F435
  8
0
 10
3.165
 20
0.429097
 30
2.15
  0
SEQEND
  5
3F436
  8
0
  0
CIRCLE
  5
3E5D9
  8
0
 10
3.18
 20
0.305
 30
2.15
 40
0.125
  0
POLYLINE
  5
3E5DA
  8
0
 66
     1
 10
0.0
 20
0.0
 30
2.15
  0
VERTEX
  5
3F437
  8
0
 10
2.49
 20
0.180903
 30
2.15
  0
VERTEX
  5
3F438
  8
0
 10
2.49
 20
0.29
 30
2.15
  0
VERTEX
  5
3F439
  8
0
 10
2.52
 20
0.29
 30
2.15
  0
VERTEX
  5
3F43A
  8
0
 10
2.52
 20
0.32
 30
2.15
  0
VERTEX
  5
3F43B
  8
0
 10
2.49
 20
0.32
 30
2.15
  0
VERTEX
  5
3F43C
  8
0
 10
2.49
 20
0.429097
 30
2.15
  0
SEQEND
  5
3F43D
  8
0
  0
CIRCLE
  5
3E5DB
  8
0
 10
2.475
 20
0.305
 30
2.15
 40
0.125
  0
POLYLINE
  5
3E5DC
  8
0
 66
     1
 10
0.0
 20
0.0
 30
2.15
  0
VERTEX
  5
3F43E
  8
0
 10
2.46
 20
0.180903
 30
2.15
  0
VERTEX
  5
3F43F
  8
0
 10
2.46
 20
0.29
 30
2.15
  0
VERTEX
  5
3F440
  8
0
 10
2.415
 20
0.29
 30
2.15
  0
VERTEX
  5
3F441
  8
0
 10
2.415
 20
0.32
 30
2.15
  0
VERTEX
  5
3F442
  8
0
 10
2.46
 20
0.32
 30
2.15
  0
VERTEX
  5
3F443
  8
0
 10
2.46
 20
0.429097
 30
2.15
  0
SEQEND
  5
3F444
  8
0
  0
3DFACE
  5
3E5DD
  8
0
 10
2.32
 20
0.67
 30
1.28
 11
2.64
 21
0.67
 31
1.28
 12
2.64
 22
0.67
 32
0.84
 13
2.32
 23
0.67
 33
0.84
  0
3DFACE
  5
3E5DE
  8
0
 10
3.02
 20
0.67
 30
1.28
 11
3.34
 21
0.67
 31
1.28
 12
3.34
 22
0.67
 32
0.84
 13
3.02
 23
0.67
 33
0.84
  0
3DFACE
  5
3E5DF
  8
0
 10
4.04
 20
0.67
 30
1.28
 11
3.72
 21
0.67
 31
1.28
 12
3.72
 22
0.67
 32
0.84
 13
4.04
 23
0.67
 33
0.84
  0
3DFACE
  5
3E5E0
  8
0
 10
3.02
 20
-2.16
 30
1.28
 11
3.34
 21
-2.16
 31
1.28
 12
3.34
 22
-2.16
 32
0.84
 13
3.02
 23
-2.16
 33
0.84
  0
3DFACE
  5
3E5E1
  8
0
 10
4.04
 20
-2.16
 30
1.28
 11
3.72
 21
-2.16
 31
1.28
 12
3.72
 22
-2.16
 32
0.84
 13
4.04
 23
-2.16
 33
0.84
  0
3DFACE
  5
3E5E2
  8
0
 10
2.32
 20
-2.16
 30
1.28
 11
2.64
 21
-2.16
 31
1.28
 12
2.64
 22
-2.16
 32
0.84
 13
2.32
 23
-2.16
 33
0.84
  0
POLYLINE
  5
3E5E3
  8
0
 66
     1
 10
0.0
 20
0.0
 30
2.15
  0
VERTEX
  5
3F445
  8
0
 10
3.195
 20
-1.670903
 30
2.15
  0
VERTEX
  5
3F446
  8
0
 10
3.195
 20
-1.78
 30
2.15
  0
VERTEX
  5
3F447
  8
0
 10
3.225
 20
-1.78
 30
2.15
  0
VERTEX
  5
3F448
  8
0
 10
3.225
 20
-1.81
 30
2.15
  0
VERTEX
  5
3F449
  8
0
 10
3.195
 20
-1.81
 30
2.15
  0
VERTEX
  5
3F44A
  8
0
 10
3.195
 20
-1.919097
 30
2.15
  0
SEQEND
  5
3F44B
  8
0
  0
CIRCLE
  5
3E5E4
  8
0
 10
3.18
 20
-1.795
 30
2.15
 40
0.125
  0
POLYLINE
  5
3E5E5
  8
0
 66
     1
 10
0.0
 20
0.0
 30
2.15
  0
VERTEX
  5
3F44C
  8
0
 10
3.165
 20
-1.670903
 30
2.15
  0
VERTEX
  5
3F44D
  8
0
 10
3.165
 20
-1.78
 30
2.15
  0
VERTEX
  5
3F44E
  8
0
 10
3.12
 20
-1.78
 30
2.15
  0
VERTEX
  5
3F44F
  8
0
 10
3.12
 20
-1.81
 30
2.15
  0
VERTEX
  5
3F450
  8
0
 10
3.165
 20
-1.81
 30
2.15
  0
VERTEX
  5
3F451
  8
0
 10
3.165
 20
-1.919097
 30
2.15
  0
SEQEND
  5
3F452
  8
0
  0
POLYLINE
  5
3E5E6
  8
0
 66
     1
 10
0.0
 20
0.0
 30
2.15
  0
VERTEX
  5
3F453
  8
0
 10
3.87
 20
-1.670903
 30
2.15
  0
VERTEX
  5
3F454
  8
0
 10
3.87
 20
-1.78
 30
2.15
  0
VERTEX
  5
3F455
  8
0
 10
3.84
 20
-1.78
 30
2.15
  0
VERTEX
  5
3F456
  8
0
 10
3.84
 20
-1.81
 30
2.15
  0
VERTEX
  5
3F457
  8
0
 10
3.87
 20
-1.81
 30
2.15
  0
VERTEX
  5
3F458
  8
0
 10
3.87
 20
-1.919097
 30
2.15
  0
SEQEND
  5
3F459
  8
0
  0
CIRCLE
  5
3E5E7
  8
0
 10
3.885
 20
-1.795
 30
2.15
 40
0.125
  0
POLYLINE
  5
3E5E8
  8
0
 66
     1
 10
0.0
 20
0.0
 30
2.15
  0
VERTEX
  5
3F45A
  8
0
 10
3.9
 20
-1.670903
 30
2.15
  0
VERTEX
  5
3F45B
  8
0
 10
3.9
 20
-1.78
 30
2.15
  0
VERTEX
  5
3F45C
  8
0
 10
3.945
 20
-1.78
 30
2.15
  0
VERTEX
  5
3F45D
  8
0
 10
3.945
 20
-1.81
 30
2.15
  0
VERTEX
  5
3F45E
  8
0
 10
3.9
 20
-1.81
 30
2.15
  0
VERTEX
  5
3F45F
  8
0
 10
3.9
 20
-1.919097
 30
2.15
  0
SEQEND
  5
3F460
  8
0
  0
POLYLINE
  5
3E5E9
  8
0
 66
     1
 10
0.0
 20
0.0
 30
2.15
  0
VERTEX
  5
3F461
  8
0
 10
2.46
 20
-1.670903
 30
2.15
  0
VERTEX
  5
3F462
  8
0
 10
2.46
 20
-1.78
 30
2.15
  0
VERTEX
  5
3F463
  8
0
 10
2.415
 20
-1.78
 30
2.15
  0
VERTEX
  5
3F464
  8
0
 10
2.415
 20
-1.81
 30
2.15
  0
VERTEX
  5
3F465
  8
0
 10
2.46
 20
-1.81
 30
2.15
  0
VERTEX
  5
3F466
  8
0
 10
2.46
 20
-1.919097
 30
2.15
  0
SEQEND
  5
3F467
  8
0
  0
POLYLINE
  5
3E5EA
  8
0
 66
     1
 10
0.0
 20
0.0
 30
2.15
  0
VERTEX
  5
3F468
  8
0
 10
2.49
 20
-1.670903
 30
2.15
  0
VERTEX
  5
3F469
  8
0
 10
2.49
 20
-1.78
 30
2.15
  0
VERTEX
  5
3F46A
  8
0
 10
2.52
 20
-1.78
 30
2.15
  0
VERTEX
  5
3F46B
  8
0
 10
2.52
 20
-1.81
 30
2.15
  0
VERTEX
  5
3F46C
  8
0
 10
2.49
 20
-1.81
 30
2.15
  0
VERTEX
  5
3F46D
  8
0
 10
2.49
 20
-1.919097
 30
2.15
  0
SEQEND
  5
3F46E
  8
0
  0
CIRCLE
  5
3E5EB
  8
0
 10
2.475
 20
-1.795
 30
2.15
 40
0.125
  0
3DFACE
  5
3E5EE
  8
0
 10
4.24
 20
-0.62
 30
0.97
 11
4.24
 21
-0.87
 31
0.97
 12
4.24
 22
-0.87
 32
1.14
 13
4.24
 23
-0.62
 33
1.14
  0
3DFACE
  5
3E5EF
  8
0
 10
4.24
 20
-0.62
 30
1.45
 11
4.24
 21
-0.87
 31
1.45
 12
4.24
 22
-0.87
 32
0.85
 13
4.24
 23
-0.62
 33
0.85
  0
CIRCLE
  5
3E5F0
  8
0
 10
3.58
 20
0.81
 30
0.15
 40
0.09
  0
POLYLINE
  5
3E606
  8
0
 66
     1
 10
0.0
 20
0.0
 30
2.9
 70
     1
  0
VERTEX
  5
3F46F
  8
0
 10
3.356068
 20
-0.85
 30
2.9
  0
VERTEX
  5
3F470
  8
0
 10
3.45
 20
-0.85
 30
2.9
 42
0.414214
  0
VERTEX
  5
3F471
  8
0
 10
3.5
 20
-0.8
 30
2.9
  0
VERTEX
  5
3F472
  8
0
 10
3.5
 20
-0.69
 30
2.9
 42
0.414214
  0
VERTEX
  5
3F473
  8
0
 10
3.45
 20
-0.64
 30
2.9
  0
VERTEX
  5
3F474
  8
0
 10
3.356068
 20
-0.64
 30
2.9
 42
0.443094
  0
VERTEX
  5
3F475
  8
0
 10
3.058345
 20
-0.58
 30
2.9
  0
VERTEX
  5
3F476
  8
0
 10
2.91
 20
-0.58
 30
2.9
 42
0.414214
  0
VERTEX
  5
3F477
  8
0
 10
2.86
 20
-0.63
 30
2.9
  0
VERTEX
  5
3F478
  8
0
 10
2.86
 20
-0.86
 30
2.9
 42
0.414214
  0
VERTEX
  5
3F479
  8
0
 10
2.91
 20
-0.91
 30
2.9
  0
VERTEX
  5
3F47A
  8
0
 10
3.058345
 20
-0.91
 30
2.9
 42
0.443094
  0
SEQEND
  5
3F47B
  8
0
  0
POLYLINE
  5
3E61D
  8
0
 66
     1
 10
0.0
 20
0.0
 30
0.0
 70
    16
 71
     6
 72
     3
  0
VERTEX
  5
3E61E
  8
0
 10
3.78
 20
-0.005
 30
2.15
 70
    64
  0
VERTEX
  5
3E61F
  8
0
 10
3.78
 20
-0.005
 30
2.15
 70
    64
  0
VERTEX
  5
3E620
  8
0
 10
3.78
 20
-0.005
 30
2.15
 70
    64
  0
VERTEX
  5
3E621
  8
0
 10
4.24
 20
0.33
 30
2.15
 70
    64
  0
VERTEX
  5
3E622
  8
0
 10
4.24
 20
-0.005
 30
2.15
 70
    64
  0
VERTEX
  5
3E623
  8
0
 10
4.24
 20
-0.005
 30
2.15
 70
    64
  0
VERTEX
  5
3E624
  8
0
 10
4.24
 20
0.33
 30
2.9
 70
    64
  0
VERTEX
  5
3E625
  8
0
 10
4.24
 20
-0.005
 30
2.9
 70
    64
  0
VERTEX
  5
3E626
  8
0
 10
4.24
 20
-0.005
 30
2.15
 70
    64
  0
VERTEX
  5
3E627
  8
0
 10
3.78
 20
-0.005
 30
2.9
 70
    64
  0
VERTEX
  5
3E628
  8
0
 10
3.78
 20
-0.005
 30
2.9
 70
    64
  0
VERTEX
  5
3E629
  8
0
 10
3.78
 20
-0.005
 30
2.15
 70
    64
  0
VERTEX
  5
3E62A
  8
0
 10
3.78
 20
-0.005
 30
2.9
 70
    64
  0
VERTEX
  5
3E62B
  8
0
 10
3.78
 20
-0.005
 30
2.9
 70
    64
  0
VERTEX
  5
3E62C
  8
0
 10
3.78
 20
-0.005
 30
2.15
 70
    64
  0
VERTEX
  5
3E62D
  8
0
 10
4.24
 20
0.33
 30
2.9
 70
    64
  0
VERTEX
  5
3E62E
  8
0
 10
4.24
 20
0.33
 30
2.9
 70
    64
  0
VERTEX
  5
3E62F
  8
0
 10
4.24
 20
0.33
 30
2.15
 70
    64
  0
SEQEND
  5
3E630
  8
0
  0
POLYLINE
  5
3E631
  8
0
 66
     1
 10
0.0
 20
0.0
 30
0.0
 70
    16
 71
     6
 72
     3
  0
VERTEX
  5
3E632
  8
0
 10
3.78
 20
-0.005
 30
2.9
 70
    64
  0
VERTEX
  5
3E633
  8
0
 10
3.78
 20
-0.005
 30
2.15
 70
    64
  0
VERTEX
  5
3E634
  8
0
 10
3.78
 20
-0.005
 30
2.15
 70
    64
  0
VERTEX
  5
3E635
  8
0
 10
4.24
 20
-0.005
 30
2.9
 70
    64
  0
VERTEX
  5
3E636
  8
0
 10
4.24
 20
-0.005
 30
2.15
 70
    64
  0
VERTEX
  5
3E637
  8
0
 10
4.24
 20
-0.005
 30
2.15
 70
    64
  0
VERTEX
  5
3E638
  8
0
 10
4.24
 20
-0.105
 30
2.9
 70
    64
  0
VERTEX
  5
3E639
  8
0
 10
4.24
 20
-0.105
 30
2.15
 70
    64
  0
VERTEX
  5
3E63A
  8
0
 10
4.24
 20
-0.005
 30
2.15
 70
    64
  0
VERTEX
  5
3E63B
  8
0
 10
3.78
 20
-0.105
 30
2.9
 70
    64
  0
VERTEX
  5
3E63C
  8
0
 10
3.78
 20
-0.105
 30
2.15
 70
    64
  0
VERTEX
  5
3E63D
  8
0
 10
3.78
 20
-0.005
 30
2.15
 70
    64
  0
VERTEX
  5
3E63E
  8
0
 10
3.78
 20
-0.105
 30
2.9
 70
    64
  0
VERTEX
  5
3E63F
  8
0
 10
3.78
 20
-0.105
 30
2.9
 70
    64
  0
VERTEX
  5
3E640
  8
0
 10
3.78
 20
-0.005
 30
2.9
 70
    64
  0
VERTEX
  5
3E641
  8
0
 10
4.24
 20
-0.105
 30
2.9
 70
    64
  0
VERTEX
  5
3E642
  8
0
 10
4.24
 20
-0.105
 30
2.9
 70
    64
  0
VERTEX
  5
3E643
  8
0
 10
4.24
 20
-0.005
 30
2.9
 70
    64
  0
SEQEND
  5
3E644
  8
0
  0
POLYLINE
  5
3E645
  8
0
 66
     1
 10
0.0
 20
0.0
 30
0.0
 70
    16
 71
     6
 72
     3
  0
VERTEX
  5
3E646
  8
0
 10
2.58
 20
-0.005
 30
2.15
 70
    64
  0
VERTEX
  5
3E647
  8
0
 10
2.58
 20
-0.005
 30
2.15
 70
    64
  0
VERTEX
  5
3E648
  8
0
 10
2.58
 20
-0.005
 30
2.15
 70
    64
  0
VERTEX
  5
3E649
  8
0
 10
2.12
 20
0.33
 30
2.15
 70
    64
  0
VERTEX
  5
3E64A
  8
0
 10
2.12
 20
-0.005
 30
2.15
 70
    64
  0
VERTEX
  5
3E64B
  8
0
 10
2.12
 20
-0.005
 30
2.15
 70
    64
  0
VERTEX
  5
3E64C
  8
0
 10
2.12
 20
0.33
 30
2.9
 70
    64
  0
VERTEX
  5
3E64D
  8
0
 10
2.12
 20
-0.005
 30
2.9
 70
    64
  0
VERTEX
  5
3E64E
  8
0
 10
2.12
 20
-0.005
 30
2.15
 70
    64
  0
VERTEX
  5
3E64F
  8
0
 10
2.58
 20
-0.005
 30
2.9
 70
    64
  0
VERTEX
  5
3E650
  8
0
 10
2.58
 20
-0.005
 30
2.9
 70
    64
  0
VERTEX
  5
3E651
  8
0
 10
2.58
 20
-0.005
 30
2.15
 70
    64
  0
VERTEX
  5
3E652
  8
0
 10
2.58
 20
-0.005
 30
2.9
 70
    64
  0
VERTEX
  5
3E653
  8
0
 10
2.58
 20
-0.005
 30
2.9
 70
    64
  0
VERTEX
  5
3E654
  8
0
 10
2.58
 20
-0.005
 30
2.15
 70
    64
  0
VERTEX
  5
3E655
  8
0
 10
2.12
 20
0.33
 30
2.9
 70
    64
  0
VERTEX
  5
3E656
  8
0
 10
2.12
 20
0.33
 30
2.9
 70
    64
  0
VERTEX
  5
3E657
  8
0
 10
2.12
 20
0.33
 30
2.15
 70
    64
  0
SEQEND
  5
3E658
  8
0
  0
POLYLINE
  5
3E659
  8
0
 66
     1
 10
0.0
 20
0.0
 30
0.0
 70
    16
 71
     6
 72
     3
  0
VERTEX
  5
3E65A
  8
0
 10
2.58
 20
-0.005
 30
2.9
 70
    64
  0
VERTEX
  5
3E65B
  8
0
 10
2.58
 20
-0.005
 30
2.15
 70
    64
  0
VERTEX
  5
3E65C
  8
0
 10
2.58
 20
-0.005
 30
2.15
 70
    64
  0
VERTEX
  5
3E65D
  8
0
 10
2.12
 20
-0.005
 30
2.9
 70
    64
  0
VERTEX
  5
3E65E
  8
0
 10
2.12
 20
-0.005
 30
2.15
 70
    64
  0
VERTEX
  5
3E65F
  8
0
 10
2.12
 20
-0.005
 30
2.15
 70
    64
  0
VERTEX
  5
3E660
  8
0
 10
2.12
 20
-0.105
 30
2.9
 70
    64
  0
VERTEX
  5
3E661
  8
0
 10
2.12
 20
-0.105
 30
2.15
 70
    64
  0
VERTEX
  5
3E662
  8
0
 10
2.12
 20
-0.005
 30
2.15
 70
    64
  0
VERTEX
  5
3E663
  8
0
 10
2.58
 20
-0.105
 30
2.9
 70
    64
  0
VERTEX
  5
3E664
  8
0
 10
2.58
 20
-0.105
 30
2.15
 70
    64
  0
VERTEX
  5
3E665
  8
0
 10
2.58
 20
-0.005
 30
2.15
 70
    64
  0
VERTEX
  5
3E666
  8
0
 10
2.58
 20
-0.105
 30
2.9
 70
    64
  0
VERTEX
  5
3E667
  8
0
 10
2.58
 20
-0.105
 30
2.9
 70
    64
  0
VERTEX
  5
3E668
  8
0
 10
2.58
 20
-0.005
 30
2.9
 70
    64
  0
VERTEX
  5
3E669
  8
0
 10
2.12
 20
-0.105
 30
2.9
 70
    64
  0
VERTEX
  5
3E66A
  8
0
 10
2.12
 20
-0.105
 30
2.9
 70
    64
  0
VERTEX
  5
3E66B
  8
0
 10
2.12
 20
-0.005
 30
2.9
 70
    64
  0
SEQEND
  5
3E66C
  8
0
  0
POLYLINE
  5
3E66D
  8
0
 66
     1
 10
0.0
 20
0.0
 30
0.0
 70
    16
 71
     6
 72
     3
  0
VERTEX
  5
3E66E
  8
0
 10
3.78
 20
-1.485
 30
2.15
 70
    64
  0
VERTEX
  5
3E66F
  8
0
 10
3.78
 20
-1.485
 30
2.15
 70
    64
  0
VERTEX
  5
3E670
  8
0
 10
3.78
 20
-1.485
 30
2.15
 70
    64
  0
VERTEX
  5
3E671
  8
0
 10
4.24
 20
-1.82
 30
2.15
 70
    64
  0
VERTEX
  5
3E672
  8
0
 10
4.24
 20
-1.485
 30
2.15
 70
    64
  0
VERTEX
  5
3E673
  8
0
 10
4.24
 20
-1.485
 30
2.15
 70
    64
  0
VERTEX
  5
3E674
  8
0
 10
4.24
 20
-1.82
 30
2.9
 70
    64
  0
VERTEX
  5
3E675
  8
0
 10
4.24
 20
-1.485
 30
2.9
 70
    64
  0
VERTEX
  5
3E676
  8
0
 10
4.24
 20
-1.485
 30
2.15
 70
    64
  0
VERTEX
  5
3E677
  8
0
 10
3.78
 20
-1.485
 30
2.9
 70
    64
  0
VERTEX
  5
3E678
  8
0
 10
3.78
 20
-1.485
 30
2.9
 70
    64
  0
VERTEX
  5
3E679
  8
0
 10
3.78
 20
-1.485
 30
2.15
 70
    64
  0
VERTEX
  5
3E67A
  8
0
 10
3.78
 20
-1.485
 30
2.9
 70
    64
  0
VERTEX
  5
3E67B
  8
0
 10
3.78
 20
-1.485
 30
2.9
 70
    64
  0
VERTEX
  5
3E67C
  8
0
 10
3.78
 20
-1.485
 30
2.15
 70
    64
  0
VERTEX
  5
3E67D
  8
0
 10
4.24
 20
-1.82
 30
2.9
 70
    64
  0
VERTEX
  5
3E67E
  8
0
 10
4.24
 20
-1.82
 30
2.9
 70
    64
  0
VERTEX
  5
3E67F
  8
0
 10
4.24
 20
-1.82
 30
2.15
 70
    64
  0
SEQEND
  5
3E680
  8
0
  0
POLYLINE
  5
3E681
  8
0
 66
     1
 10
0.0
 20
0.0
 30
0.0
 70
    16
 71
     6
 72
     3
  0
VERTEX
  5
3E682
  8
0
 10
3.78
 20
-1.485
 30
2.9
 70
    64
  0
VERTEX
  5
3E683
  8
0
 10
3.78
 20
-1.485
 30
2.15
 70
    64
  0
VERTEX
  5
3E684
  8
0
 10
3.78
 20
-1.485
 30
2.15
 70
    64
  0
VERTEX
  5
3E685
  8
0
 10
4.24
 20
-1.485
 30
2.9
 70
    64
  0
VERTEX
  5
3E686
  8
0
 10
4.24
 20
-1.485
 30
2.15
 70
    64
  0
VERTEX
  5
3E687
  8
0
 10
4.24
 20
-1.485
 30
2.15
 70
    64
  0
VERTEX
  5
3E688
  8
0
 10
4.24
 20
-1.385
 30
2.9
 70
    64
  0
VERTEX
  5
3E689
  8
0
 10
4.24
 20
-1.385
 30
2.15
 70
    64
  0
VERTEX
  5
3E68A
  8
0
 10
4.24
 20
-1.485
 30
2.15
 70
    64
  0
VERTEX
  5
3E68B
  8
0
 10
3.78
 20
-1.385
 30
2.9
 70
    64
  0
VERTEX
  5
3E68C
  8
0
 10
3.78
 20
-1.385
 30
2.15
 70
    64
  0
VERTEX
  5
3E68D
  8
0
 10
3.78
 20
-1.485
 30
2.15
 70
    64
  0
VERTEX
  5
3E68E
  8
0
 10
3.78
 20
-1.385
 30
2.9
 70
    64
  0
VERTEX
  5
3E68F
  8
0
 10
3.78
 20
-1.385
 30
2.9
 70
    64
  0
VERTEX
  5
3E690
  8
0
 10
3.78
 20
-1.485
 30
2.9
 70
    64
  0
VERTEX
  5
3E691
  8
0
 10
4.24
 20
-1.385
 30
2.9
 70
    64
  0
VERTEX
  5
3E692
  8
0
 10
4.24
 20
-1.385
 30
2.9
 70
    64
  0
VERTEX
  5
3E693
  8
0
 10
4.24
 20
-1.485
 30
2.9
 70
    64
  0
SEQEND
  5
3E694
  8
0
  0
POLYLINE
  5
3E695
  8
0
 66
     1
 10
0.0
 20
0.0
 30
0.0
 70
    16
 71
     6
 72
     3
  0
VERTEX
  5
3E696
  8
0
 10
2.58
 20
-1.485
 30
2.15
 70
    64
  0
VERTEX
  5
3E697
  8
0
 10
2.58
 20
-1.485
 30
2.15
 70
    64
  0
VERTEX
  5
3E698
  8
0
 10
2.58
 20
-1.485
 30
2.15
 70
    64
  0
VERTEX
  5
3E699
  8
0
 10
2.12
 20
-1.82
 30
2.15
 70
    64
  0
VERTEX
  5
3E69A
  8
0
 10
2.12
 20
-1.485
 30
2.15
 70
    64
  0
VERTEX
  5
3E69B
  8
0
 10
2.12
 20
-1.485
 30
2.15
 70
    64
  0
VERTEX
  5
3E69C
  8
0
 10
2.12
 20
-1.82
 30
2.9
 70
    64
  0
VERTEX
  5
3E69D
  8
0
 10
2.12
 20
-1.485
 30
2.9
 70
    64
  0
VERTEX
  5
3E69E
  8
0
 10
2.12
 20
-1.485
 30
2.15
 70
    64
  0
VERTEX
  5
3E69F
  8
0
 10
2.58
 20
-1.485
 30
2.9
 70
    64
  0
VERTEX
  5
3E6A0
  8
0
 10
2.58
 20
-1.485
 30
2.9
 70
    64
  0
VERTEX
  5
3E6A1
  8
0
 10
2.58
 20
-1.485
 30
2.15
 70
    64
  0
VERTEX
  5
3E6A2
  8
0
 10
2.58
 20
-1.485
 30
2.9
 70
    64
  0
VERTEX
  5
3E6A3
  8
0
 10
2.58
 20
-1.485
 30
2.9
 70
    64
  0
VERTEX
  5
3E6A4
  8
0
 10
2.58
 20
-1.485
 30
2.15
 70
    64
  0
VERTEX
  5
3E6A5
  8
0
 10
2.12
 20
-1.82
 30
2.9
 70
    64
  0
VERTEX
  5
3E6A6
  8
0
 10
2.12
 20
-1.82
 30
2.9
 70
    64
  0
VERTEX
  5
3E6A7
  8
0
 10
2.12
 20
-1.82
 30
2.15
 70
    64
  0
SEQEND
  5
3E6A8
  8
0
  0
POLYLINE
  5
3E6A9
  8
0
 66
     1
 10
0.0
 20
0.0
 30
0.0
 70
    16
 71
     6
 72
     3
  0
VERTEX
  5
3E6AA
  8
0
 10
2.58
 20
-1.485
 30
2.9
 70
    64
  0
VERTEX
  5
3E6AB
  8
0
 10
2.58
 20
-1.485
 30
2.15
 70
    64
  0
VERTEX
  5
3E6AC
  8
0
 10
2.58
 20
-1.485
 30
2.15
 70
    64
  0
VERTEX
  5
3E6AD
  8
0
 10
2.12
 20
-1.485
 30
2.9
 70
    64
  0
VERTEX
  5
3E6AE
  8
0
 10
2.12
 20
-1.485
 30
2.15
 70
    64
  0
VERTEX
  5
3E6AF
  8
0
 10
2.12
 20
-1.485
 30
2.15
 70
    64
  0
VERTEX
  5
3E6B0
  8
0
 10
2.12
 20
-1.385
 30
2.9
 70
    64
  0
VERTEX
  5
3E6B1
  8
0
 10
2.12
 20
-1.385
 30
2.15
 70
    64
  0
VERTEX
  5
3E6B2
  8
0
 10
2.12
 20
-1.485
 30
2.15
 70
    64
  0
VERTEX
  5
3E6B3
  8
0
 10
2.58
 20
-1.385
 30
2.9
 70
    64
  0
VERTEX
  5
3E6B4
  8
0
 10
2.58
 20
-1.385
 30
2.15
 70
    64
  0
VERTEX
  5
3E6B5
  8
0
 10
2.58
 20
-1.485
 30
2.15
 70
    64
  0
VERTEX
  5
3E6B6
  8
0
 10
2.58
 20
-1.385
 30
2.9
 70
    64
  0
VERTEX
  5
3E6B7
  8
0
 10
2.58
 20
-1.385
 30
2.9
 70
    64
  0
VERTEX
  5
3E6B8
  8
0
 10
2.58
 20
-1.485
 30
2.9
 70
    64
  0
VERTEX
  5
3E6B9
  8
0
 10
2.12
 20
-1.385
 30
2.9
 70
    64
  0
VERTEX
  5
3E6BA
  8
0
 10
2.12
 20
-1.385
 30
2.9
 70
    64
  0
VERTEX
  5
3E6BB
  8
0
 10
2.12
 20
-1.485
 30
2.9
 70
    64
  0
SEQEND
  5
3E6BC
  8
0
  0
POLYLINE
  5
3E6BD
  8
0
 66
     1
 10
0.0
 20
0.0
 30
0.0
 70
    16
 71
     6
 72
     3
  0
VERTEX
  5
3E6BE
  8
0
 10
4.24
 20
-1.385
 30
2.9
 70
    64
  0
VERTEX
  5
3E6BF
  8
0
 10
4.24
 20
-1.385
 30
2.15
 70
    64
  0
VERTEX
  5
3E6C0
  8
0
 10
4.24
 20
-1.385
 30
2.15
 70
    64
  0
VERTEX
  5
3E6C1
  8
0
 10
2.12
 20
-1.385
 30
2.9
 70
    64
  0
VERTEX
  5
3E6C2
  8
0
 10
2.12
 20
-1.385
 30
2.15
 70
    64
  0
VERTEX
  5
3E6C3
  8
0
 10
2.12
 20
-1.385
 30
2.15
 70
    64
  0
VERTEX
  5
3E6C4
  8
0
 10
2.12
 20
-0.105
 30
2.9
 70
    64
  0
VERTEX
  5
3E6C5
  8
0
 10
2.12
 20
-0.105
 30
2.15
 70
    64
  0
VERTEX
  5
3E6C6
  8
0
 10
2.12
 20
-1.385
 30
2.15
 70
    64
  0
VERTEX
  5
3E6C7
  8
0
 10
4.24
 20
-0.105
 30
2.9
 70
    64
  0
VERTEX
  5
3E6C8
  8
0
 10
4.24
 20
-0.105
 30
2.15
 70
    64
  0
VERTEX
  5
3E6C9
  8
0
 10
4.24
 20
-1.385
 30
2.15
 70
    64
  0
VERTEX
  5
3E6CA
  8
0
 10
4.24
 20
-0.105
 30
2.9
 70
    64
  0
VERTEX
  5
3E6CB
  8
0
 10
4.24
 20
-0.105
 30
2.9
 70
    64
  0
VERTEX
  5
3E6CC
  8
0
 10
4.24
 20
-1.385
 30
2.9
 70
    64
  0
VERTEX
  5
3E6CD
  8
0
 10
2.12
 20
-0.105
 30
2.9
 70
    64
  0
VERTEX
  5
3E6CE
  8
0
 10
2.12
 20
-0.105
 30
2.9
 70
    64
  0
VERTEX
  5
3E6CF
  8
0
 10
2.12
 20
-1.385
 30
2.9
 70
    64
  0
SEQEND
  5
3E6D0
  8
0
  0
POLYLINE
  5
3E6D1
  8
0
 66
     1
 10
0.0
 20
0.0
 30
0.0
 70
    16
 71
     6
 72
     3
  0
VERTEX
  5
3E6D2
  8
0
 10
4.24
 20
0.0
 30
0.2
 70
    64
  0
VERTEX
  5
3E6D3
  8
0
 10
4.24
 20
0.0
 30
0.0
 70
    64
  0
VERTEX
  5
3E6D4
  8
0
 10
4.24
 20
0.0
 30
0.0
 70
    64
  0
VERTEX
  5
3E6D5
  8
0
 10
2.12
 20
0.0
 30
0.2
 70
    64
  0
VERTEX
  5
3E6D6
  8
0
 10
2.12
 20
0.0
 30
0.0
 70
    64
  0
VERTEX
  5
3E6D7
  8
0
 10
2.12
 20
0.0
 30
0.0
 70
    64
  0
VERTEX
  5
3E6D8
  8
0
 10
2.12
 20
0.67
 30
0.2
 70
    64
  0
VERTEX
  5
3E6D9
  8
0
 10
2.12
 20
0.67
 30
0.0
 70
    64
  0
VERTEX
  5
3E6DA
  8
0
 10
2.12
 20
0.0
 30
0.0
 70
    64
  0
VERTEX
  5
3E6DB
  8
0
 10
4.24
 20
0.67
 30
0.2
 70
    64
  0
VERTEX
  5
3E6DC
  8
0
 10
4.24
 20
0.67
 30
0.0
 70
    64
  0
VERTEX
  5
3E6DD
  8
0
 10
4.24
 20
0.0
 30
0.0
 70
    64
  0
VERTEX
  5
3E6DE
  8
0
 10
4.24
 20
0.67
 30
0.2
 70
    64
  0
VERTEX
  5
3E6DF
  8
0
 10
4.24
 20
0.67
 30
0.2
 70
    64
  0
VERTEX
  5
3E6E0
  8
0
 10
4.24
 20
0.0
 30
0.2
 70
    64
  0
VERTEX
  5
3E6E1
  8
0
 10
2.12
 20
0.67
 30
0.2
 70
    64
  0
VERTEX
  5
3E6E2
  8
0
 10
2.12
 20
0.67
 30
0.2
 70
    64
  0
VERTEX
  5
3E6E3
  8
0
 10
2.12
 20
0.0
 30
0.2
 70
    64
  0
SEQEND
  5
3E6E4
  8
0
  0
POLYLINE
  5
3E6E5
  8
0
 66
     1
 10
0.0
 20
0.0
 30
0.0
 70
    16
 71
     6
 72
     3
  0
VERTEX
  5
3E6E6
  8
0
 10
4.24
 20
-2.16
 30
2.15
 70
    64
  0
VERTEX
  5
3E6E7
  8
0
 10
4.24
 20
-2.16
 30
0.2
 70
    64
  0
VERTEX
  5
3E6E8
  8
0
 10
4.24
 20
-2.16
 30
0.2
 70
    64
  0
VERTEX
  5
3E6E9
  8
0
 10
2.12
 20
-2.16
 30
2.15
 70
    64
  0
VERTEX
  5
3E6EA
  8
0
 10
2.12
 20
-2.16
 30
0.2
 70
    64
  0
VERTEX
  5
3E6EB
  8
0
 10
2.12
 20
-2.16
 30
0.2
 70
    64
  0
VERTEX
  5
3E6EC
  8
0
 10
2.12
 20
0.67
 30
2.15
 70
    64
  0
VERTEX
  5
3E6ED
  8
0
 10
2.12
 20
0.67
 30
0.2
 70
    64
  0
VERTEX
  5
3E6EE
  8
0
 10
2.12
 20
-2.16
 30
0.2
 70
    64
  0
VERTEX
  5
3E6EF
  8
0
 10
4.24
 20
0.67
 30
2.15
 70
    64
  0
VERTEX
  5
3E6F0
  8
0
 10
4.24
 20
0.67
 30
0.2
 70
    64
  0
VERTEX
  5
3E6F1
  8
0
 10
4.24
 20
-2.16
 30
0.2
 70
    64
  0
VERTEX
  5
3E6F2
  8
0
 10
4.24
 20
0.67
 30
2.15
 70
    64
  0
VERTEX
  5
3E6F3
  8
0
 10
4.24
 20
0.67
 30
2.15
 70
    64
  0
VERTEX
  5
3E6F4
  8
0
 10
4.24
 20
-2.16
 30
2.15
 70
    64
  0
VERTEX
  5
3E6F5
  8
0
 10
2.12
 20
0.67
 30
2.15
 70
    64
  0
VERTEX
  5
3E6F6
  8
0
 10
2.12
 20
0.67
 30
2.15
 70
    64
  0
VERTEX
  5
3E6F7
  8
0
 10
2.12
 20
-2.16
 30
2.15
 70
    64
  0
SEQEND
  5
3E6F8
  8
0
  0
POLYLINE
  5
3E6F9
  8
0
 66
     1
 10
0.0
 20
0.0
 30
0.0
 70
    16
 71
     6
 72
     3
  0
VERTEX
  5
3E6FA
  8
0
 10
4.24
 20
-2.16
 30
0.2
 70
    64
  0
VERTEX
  5
3E6FB
  8
0
 10
4.24
 20
-2.16
 30
0.0
 70
    64
  0
VERTEX
  5
3E6FC
  8
0
 10
4.24
 20
-2.16
 30
0.0
 70
    64
  0
VERTEX
  5
3E6FD
  8
0
 10
2.12
 20
-2.16
 30
0.2
 70
    64
  0
VERTEX
  5
3E6FE
  8
0
 10
2.12
 20
-2.16
 30
0.0
 70
    64
  0
VERTEX
  5
3E6FF
  8
0
 10
2.12
 20
-2.16
 30
0.0
 70
    64
  0
VERTEX
  5
3E700
  8
0
 10
2.12
 20
-1.39
 30
0.2
 70
    64
  0
VERTEX
  5
3E701
  8
0
 10
2.12
 20
-1.39
 30
0.0
 70
    64
  0
VERTEX
  5
3E702
  8
0
 10
2.12
 20
-2.16
 30
0.0
 70
    64
  0
VERTEX
  5
3E703
  8
0
 10
4.24
 20
-1.39
 30
0.2
 70
    64
  0
VERTEX
  5
3E704
  8
0
 10
4.24
 20
-1.39
 30
0.0
 70
    64
  0
VERTEX
  5
3E705
  8
0
 10
4.24
 20
-2.16
 30
0.0
 70
    64
  0
VERTEX
  5
3E706
  8
0
 10
4.24
 20
-1.39
 30
0.2
 70
    64
  0
VERTEX
  5
3E707
  8
0
 10
4.24
 20
-1.39
 30
0.2
 70
    64
  0
VERTEX
  5
3E708
  8
0
 10
4.24
 20
-2.16
 30
0.2
 70
    64
  0
VERTEX
  5
3E709
  8
0
 10
2.12
 20
-1.39
 30
0.2
 70
    64
  0
VERTEX
  5
3E70A
  8
0
 10
2.12
 20
-1.39
 30
0.2
 70
    64
  0
VERTEX
  5
3E70B
  8
0
 10
2.12
 20
-2.16
 30
0.2
 70
    64
  0
SEQEND
  5
3E70C
  8
0
  0
LINE
  5
3E724
  8
DIMS-MTG-HOLES
  6
CONTINUOUS
 10
3.58
 20
0.72
 30
0.0
 11
3.58
 21
0.9
 31
0.0
  0
CIRCLE
  5
3E725
  8
0
 10
3.58
 20
0.81
 30
0.0
 40
0.09
  0
LINE
  5
3E726
  8
DIMS-MTG-HOLES
  6
CONTINUOUS
 10
3.49
 20
0.81
 30
0.0
 11
3.67
 21
0.81
 31
0.0
  0
POLYLINE
  5
3E727
  8
0
 66
     1
 10
0.0
 20
0.0
 30
0.0
 70
    16
 71
     6
 72
     3
  0
VERTEX
  5
3E728
  8
0
 10
3.77
 20
0.67
 30
0.15
 70
    64
  0
VERTEX
  5
3E729
  8
0
 10
3.77
 20
0.67
 30
0.0
 70
    64
  0
VERTEX
  5
3E72A
  8
0
 10
3.77
 20
0.67
 30
0.0
 70
    64
  0
VERTEX
  5
3E72B
  8
0
 10
3.39
 20
0.67
 30
0.15
 70
    64
  0
VERTEX
  5
3E72C
  8
0
 10
3.39
 20
0.67
 30
0.0
 70
    64
  0
VERTEX
  5
3E72D
  8
0
 10
3.39
 20
0.67
 30
0.0
 70
    64
  0
VERTEX
  5
3E72E
  8
0
 10
3.39
 20
0.95
 30
0.15
 70
    64
  0
VERTEX
  5
3E72F
  8
0
 10
3.39
 20
0.95
 30
0.0
 70
    64
  0
VERTEX
  5
3E730
  8
0
 10
3.39
 20
0.67
 30
0.0
 70
    64
  0
VERTEX
  5
3E731
  8
0
 10
3.77
 20
0.95
 30
0.15
 70
    64
  0
VERTEX
  5
3E732
  8
0
 10
3.77
 20
0.95
 30
0.0
 70
    64
  0
VERTEX
  5
3E733
  8
0
 10
3.77
 20
0.67
 30
0.0
 70
    64
  0
VERTEX
  5
3E734
  8
0
 10
3.77
 20
0.95
 30
0.15
 70
    64
  0
VERTEX
  5
3E735
  8
0
 10
3.77
 20
0.95
 30
0.15
 70
    64
  0
VERTEX
  5
3E736
  8
0
 10
3.77
 20
0.67
 30
0.15
 70
    64
  0
VERTEX
  5
3E737
  8
0
 10
3.39
 20
0.95
 30
0.15
 70
    64
  0
VERTEX
  5
3E738
  8
0
 10
3.39
 20
0.95
 30
0.15
 70
    64
  0
VERTEX
  5
3E739
  8
0
 10
3.39
 20
0.67
 30
0.15
 70
    64
  0
SEQEND
  5
3E73A
  8
0
  0
LINE
  5
3E73B
  8
DIMS-MTG-HOLES
  6
CONTINUOUS
 10
2.78
 20
-2.39
 30
0.0
 11
2.78
 21
-2.21
 31
0.0
  0
LINE
  5
3E73C
  8
DIMS-MTG-HOLES
  6
CONTINUOUS
 10
2.69
 20
-2.3
 30
0.0
 11
2.87
 21
-2.3
 31
0.0
  0
CIRCLE
  5
3E73D
  8
0
 10
2.78
 20
-2.3
 30
0.0
 40
0.09
  0
CIRCLE
  5
3E73E
  8
0
 10
2.78
 20
-2.3
 30
0.15
 40
0.09
  0
POLYLINE
  5
3E73F
  8
0
 66
     1
 10
0.0
 20
0.0
 30
0.0
 70
    16
 71
     6
 72
     3
  0
VERTEX
  5
3E740
  8
0
 10
2.97
 20
-2.44
 30
0.15
 70
    64
  0
VERTEX
  5
3E741
  8
0
 10
2.97
 20
-2.44
 30
0.0
 70
    64
  0
VERTEX
  5
3E742
  8
0
 10
2.97
 20
-2.44
 30
0.0
 70
    64
  0
VERTEX
  5
3E743
  8
0
 10
2.59
 20
-2.44
 30
0.15
 70
    64
  0
VERTEX
  5
3E744
  8
0
 10
2.59
 20
-2.44
 30
0.0
 70
    64
  0
VERTEX
  5
3E745
  8
0
 10
2.59
 20
-2.44
 30
0.0
 70
    64
  0
VERTEX
  5
3E746
  8
0
 10
2.59
 20
-2.16
 30
0.15
 70
    64
  0
VERTEX
  5
3E747
  8
0
 10
2.59
 20
-2.16
 30
0.0
 70
    64
  0
VERTEX
  5
3E748
  8
0
 10
2.59
 20
-2.44
 30
0.0
 70
    64
  0
VERTEX
  5
3E749
  8
0
 10
2.97
 20
-2.16
 30
0.15
 70
    64
  0
VERTEX
  5
3E74A
  8
0
 10
2.97
 20
-2.16
 30
0.0
 70
    64
  0
VERTEX
  5
3E74B
  8
0
 10
2.97
 20
-2.44
 30
0.0
 70
    64
  0
VERTEX
  5
3E74C
  8
0
 10
2.97
 20
-2.16
 30
0.15
 70
    64
  0
VERTEX
  5
3E74D
  8
0
 10
2.97
 20
-2.16
 30
0.15
 70
    64
  0
VERTEX
  5
3E74E
  8
0
 10
2.97
 20
-2.44
 30
0.15
 70
    64
  0
VERTEX
  5
3E74F
  8
0
 10
2.59
 20
-2.16
 30
0.15
 70
    64
  0
VERTEX
  5
3E750
  8
0
 10
2.59
 20
-2.16
 30
0.15
 70
    64
  0
VERTEX
  5
3E751
  8
0
 10
2.59
 20
-2.44
 30
0.15
 70
    64
  0
SEQEND
  5
3E752
  8
0
  0
POLYLINE
  5
3ED74
  8
0
 66
     1
 10
0.0
 20
0.0
 30
0.0
 70
    16
 71
     6
 72
     3
  0
VERTEX
  5
3ED75
  8
0
 10
2.73
 20
0.015
 30
3.46
 70
    64
  0
VERTEX
  5
3ED76
  8
0
 10
2.73
 20
0.015
 30
2.28
 70
    64
  0
VERTEX
  5
3ED77
  8
0
 10
2.73
 20
0.015
 30
2.28
 70
    64
  0
VERTEX
  5
3ED78
  8
0
 10
3.46
 20
0.015
 30
3.46
 70
    64
  0
VERTEX
  5
3ED79
  8
0
 10
3.46
 20
0.015
 30
2.28
 70
    64
  0
VERTEX
  5
3ED7A
  8
0
 10
3.46
 20
0.015
 30
2.28
 70
    64
  0
VERTEX
  5
3ED7B
  8
0
 10
3.46
 20
-0.105
 30
3.46
 70
    64
  0
VERTEX
  5
3ED7C
  8
0
 10
3.46
 20
-0.105
 30
2.28
 70
    64
  0
VERTEX
  5
3ED7D
  8
0
 10
3.46
 20
0.015
 30
2.28
 70
    64
  0
VERTEX
  5
3ED7E
  8
0
 10
2.73
 20
-0.105
 30
3.46
 70
    64
  0
VERTEX
  5
3ED7F
  8
0
 10
2.73
 20
-0.105
 30
2.28
 70
    64
  0
VERTEX
  5
3ED80
  8
0
 10
2.73
 20
0.015
 30
2.28
 70
    64
  0
VERTEX
  5
3ED81
  8
0
 10
2.73
 20
-0.105
 30
3.46
 70
    64
  0
VERTEX
  5
3ED82
  8
0
 10
2.73
 20
-0.105
 30
3.46
 70
    64
  0
VERTEX
  5
3ED83
  8
0
 10
2.73
 20
0.015
 30
3.46
 70
    64
  0
VERTEX
  5
3ED84
  8
0
 10
3.46
 20
-0.105
 30
3.46
 70
    64
  0
VERTEX
  5
3ED85
  8
0
 10
3.46
 20
-0.105
 30
3.46
 70
    64
  0
VERTEX
  5
3ED86
  8
0
 10
3.46
 20
0.015
 30
3.46
 70
    64
  0
SEQEND
  5
3ED87
  8
0
  0
POLYLINE
  5
3ED88
  8
0
 66
     1
 10
0.0
 20
0.0
 30
0.0
 70
    16
 71
     6
 72
     3
  0
VERTEX
  5
3ED89
  8
0
 10
1.51
 20
0.015
 30
3.46
 70
    64
  0
VERTEX
  5
3ED8A
  8
0
 10
1.51
 20
0.015
 30
2.28
 70
    64
  0
VERTEX
  5
3ED8B
  8
0
 10
1.51
 20
0.015
 30
2.28
 70
    64
  0
VERTEX
  5
3ED8C
  8
0
 10
0.78
 20
0.015
 30
3.46
 70
    64
  0
VERTEX
  5
3ED8D
  8
0
 10
0.78
 20
0.015
 30
2.28
 70
    64
  0
VERTEX
  5
3ED8E
  8
0
 10
0.78
 20
0.015
 30
2.28
 70
    64
  0
VERTEX
  5
3ED8F
  8
0
 10
0.78
 20
-0.105
 30
3.46
 70
    64
  0
VERTEX
  5
3ED90
  8
0
 10
0.78
 20
-0.105
 30
2.28
 70
    64
  0
VERTEX
  5
3ED91
  8
0
 10
0.78
 20
0.015
 30
2.28
 70
    64
  0
VERTEX
  5
3ED92
  8
0
 10
1.51
 20
-0.105
 30
3.46
 70
    64
  0
VERTEX
  5
3ED93
  8
0
 10
1.51
 20
-0.105
 30
2.28
 70
    64
  0
VERTEX
  5
3ED94
  8
0
 10
1.51
 20
0.015
 30
2.28
 70
    64
  0
VERTEX
  5
3ED95
  8
0
 10
1.51
 20
-0.105
 30
3.46
 70
    64
  0
VERTEX
  5
3ED96
  8
0
 10
1.51
 20
-0.105
 30
3.46
 70
    64
  0
VERTEX
  5
3ED97
  8
0
 10
1.51
 20
0.015
 30
3.46
 70
    64
  0
VERTEX
  5
3ED98
  8
0
 10
0.78
 20
-0.105
 30
3.46
 70
    64
  0
VERTEX
  5
3ED99
  8
0
 10
0.78
 20
-0.105
 30
3.46
 70
    64
  0
VERTEX
  5
3ED9A
  8
0
 10
0.78
 20
0.015
 30
3.46
 70
    64
  0
SEQEND
  5
3ED9B
  8
0
  0
POLYLINE
  5
3ED9C
  8
0
 66
     1
 10
0.0
 20
0.0
 30
0.0
 70
    16
 71
     6
 72
     3
  0
VERTEX
  5
3ED9D
  8
0
 10
2.73
 20
-1.505
 30
3.46
 70
    64
  0
VERTEX
  5
3ED9E
  8
0
 10
2.73
 20
-1.505
 30
2.28
 70
    64
  0
VERTEX
  5
3ED9F
  8
0
 10
2.73
 20
-1.505
 30
2.28
 70
    64
  0
VERTEX
  5
3EDA0
  8
0
 10
3.46
 20
-1.505
 30
3.46
 70
    64
  0
VERTEX
  5
3EDA1
  8
0
 10
3.46
 20
-1.505
 30
2.28
 70
    64
  0
VERTEX
  5
3EDA2
  8
0
 10
3.46
 20
-1.505
 30
2.28
 70
    64
  0
VERTEX
  5
3EDA3
  8
0
 10
3.46
 20
-1.385
 30
3.46
 70
    64
  0
VERTEX
  5
3EDA4
  8
0
 10
3.46
 20
-1.385
 30
2.28
 70
    64
  0
VERTEX
  5
3EDA5
  8
0
 10
3.46
 20
-1.505
 30
2.28
 70
    64
  0
VERTEX
  5
3EDA6
  8
0
 10
2.73
 20
-1.385
 30
3.46
 70
    64
  0
VERTEX
  5
3EDA7
  8
0
 10
2.73
 20
-1.385
 30
2.28
 70
    64
  0
VERTEX
  5
3EDA8
  8
0
 10
2.73
 20
-1.505
 30
2.28
 70
    64
  0
VERTEX
  5
3EDA9
  8
0
 10
2.73
 20
-1.385
 30
3.46
 70
    64
  0
VERTEX
  5
3EDAA
  8
0
 10
2.73
 20
-1.385
 30
3.46
 70
    64
  0
VERTEX
  5
3EDAB
  8
0
 10
2.73
 20
-1.505
 30
3.46
 70
    64
  0
VERTEX
  5
3EDAC
  8
0
 10
3.46
 20
-1.385
 30
3.46
 70
    64
  0
VERTEX
  5
3EDAD
  8
0
 10
3.46
 20
-1.385
 30
3.46
 70
    64
  0
VERTEX
  5
3EDAE
  8
0
 10
3.46
 20
-1.505
 30
3.46
 70
    64
  0
SEQEND
  5
3EDAF
  8
0
  0
POLYLINE
  5
3EDB0
  8
0
 66
     1
 10
0.0
 20
0.0
 30
0.0
 70
    16
 71
     6
 72
     3
  0
VERTEX
  5
3EDB1
  8
0
 10
1.51
 20
-1.505
 30
3.46
 70
    64
  0
VERTEX
  5
3EDB2
  8
0
 10
1.51
 20
-1.505
 30
2.28
 70
    64
  0
VERTEX
  5
3EDB3
  8
0
 10
1.51
 20
-1.505
 30
2.28
 70
    64
  0
VERTEX
  5
3EDB4
  8
0
 10
0.78
 20
-1.505
 30
3.46
 70
    64
  0
VERTEX
  5
3EDB5
  8
0
 10
0.78
 20
-1.505
 30
2.28
 70
    64
  0
VERTEX
  5
3EDB6
  8
0
 10
0.78
 20
-1.505
 30
2.28
 70
    64
  0
VERTEX
  5
3EDB7
  8
0
 10
0.78
 20
-1.385
 30
3.46
 70
    64
  0
VERTEX
  5
3EDB8
  8
0
 10
0.78
 20
-1.385
 30
2.28
 70
    64
  0
VERTEX
  5
3EDB9
  8
0
 10
0.78
 20
-1.505
 30
2.28
 70
    64
  0
VERTEX
  5
3EDBA
  8
0
 10
1.51
 20
-1.385
 30
3.46
 70
    64
  0
VERTEX
  5
3EDBB
  8
0
 10
1.51
 20
-1.385
 30
2.28
 70
    64
  0
VERTEX
  5
3EDBC
  8
0
 10
1.51
 20
-1.505
 30
2.28
 70
    64
  0
VERTEX
  5
3EDBD
  8
0
 10
1.51
 20
-1.385
 30
3.46
 70
    64
  0
VERTEX
  5
3EDBE
  8
0
 10
1.51
 20
-1.385
 30
3.46
 70
    64
  0
VERTEX
  5
3EDBF
  8
0
 10
1.51
 20
-1.505
 30
3.46
 70
    64
  0
VERTEX
  5
3EDC0
  8
0
 10
0.78
 20
-1.385
 30
3.46
 70
    64
  0
VERTEX
  5
3EDC1
  8
0
 10
0.78
 20
-1.385
 30
3.46
 70
    64
  0
VERTEX
  5
3EDC2
  8
0
 10
0.78
 20
-1.505
 30
3.46
 70
    64
  0
SEQEND
  5
3EDC3
  8
0
  0
POLYLINE
  5
3EDC4
  8
0
 66
     1
 10
0.0
 20
0.0
 30
0.0
 70
    16
 71
     6
 72
     3
  0
VERTEX
  5
3EDC5
  8
0
 10
2.71
 20
0.115
 30
3.88
 70
    64
  0
VERTEX
  5
3EDC6
  8
0
 10
2.71
 20
0.115
 30
3.46
 70
    64
  0
VERTEX
  5
3EDC7
  8
0
 10
2.71
 20
0.115
 30
3.46
 70
    64
  0
VERTEX
  5
3EDC8
  8
0
 10
2.96
 20
0.115
 30
3.88
 70
    64
  0
VERTEX
  5
3EDC9
  8
0
 10
2.96
 20
0.115
 30
3.46
 70
    64
  0
VERTEX
  5
3EDCA
  8
0
 10
2.96
 20
0.115
 30
3.46
 70
    64
  0
VERTEX
  5
3EDCB
  8
0
 10
2.96
 20
-0.105
 30
3.88
 70
    64
  0
VERTEX
  5
3EDCC
  8
0
 10
2.96
 20
-0.105
 30
3.46
 70
    64
  0
VERTEX
  5
3EDCD
  8
0
 10
2.96
 20
0.115
 30
3.46
 70
    64
  0
VERTEX
  5
3EDCE
  8
0
 10
2.71
 20
-0.105
 30
3.88
 70
    64
  0
VERTEX
  5
3EDCF
  8
0
 10
2.71
 20
-0.105
 30
3.46
 70
    64
  0
VERTEX
  5
3EDD0
  8
0
 10
2.71
 20
0.115
 30
3.46
 70
    64
  0
VERTEX
  5
3EDD1
  8
0
 10
2.71
 20
-0.105
 30
3.88
 70
    64
  0
VERTEX
  5
3EDD2
  8
0
 10
2.71
 20
-0.105
 30
3.88
 70
    64
  0
VERTEX
  5
3EDD3
  8
0
 10
2.71
 20
0.115
 30
3.88
 70
    64
  0
VERTEX
  5
3EDD4
  8
0
 10
2.96
 20
-0.105
 30
3.88
 70
    64
  0
VERTEX
  5
3EDD5
  8
0
 10
2.96
 20
-0.105
 30
3.88
 70
    64
  0
VERTEX
  5
3EDD6
  8
0
 10
2.96
 20
0.115
 30
3.88
 70
    64
  0
SEQEND
  5
3EDD7
  8
0
  0
POLYLINE
  5
3EDD8
  8
0
 66
     1
 10
0.0
 20
0.0
 30
0.0
 70
    16
 71
     6
 72
     3
  0
VERTEX
  5
3EDD9
  8
0
 10
2.71
 20
-1.605
 30
3.88
 70
    64
  0
VERTEX
  5
3EDDA
  8
0
 10
2.71
 20
-1.605
 30
3.46
 70
    64
  0
VERTEX
  5
3EDDB
  8
0
 10
2.71
 20
-1.605
 30
3.46
 70
    64
  0
VERTEX
  5
3EDDC
  8
0
 10
2.96
 20
-1.605
 30
3.88
 70
    64
  0
VERTEX
  5
3EDDD
  8
0
 10
2.96
 20
-1.605
 30
3.46
 70
    64
  0
VERTEX
  5
3EDDE
  8
0
 10
2.96
 20
-1.605
 30
3.46
 70
    64
  0
VERTEX
  5
3EDDF
  8
0
 10
2.96
 20
-1.385
 30
3.88
 70
    64
  0
VERTEX
  5
3EDE0
  8
0
 10
2.96
 20
-1.385
 30
3.46
 70
    64
  0
VERTEX
  5
3EDE1
  8
0
 10
2.96
 20
-1.605
 30
3.46
 70
    64
  0
VERTEX
  5
3EDE2
  8
0
 10
2.71
 20
-1.385
 30
3.88
 70
    64
  0
VERTEX
  5
3EDE3
  8
0
 10
2.71
 20
-1.385
 30
3.46
 70
    64
  0
VERTEX
  5
3EDE4
  8
0
 10
2.71
 20
-1.605
 30
3.46
 70
    64
  0
VERTEX
  5
3EDE5
  8
0
 10
2.71
 20
-1.385
 30
3.88
 70
    64
  0
VERTEX
  5
3EDE6
  8
0
 10
2.71
 20
-1.385
 30
3.88
 70
    64
  0
VERTEX
  5
3EDE7
  8
0
 10
2.71
 20
-1.605
 30
3.88
 70
    64
  0
VERTEX
  5
3EDE8
  8
0
 10
2.96
 20
-1.385
 30
3.88
 70
    64
  0
VERTEX
  5
3EDE9
  8
0
 10
2.96
 20
-1.385
 30
3.88
 70
    64
  0
VERTEX
  5
3EDEA
  8
0
 10
2.96
 20
-1.605
 30
3.88
 70
    64
  0
SEQEND
  5
3EDEB
  8
0
  0
POLYLINE
  5
3EDEC
  8
0
 66
     1
 10
0.0
 20
0.0
 30
0.0
 70
    16
 71
     6
 72
     3
  0
VERTEX
  5
3EDED
  8
0
 10
3.88
 20
-1.385
 30
3.88
 70
    64
  0
VERTEX
  5
3EDEE
  8
0
 10
3.88
 20
-1.385
 30
2.9
 70
    64
  0
VERTEX
  5
3EDEF
  8
0
 10
3.88
 20
-1.385
 30
2.9
 70
    64
  0
VERTEX
  5
3EDF0
  8
0
 10
0.36
 20
-1.385
 30
3.88
 70
    64
  0
VERTEX
  5
3EDF1
  8
0
 10
0.36
 20
-1.385
 30
2.9
 70
    64
  0
VERTEX
  5
3EDF2
  8
0
 10
0.36
 20
-1.385
 30
2.9
 70
    64
  0
VERTEX
  5
3EDF3
  8
0
 10
0.36
 20
-0.105
 30
3.88
 70
    64
  0
VERTEX
  5
3EDF4
  8
0
 10
0.36
 20
-0.105
 30
2.9
 70
    64
  0
VERTEX
  5
3EDF5
  8
0
 10
0.36
 20
-1.385
 30
2.9
 70
    64
  0
VERTEX
  5
3EDF6
  8
0
 10
3.88
 20
-0.105
 30
3.88
 70
    64
  0
VERTEX
  5
3EDF7
  8
0
 10
3.88
 20
-0.105
 30
2.9
 70
    64
  0
VERTEX
  5
3EDF8
  8
0
 10
3.88
 20
-1.385
 30
2.9
 70
    64
  0
VERTEX
  5
3EDF9
  8
0
 10
3.88
 20
-0.105
 30
3.88
 70
    64
  0
VERTEX
  5
3EDFA
  8
0
 10
3.88
 20
-0.105
 30
3.88
 70
    64
  0
VERTEX
  5
3EDFB
  8
0
 10
3.88
 20
-1.385
 30
3.88
 70
    64
  0
VERTEX
  5
3EDFC
  8
0
 10
0.36
 20
-0.105
 30
3.88
 70
    64
  0
VERTEX
  5
3EDFD
  8
0
 10
0.36
 20
-0.105
 30
3.88
 70
    64
  0
VERTEX
  5
3EDFE
  8
0
 10
0.36
 20
-1.385
 30
3.88
 70
    64
  0
SEQEND
  5
3EDFF
  8
0
  0
POLYLINE
  5
3EE00
  8
0
 66
     1
 10
0.0
 20
0.0
 30
0.0
 70
    16
 71
     6
 72
     3
  0
VERTEX
  5
3EE01
  8
0
 10
1.87
 20
-1.525
 30
4.03
 70
    64
  0
VERTEX
  5
3EE02
  8
0
 10
1.87
 20
-1.525
 30
3.26
 70
    64
  0
VERTEX
  5
3EE03
  8
0
 10
1.87
 20
-1.525
 30
3.26
 70
    64
  0
VERTEX
  5
3EE04
  8
0
 10
1.87
 20
-1.405
 30
4.03
 70
    64
  0
VERTEX
  5
3EE05
  8
0
 10
1.87
 20
-1.405
 30
3.26
 70
    64
  0
VERTEX
  5
3EE06
  8
0
 10
1.87
 20
-1.405
 30
3.26
 70
    64
  0
VERTEX
  5
3EE07
  8
0
 10
2.37
 20
-1.405
 30
4.03
 70
    64
  0
VERTEX
  5
3EE08
  8
0
 10
2.37
 20
-1.405
 30
3.26
 70
    64
  0
VERTEX
  5
3EE09
  8
0
 10
1.87
 20
-1.405
 30
3.26
 70
    64
  0
VERTEX
  5
3EE0A
  8
0
 10
2.37
 20
-1.525
 30
4.03
 70
    64
  0
VERTEX
  5
3EE0B
  8
0
 10
2.37
 20
-1.525
 30
3.26
 70
    64
  0
VERTEX
  5
3EE0C
  8
0
 10
1.87
 20
-1.525
 30
3.26
 70
    64
  0
VERTEX
  5
3EE0D
  8
0
 10
2.37
 20
-1.525
 30
4.03
 70
    64
  0
VERTEX
  5
3EE0E
  8
0
 10
2.37
 20
-1.525
 30
4.03
 70
    64
  0
VERTEX
  5
3EE0F
  8
0
 10
1.87
 20
-1.525
 30
4.03
 70
    64
  0
VERTEX
  5
3EE10
  8
0
 10
2.37
 20
-1.405
 30
4.03
 70
    64
  0
VERTEX
  5
3EE11
  8
0
 10
2.37
 20
-1.405
 30
4.03
 70
    64
  0
VERTEX
  5
3EE12
  8
0
 10
1.87
 20
-1.405
 30
4.03
 70
    64
  0
SEQEND
  5
3EE13
  8
0
  0
POLYLINE
  5
3EE14
  8
0
 66
     1
 10
0.0
 20
0.0
 30
0.0
 70
    16
 71
     6
 72
     3
  0
VERTEX
  5
3EE15
  8
0
 10
1.87
 20
-0.085
 30
4.03
 70
    64
  0
VERTEX
  5
3EE16
  8
0
 10
1.87
 20
-0.085
 30
3.26
 70
    64
  0
VERTEX
  5
3EE17
  8
0
 10
1.87
 20
-0.085
 30
3.26
 70
    64
  0
VERTEX
  5
3EE18
  8
0
 10
1.87
 20
0.035
 30
4.03
 70
    64
  0
VERTEX
  5
3EE19
  8
0
 10
1.87
 20
0.035
 30
3.26
 70
    64
  0
VERTEX
  5
3EE1A
  8
0
 10
1.87
 20
0.035
 30
3.26
 70
    64
  0
VERTEX
  5
3EE1B
  8
0
 10
2.37
 20
0.035
 30
4.03
 70
    64
  0
VERTEX
  5
3EE1C
  8
0
 10
2.37
 20
0.035
 30
3.26
 70
    64
  0
VERTEX
  5
3EE1D
  8
0
 10
1.87
 20
0.035
 30
3.26
 70
    64
  0
VERTEX
  5
3EE1E
  8
0
 10
2.37
 20
-0.085
 30
4.03
 70
    64
  0
VERTEX
  5
3EE1F
  8
0
 10
2.37
 20
-0.085
 30
3.26
 70
    64
  0
VERTEX
  5
3EE20
  8
0
 10
1.87
 20
-0.085
 30
3.26
 70
    64
  0
VERTEX
  5
3EE21
  8
0
 10
2.37
 20
-0.085
 30
4.03
 70
    64
  0
VERTEX
  5
3EE22
  8
0
 10
2.37
 20
-0.085
 30
4.03
 70
    64
  0
VERTEX
  5
3EE23
  8
0
 10
1.87
 20
-0.085
 30
4.03
 70
    64
  0
VERTEX
  5
3EE24
  8
0
 10
2.37
 20
0.035
 30
4.03
 70
    64
  0
VERTEX
  5
3EE25
  8
0
 10
2.37
 20
0.035
 30
4.03
 70
    64
  0
VERTEX
  5
3EE26
  8
0
 10
1.87
 20
0.035
 30
4.03
 70
    64
  0
SEQEND
  5
3EE27
  8
0
  0
CIRCLE
  5
3EE28
  8
0
 39
0.15
 10
2.12
 20
-0.745
 30
3.88
 40
0.7
  0
POLYLINE
  5
3EE29
  8
0
 66
     1
 10
0.0
 20
0.0
 30
0.0
 70
    16
 71
     6
 72
     3
  0
VERTEX
  5
3EE2A
  8
0
 10
1.53
 20
-1.605
 30
3.88
 70
    64
  0
VERTEX
  5
3EE2B
  8
0
 10
1.53
 20
-1.605
 30
3.46
 70
    64
  0
VERTEX
  5
3EE2C
  8
0
 10
1.53
 20
-1.605
 30
3.46
 70
    64
  0
VERTEX
  5
3EE2D
  8
0
 10
1.28
 20
-1.605
 30
3.88
 70
    64
  0
VERTEX
  5
3EE2E
  8
0
 10
1.28
 20
-1.605
 30
3.46
 70
    64
  0
VERTEX
  5
3EE2F
  8
0
 10
1.28
 20
-1.605
 30
3.46
 70
    64
  0
VERTEX
  5
3EE30
  8
0
 10
1.28
 20
-1.385
 30
3.88
 70
    64
  0
VERTEX
  5
3EE31
  8
0
 10
1.28
 20
-1.385
 30
3.46
 70
    64
  0
VERTEX
  5
3EE32
  8
0
 10
1.28
 20
-1.605
 30
3.46
 70
    64
  0
VERTEX
  5
3EE33
  8
0
 10
1.53
 20
-1.385
 30
3.88
 70
    64
  0
VERTEX
  5
3EE34
  8
0
 10
1.53
 20
-1.385
 30
3.46
 70
    64
  0
VERTEX
  5
3EE35
  8
0
 10
1.53
 20
-1.605
 30
3.46
 70
    64
  0
VERTEX
  5
3EE36
  8
0
 10
1.53
 20
-1.385
 30
3.88
 70
    64
  0
VERTEX
  5
3EE37
  8
0
 10
1.53
 20
-1.385
 30
3.88
 70
    64
  0
VERTEX
  5
3EE38
  8
0
 10
1.53
 20
-1.605
 30
3.88
 70
    64
  0
VERTEX
  5
3EE39
  8
0
 10
1.28
 20
-1.385
 30
3.88
 70
    64
  0
VERTEX
  5
3EE3A
  8
0
 10
1.28
 20
-1.385
 30
3.88
 70
    64
  0
VERTEX
  5
3EE3B
  8
0
 10
1.28
 20
-1.605
 30
3.88
 70
    64
  0
SEQEND
  5
3EE3C
  8
0
  0
CIRCLE
  5
3EE3D
  8
0
 10
1.405
 20
-1.495
 30
3.88
 40
0.05
  0
CIRCLE
  5
3EE3E
  8
0
 10
2.835
 20
-1.495
 30
3.88
 40
0.05
  0
POLYLINE
  5
3EE3F
  8
0
 66
     1
 10
0.0
 20
0.0
 30
4.03
 70
     1
  0
VERTEX
  5
3F47C
  8
0
 10
1.943932
 20
-0.64
 30
4.03
  0
VERTEX
  5
3F47D
  8
0
 10
1.85
 20
-0.64
 30
4.03
 42
0.414214
  0
VERTEX
  5
3F47E
  8
0
 10
1.8
 20
-0.69
 30
4.03
  0
VERTEX
  5
3F47F
  8
0
 10
1.8
 20
-0.8
 30
4.03
 42
0.414214
  0
VERTEX
  5
3F480
  8
0
 10
1.85
 20
-0.85
 30
4.03
  0
VERTEX
  5
3F481
  8
0
 10
1.943932
 20
-0.85
 30
4.03
 42
0.443094
  0
VERTEX
  5
3F482
  8
0
 10
2.241655
 20
-0.91
 30
4.03
  0
VERTEX
  5
3F483
  8
0
 10
2.39
 20
-0.91
 30
4.03
 42
0.414214
  0
VERTEX
  5
3F484
  8
0
 10
2.44
 20
-0.86
 30
4.03
  0
VERTEX
  5
3F485
  8
0
 10
2.44
 20
-0.63
 30
4.03
 42
0.414214
  0
VERTEX
  5
3F486
  8
0
 10
2.39
 20
-0.58
 30
4.03
  0
VERTEX
  5
3F487
  8
0
 10
2.241655
 20
-0.58
 30
4.03
 42
0.443094
  0
SEQEND
  5
3F488
  8
0
  0
POLYLINE
  5
3EE41
  8
0
 66
     1
 10
0.0
 20
0.0
 30
0.0
 70
    16
 71
     6
 72
     3
  0
VERTEX
  5
3EE42
  8
0
 10
1.53
 20
0.115
 30
3.88
 70
    64
  0
VERTEX
  5
3EE43
  8
0
 10
1.53
 20
0.115
 30
3.46
 70
    64
  0
VERTEX
  5
3EE44
  8
0
 10
1.53
 20
0.115
 30
3.46
 70
    64
  0
VERTEX
  5
3EE45
  8
0
 10
1.28
 20
0.115
 30
3.88
 70
    64
  0
VERTEX
  5
3EE46
  8
0
 10
1.28
 20
0.115
 30
3.46
 70
    64
  0
VERTEX
  5
3EE47
  8
0
 10
1.28
 20
0.115
 30
3.46
 70
    64
  0
VERTEX
  5
3EE48
  8
0
 10
1.28
 20
-0.105
 30
3.88
 70
    64
  0
VERTEX
  5
3EE49
  8
0
 10
1.28
 20
-0.105
 30
3.46
 70
    64
  0
VERTEX
  5
3EE4A
  8
0
 10
1.28
 20
0.115
 30
3.46
 70
    64
  0
VERTEX
  5
3EE4B
  8
0
 10
1.53
 20
-0.105
 30
3.88
 70
    64
  0
VERTEX
  5
3EE4C
  8
0
 10
1.53
 20
-0.105
 30
3.46
 70
    64
  0
VERTEX
  5
3EE4D
  8
0
 10
1.53
 20
0.115
 30
3.46
 70
    64
  0
VERTEX
  5
3EE4E
  8
0
 10
1.53
 20
-0.105
 30
3.88
 70
    64
  0
VERTEX
  5
3EE4F
  8
0
 10
1.53
 20
-0.105
 30
3.88
 70
    64
  0
VERTEX
  5
3EE50
  8
0
 10
1.53
 20
0.115
 30
3.88
 70
    64
  0
VERTEX
  5
3EE51
  8
0
 10
1.28
 20
-0.105
 30
3.88
 70
    64
  0
VERTEX
  5
3EE52
  8
0
 10
1.28
 20
-0.105
 30
3.88
 70
    64
  0
VERTEX
  5
3EE53
  8
0
 10
1.28
 20
0.115
 30
3.88
 70
    64
  0
SEQEND
  5
3EE54
  8
0
  0
CIRCLE
  5
3EE55
  8
0
 10
1.405
 20
0.005
 30
3.88
 40
0.05
  0
CIRCLE
  5
3EE56
  8
0
 10
2.835
 20
0.005
 30
3.88
 40
0.05
  0
TEXT
  5
3F168
  8
0
 10
0.224299
 20
0.510522
 30
2.15
 40
0.12
  1
1 L1
  0
TEXT
  5
3F169
  8
0
 10
0.866544
 20
0.510522
 30
2.15
 40
0.12
  1
3 L2
  0
TEXT
  5
3F16A
  8
0
 10
1.578679
 20
0.510522
 30
2.15
 40
0.12
  1
5 L3
  0
TEXT
  5
3F16B
  8
0
 10
2.286029
 20
0.510522
 30
2.15
 40
0.12
  1
7 L4
  0
TEXT
  5
3F16C
  8
0
 10
2.986386
 20
0.510522
 30
2.15
 40
0.12
  1
9 L5
  0
TEXT
  5
3F16D
  8
0
 10
3.662418
 20
0.510522
 30
2.15
 40
0.12
  1
11 L6
  0
TEXT
  5
3F16E
  8
0
 10
0.171018
 20
-2.12488
 30
2.15
 40
0.12
  1
2 T1
  0
TEXT
  5
3F16F
  8
0
 10
1.579989
 20
-2.12488
 30
2.15
 40
0.12
  1
6 T3
  0
TEXT
  5
3F170
  8
0
 10
0.858184
 20
-2.12488
 30
2.15
 40
0.12
  1
4 T2
  0
TEXT
  5
3F171
  8
0
 10
3.621059
 20
-2.12488
 30
2.15
 40
0.12
  1
12 T6
  0
TEXT
  5
3F172
  8
0
 10
2.925914
 20
-2.12488
 30
2.15
 40
0.12
  1
10 T5
  0
TEXT
  5
3F173
  8
0
 10
2.279061
 20
-2.12488
 30
2.15
 40
0.12
  1
8 T4
  0
POLYLINE
  5
3F19C
  8
0
 66
     1
 10
0.0
 20
0.0
 30
0.0
 70
    16
 71
     6
 72
     3
  0
VERTEX
  5
3F19D
  8
0
 10
1.54
 20
-2.16
 30
0.27
 70
    64
  0
VERTEX
  5
3F19E
  8
0
 10
1.54
 20
-2.16
 30
0.0
 70
    64
  0
VERTEX
  5
3F19F
  8
0
 10
1.54
 20
-2.16
 30
0.0
 70
    64
  0
VERTEX
  5
3F1A0
  8
0
 10
1.92
 20
-2.16
 30
0.27
 70
    64
  0
VERTEX
  5
3F1A1
  8
0
 10
1.92
 20
-2.16
 30
0.0
 70
    64
  0
VERTEX
  5
3F1A2
  8
0
 10
1.92
 20
-2.16
 30
0.0
 70
    64
  0
VERTEX
  5
3F1A3
  8
0
 10
1.92
 20
-2.36
 30
0.27
 70
    64
  0
VERTEX
  5
3F1A4
  8
0
 10
1.92
 20
-2.36
 30
0.0
 70
    64
  0
VERTEX
  5
3F1A5
  8
0
 10
1.92
 20
-2.16
 30
0.0
 70
    64
  0
VERTEX
  5
3F1A6
  8
0
 10
1.54
 20
-2.36
 30
0.27
 70
    64
  0
VERTEX
  5
3F1A7
  8
0
 10
1.54
 20
-2.36
 30
0.0
 70
    64
  0
VERTEX
  5
3F1A8
  8
0
 10
1.54
 20
-2.16
 30
0.0
 70
    64
  0
VERTEX
  5
3F1A9
  8
0
 10
1.54
 20
-2.36
 30
0.27
 70
    64
  0
VERTEX
  5
3F1AA
  8
0
 10
1.54
 20
-2.36
 30
0.27
 70
    64
  0
VERTEX
  5
3F1AB
  8
0
 10
1.54
 20
-2.16
 30
0.27
 70
    64
  0
VERTEX
  5
3F1AC
  8
0
 10
1.92
 20
-2.36
 30
0.27
 70
    64
  0
VERTEX
  5
3F1AD
  8
0
 10
1.92
 20
-2.36
 30
0.27
 70
    64
  0
VERTEX
  5
3F1AE
  8
0
 10
1.92
 20
-2.16
 30
0.27
 70
    64
  0
SEQEND
  5
3F1AF
  8
0
  0
POLYLINE
  5
3F1B0
  8
0
 66
     1
 10
0.0
 20
0.0
 30
0.0
 70
    16
 71
     6
 72
     3
  0
VERTEX
  5
3F1B1
  8
0
 10
3.66
 20
-2.16
 30
0.27
 70
    64
  0
VERTEX
  5
3F1B2
  8
0
 10
3.66
 20
-2.16
 30
0.0
 70
    64
  0
VERTEX
  5
3F1B3
  8
0
 10
3.66
 20
-2.16
 30
0.0
 70
    64
  0
VERTEX
  5
3F1B4
  8
0
 10
4.04
 20
-2.16
 30
0.27
 70
    64
  0
VERTEX
  5
3F1B5
  8
0
 10
4.04
 20
-2.16
 30
0.0
 70
    64
  0
VERTEX
  5
3F1B6
  8
0
 10
4.04
 20
-2.16
 30
0.0
 70
    64
  0
VERTEX
  5
3F1B7
  8
0
 10
4.04
 20
-2.36
 30
0.27
 70
    64
  0
VERTEX
  5
3F1B8
  8
0
 10
4.04
 20
-2.36
 30
0.0
 70
    64
  0
VERTEX
  5
3F1B9
  8
0
 10
4.04
 20
-2.16
 30
0.0
 70
    64
  0
VERTEX
  5
3F1BA
  8
0
 10
3.66
 20
-2.36
 30
0.27
 70
    64
  0
VERTEX
  5
3F1BB
  8
0
 10
3.66
 20
-2.36
 30
0.0
 70
    64
  0
VERTEX
  5
3F1BC
  8
0
 10
3.66
 20
-2.16
 30
0.0
 70
    64
  0
VERTEX
  5
3F1BD
  8
0
 10
3.66
 20
-2.36
 30
0.27
 70
    64
  0
VERTEX
  5
3F1BE
  8
0
 10
3.66
 20
-2.36
 30
0.27
 70
    64
  0
VERTEX
  5
3F1BF
  8
0
 10
3.66
 20
-2.16
 30
0.27
 70
    64
  0
VERTEX
  5
3F1C0
  8
0
 10
4.04
 20
-2.36
 30
0.27
 70
    64
  0
VERTEX
  5
3F1C1
  8
0
 10
4.04
 20
-2.36
 30
0.27
 70
    64
  0
VERTEX
  5
3F1C2
  8
0
 10
4.04
 20
-2.16
 30
0.27
 70
    64
  0
SEQEND
  5
3F1C3
  8
0
  0
ENDSEC
  0
EOF
