  0
SECTION
  2
HEADER
  9
$ACADVER
  1
AC1009
  9
$INSBASE
 10
0.0
 20
0.0
 30
0.0
  9
$EXTMIN
 10
-0.000705
 20
-2.230685
 30
-0.000214
  9
$EXTMAX
 10
3.520513
 20
0.810123
 30
3.500214
  9
$LIMMIN
 10
0.0
 20
0.0
  9
$LIMMAX
 10
12.0
 20
9.0
  9
$ORTHOMODE
 70
     1
  9
$REGENMODE
 70
     1
  9
$FILLMODE
 70
     1
  9
$QTEXTMODE
 70
     0
  9
$MIRRTEXT
 70
     1
  9
$DRAGMODE
 70
     2
  9
$LTSCALE
 40
1.0
  9
$OSMODE
 70
     8
  9
$ATTMODE
 70
     0
  9
$TEXTSIZE
 40
0.12
  9
$TRACEWID
 40
0.05
  9
$TEXTSTYLE
  7
STANDARD
  9
$CLAYER
  8
0
  9
$CELTYPE
  6
BYLAYER
  9
$CECOLOR
 62
   256
  9
$DIMSCALE
 40
1.0
  9
$DIMASZ
 40
0.18
  9
$DIMEXO
 40
0.0625
  9
$DIMDLI
 40
0.38
  9
$DIMRND
 40
0.0
  9
$DIMDLE
 40
0.0
  9
$DIMEXE
 40
0.18
  9
$DIMTP
 40
0.0
  9
$DIMTM
 40
0.0
  9
$DIMTXT
 40
0.18
  9
$DIMCEN
 40
0.09
  9
$DIMTSZ
 40
0.0
  9
$DIMTOL
 70
     0
  9
$DIMLIM
 70
     0
  9
$DIMTIH
 70
     1
  9
$DIMTOH
 70
     1
  9
$DIMSE1
 70
     0
  9
$DIMSE2
 70
     0
  9
$DIMTAD
 70
     0
  9
$DIMZIN
 70
     0
  9
$DIMBLK
  1

  9
$DIMASO
 70
     1
  9
$DIMSHO
 70
     1
  9
$DIMPOST
  1

  9
$DIMAPOST
  1

  9
$DIMALT
 70
     0
  9
$DIMALTD
 70
     2
  9
$DIMALTF
 40
25.4
  9
$DIMLFAC
 40
1.0
  9
$DIMTOFL
 70
     0
  9
$DIMTVP
 40
0.0
  9
$DIMTIX
 70
     0
  9
$DIMSOXD
 70
     0
  9
$DIMSAH
 70
     0
  9
$DIMBLK1
  1

  9
$DIMBLK2
  1

  9
$DIMSTYLE
  2
STANDARD
  9
$DIMCLRD
 70
     0
  9
$DIMCLRE
 70
     0
  9
$DIMCLRT
 70
     0
  9
$DIMTFAC
 40
1.0
  9
$DIMGAP
 40
0.09
  9
$LUNITS
 70
     2
  9
$LUPREC
 70
     4
  9
$SKETCHINC
 40
0.1
  9
$FILLETRAD
 40
0.05
  9
$AUNITS
 70
     0
  9
$AUPREC
 70
     0
  9
$MENU
  1
acad
  9
$ELEVATION
 40
0.0
  9
$PELEVATION
 40
0.0
  9
$THICKNESS
 40
0.0
  9
$LIMCHECK
 70
     0
  9
$BLIPMODE
 70
     0
  9
$CHAMFERA
 40
0.0
  9
$CHAMFERB
 40
0.0
  9
$SKPOLY
 70
     0
  9
$TDCREATE
 40
2450671.056128
  9
$TDUPDATE
 40
2451166.500567
  9
$TDINDWG
 40
0.032819
  9
$TDUSRTIMER
 40
0.032819
  9
$USRTIMER
 70
     1
  9
$ANGBASE
 50
0.0
  9
$ANGDIR
 70
     0
  9
$PDMODE
 70
    96
  9
$PDSIZE
 40
0.09
  9
$PLINEWID
 40
0.0
  9
$COORDS
 70
     1
  9
$SPLFRAME
 70
     1
  9
$SPLINETYPE
 70
     6
  9
$SPLINESEGS
 70
     8
  9
$ATTDIA
 70
     0
  9
$ATTREQ
 70
     1
  9
$HANDLING
 70
     1
  9
$HANDSEED
  5
3EAE4
  9
$SURFTAB1
 70
     6
  9
$SURFTAB2
 70
     6
  9
$SURFTYPE
 70
     6
  9
$SURFU
 70
     6
  9
$SURFV
 70
     6
  9
$UCSNAME
  2

  9
$UCSORG
 10
0.0
 20
0.0
 30
0.0
  9
$UCSXDIR
 10
1.0
 20
0.0
 30
0.0
  9
$UCSYDIR
 10
0.0
 20
1.0
 30
0.0
  9
$PUCSNAME
  2

  9
$PUCSORG
 10
0.0
 20
0.0
 30
0.0
  9
$PUCSXDIR
 10
1.0
 20
0.0
 30
0.0
  9
$PUCSYDIR
 10
0.0
 20
1.0
 30
0.0
  9
$USERI1
 70
     0
  9
$USERI2
 70
     0
  9
$USERI3
 70
     0
  9
$USERI4
 70
     0
  9
$USERI5
 70
     0
  9
$USERR1
 40
0.0
  9
$USERR2
 40
0.0
  9
$USERR3
 40
0.0
  9
$USERR4
 40
0.0
  9
$USERR5
 40
0.0
  9
$WORLDVIEW
 70
     1
  9
$SHADEDGE
 70
     3
  9
$SHADEDIF
 70
    70
  9
$TILEMODE
 70
     1
  9
$MAXACTVP
 70
    16
  9
$PLIMCHECK
 70
     0
  9
$PEXTMIN
 10
1.000000E+020
 20
1.000000E+020
 30
1.000000E+020
  9
$PEXTMAX
 10
-1.000000E+020
 20
-1.000000E+020
 30
-1.000000E+020
  9
$PLIMMIN
 10
0.0
 20
0.0
  9
$PLIMMAX
 10
12.0
 20
9.0
  9
$UNITMODE
 70
     0
  9
$VISRETAIN
 70
     0
  9
$PLINEGEN
 70
     0
  9
$PSLTSCALE
 70
     1
  0
ENDSEC
  0
SECTION
  2
TABLES
  0
TABLE
  2
VPORT
 70
     2
  0
VPORT
  2
*ACTIVE
 70
     0
 10
0.0
 20
0.0
 11
1.0
 21
1.0
 12
1.759904
 22
-0.710281
 13
0.0
 23
0.0
 14
0.25
 24
0.25
 15
0.25
 25
0.25
 16
0.0
 26
0.0
 36
1.0
 17
0.0
 27
0.0
 37
0.0
 40
3.233513
 41
1.603066
 42
50.0
 43
0.0
 44
0.0
 50
0.0
 51
0.0
 71
     0
 72
 20000
 73
     1
 74
     1
 75
     0
 76
     0
 77
     0
 78
     0
  0
ENDTAB
  0
TABLE
  2
LTYPE
 70
     1
  0
LTYPE
  2
CONTINUOUS
 70
     0
  3
Solid line
 72
    65
 73
     0
 40
0.0
  0
ENDTAB
  0
TABLE
  2
LAYER
 70
     2
  0
LAYER
  2
0
 70
     0
 62
     7
  6
CONTINUOUS
  0
LAYER
  2
DIMS-MTG-HOLES
 70
     0
 62
     1
  6
CONTINUOUS
  0
ENDTAB
  0
TABLE
  2
STYLE
 70
     1
  0
STYLE
  2
STANDARD
 70
     0
 40
0.0
 41
1.0
 50
0.0
 71
     0
 42
0.12
  3
txt
  4

  0
ENDTAB
  0
TABLE
  2
VIEW
 70
     0
  0
ENDTAB
  0
TABLE
  2
UCS
 70
     0
  0
ENDTAB
  0
TABLE
  2
APPID
 70
     1
  0
APPID
  2
ACAD
 70
     0
  0
ENDTAB
  0
TABLE
  2
DIMSTYLE
 70
     1
  0
DIMSTYLE
  2
STANDARD
 70
     0
  3

  4

  5

  6

  7

 40
1.0
 41
0.18
 42
0.0625
 43
0.38
 44
0.18
 45
0.0
 46
0.0
 47
0.0
 48
0.0
140
0.18
141
0.09
142
0.0
143
25.4
144
1.0
145
0.0
146
1.0
147
0.09
 71
     0
 72
     0
 73
     1
 74
     1
 75
     0
 76
     0
 77
     0
 78
     0
170
     0
171
     2
172
     0
173
     0
174
     0
175
     0
176
     0
177
     0
178
     0
  0
ENDTAB
  0
ENDSEC
  0
SECTION
  2
BLOCKS
  0
BLOCK
  8
0
  2
$MODEL_SPACE
 70
     0
 10
0.0
 20
0.0
 30
0.0
  3
$MODEL_SPACE
  1

  0
ENDBLK
  5
3EA07
  8
0
  0
BLOCK
 67
     1
  8
0
  2
$PAPER_SPACE
 70
     0
 10
0.0
 20
0.0
 30
0.0
  3
$PAPER_SPACE
  1

  0
ENDBLK
  5
3EA05
 67
     1
  8
0
  0
ENDSEC
  0
SECTION
  2
ENTITIES
  0
POLYLINE
  5
3E10F
  8
0
 66
     1
 10
0.0
 20
0.0
 30
0.0
 70
    16
 71
     6
 72
     3
  0
VERTEX
  5
3E110
  8
0
 10
1.76
 20
-1.95
 30
0.2
 70
    64
  0
VERTEX
  5
3E111
  8
0
 10
1.76
 20
-1.95
 30
0.0
 70
    64
  0
VERTEX
  5
3E112
  8
0
 10
1.76
 20
-1.95
 30
0.0
 70
    64
  0
VERTEX
  5
3E113
  8
0
 10
0.0
 20
-1.95
 30
0.2
 70
    64
  0
VERTEX
  5
3E114
  8
0
 10
0.0
 20
-1.95
 30
0.0
 70
    64
  0
VERTEX
  5
3E115
  8
0
 10
0.0
 20
-1.95
 30
0.0
 70
    64
  0
VERTEX
  5
3E116
  8
0
 10
0.0
 20
-1.34
 30
0.2
 70
    64
  0
VERTEX
  5
3E117
  8
0
 10
0.0
 20
-1.34
 30
0.0
 70
    64
  0
VERTEX
  5
3E118
  8
0
 10
0.0
 20
-1.95
 30
0.0
 70
    64
  0
VERTEX
  5
3E119
  8
0
 10
1.76
 20
-1.34
 30
0.2
 70
    64
  0
VERTEX
  5
3E11A
  8
0
 10
1.76
 20
-1.34
 30
0.0
 70
    64
  0
VERTEX
  5
3E11B
  8
0
 10
1.76
 20
-1.95
 30
0.0
 70
    64
  0
VERTEX
  5
3E11C
  8
0
 10
1.76
 20
-1.34
 30
0.2
 70
    64
  0
VERTEX
  5
3E11D
  8
0
 10
1.76
 20
-1.34
 30
0.2
 70
    64
  0
VERTEX
  5
3E11E
  8
0
 10
1.76
 20
-1.95
 30
0.2
 70
    64
  0
VERTEX
  5
3E11F
  8
0
 10
0.0
 20
-1.34
 30
0.2
 70
    64
  0
VERTEX
  5
3E120
  8
0
 10
0.0
 20
-1.34
 30
0.2
 70
    64
  0
VERTEX
  5
3E121
  8
0
 10
0.0
 20
-1.95
 30
0.2
 70
    64
  0
SEQEND
  5
3E122
  8
0
  0
POLYLINE
  5
3E123
  8
0
 66
     1
 10
0.0
 20
0.0
 30
0.0
 70
    16
 71
     6
 72
     3
  0
VERTEX
  5
3E124
  8
0
 10
1.76
 20
-1.95
 30
1.67
 70
    64
  0
VERTEX
  5
3E125
  8
0
 10
1.76
 20
-1.95
 30
0.2
 70
    64
  0
VERTEX
  5
3E126
  8
0
 10
1.76
 20
-1.95
 30
0.2
 70
    64
  0
VERTEX
  5
3E127
  8
0
 10
0.0
 20
-1.95
 30
1.67
 70
    64
  0
VERTEX
  5
3E128
  8
0
 10
0.0
 20
-1.95
 30
0.2
 70
    64
  0
VERTEX
  5
3E129
  8
0
 10
0.0
 20
-1.95
 30
0.2
 70
    64
  0
VERTEX
  5
3E12A
  8
0
 10
0.0
 20
0.53
 30
1.67
 70
    64
  0
VERTEX
  5
3E12B
  8
0
 10
0.0
 20
0.53
 30
0.2
 70
    64
  0
VERTEX
  5
3E12C
  8
0
 10
0.0
 20
-1.95
 30
0.2
 70
    64
  0
VERTEX
  5
3E12D
  8
0
 10
1.76
 20
0.53
 30
1.67
 70
    64
  0
VERTEX
  5
3E12E
  8
0
 10
1.76
 20
0.53
 30
0.2
 70
    64
  0
VERTEX
  5
3E12F
  8
0
 10
1.76
 20
-1.95
 30
0.2
 70
    64
  0
VERTEX
  5
3E130
  8
0
 10
1.76
 20
0.53
 30
1.67
 70
    64
  0
VERTEX
  5
3E131
  8
0
 10
1.76
 20
0.53
 30
1.67
 70
    64
  0
VERTEX
  5
3E132
  8
0
 10
1.76
 20
-1.95
 30
1.67
 70
    64
  0
VERTEX
  5
3E133
  8
0
 10
0.0
 20
0.53
 30
1.67
 70
    64
  0
VERTEX
  5
3E134
  8
0
 10
0.0
 20
0.53
 30
1.67
 70
    64
  0
VERTEX
  5
3E135
  8
0
 10
0.0
 20
-1.95
 30
1.67
 70
    64
  0
SEQEND
  5
3E136
  8
0
  0
POLYLINE
  5
3E137
  8
0
 66
     1
 10
0.0
 20
0.0
 30
0.0
 70
    16
 71
     6
 72
     3
  0
VERTEX
  5
3E138
  8
0
 10
1.76
 20
0.0
 30
0.2
 70
    64
  0
VERTEX
  5
3E139
  8
0
 10
1.76
 20
0.0
 30
0.0
 70
    64
  0
VERTEX
  5
3E13A
  8
0
 10
1.76
 20
0.0
 30
0.0
 70
    64
  0
VERTEX
  5
3E13B
  8
0
 10
0.0
 20
0.0
 30
0.2
 70
    64
  0
VERTEX
  5
3E13C
  8
0
 10
0.0
 20
0.0
 30
0.0
 70
    64
  0
VERTEX
  5
3E13D
  8
0
 10
0.0
 20
0.0
 30
0.0
 70
    64
  0
VERTEX
  5
3E13E
  8
0
 10
0.0
 20
0.53
 30
0.2
 70
    64
  0
VERTEX
  5
3E13F
  8
0
 10
0.0
 20
0.53
 30
0.0
 70
    64
  0
VERTEX
  5
3E140
  8
0
 10
0.0
 20
0.0
 30
0.0
 70
    64
  0
VERTEX
  5
3E141
  8
0
 10
1.76
 20
0.53
 30
0.2
 70
    64
  0
VERTEX
  5
3E142
  8
0
 10
1.76
 20
0.53
 30
0.0
 70
    64
  0
VERTEX
  5
3E143
  8
0
 10
1.76
 20
0.0
 30
0.0
 70
    64
  0
VERTEX
  5
3E144
  8
0
 10
1.76
 20
0.53
 30
0.2
 70
    64
  0
VERTEX
  5
3E145
  8
0
 10
1.76
 20
0.53
 30
0.2
 70
    64
  0
VERTEX
  5
3E146
  8
0
 10
1.76
 20
0.0
 30
0.2
 70
    64
  0
VERTEX
  5
3E147
  8
0
 10
0.0
 20
0.53
 30
0.2
 70
    64
  0
VERTEX
  5
3E148
  8
0
 10
0.0
 20
0.53
 30
0.2
 70
    64
  0
VERTEX
  5
3E149
  8
0
 10
0.0
 20
0.0
 30
0.2
 70
    64
  0
SEQEND
  5
3E14A
  8
0
  0
POLYLINE
  5
3E14B
  8
0
 66
     1
 10
0.0
 20
0.0
 30
0.0
 70
    16
 71
     6
 72
     3
  0
VERTEX
  5
3E14C
  8
0
 10
1.76
 20
-1.35
 30
2.37
 70
    64
  0
VERTEX
  5
3E14D
  8
0
 10
1.76
 20
-1.35
 30
1.67
 70
    64
  0
VERTEX
  5
3E14E
  8
0
 10
1.76
 20
-1.35
 30
1.67
 70
    64
  0
VERTEX
  5
3E14F
  8
0
 10
0.0
 20
-1.35
 30
2.37
 70
    64
  0
VERTEX
  5
3E150
  8
0
 10
0.0
 20
-1.35
 30
1.67
 70
    64
  0
VERTEX
  5
3E151
  8
0
 10
0.0
 20
-1.35
 30
1.67
 70
    64
  0
VERTEX
  5
3E152
  8
0
 10
0.0
 20
-0.07
 30
2.37
 70
    64
  0
VERTEX
  5
3E153
  8
0
 10
0.0
 20
-0.07
 30
1.67
 70
    64
  0
VERTEX
  5
3E154
  8
0
 10
0.0
 20
-1.35
 30
1.67
 70
    64
  0
VERTEX
  5
3E155
  8
0
 10
1.76
 20
-0.07
 30
2.37
 70
    64
  0
VERTEX
  5
3E156
  8
0
 10
1.76
 20
-0.07
 30
1.67
 70
    64
  0
VERTEX
  5
3E157
  8
0
 10
1.76
 20
-1.35
 30
1.67
 70
    64
  0
VERTEX
  5
3E158
  8
0
 10
1.76
 20
-0.07
 30
2.37
 70
    64
  0
VERTEX
  5
3E159
  8
0
 10
1.76
 20
-0.07
 30
2.37
 70
    64
  0
VERTEX
  5
3E15A
  8
0
 10
1.76
 20
-1.35
 30
2.37
 70
    64
  0
VERTEX
  5
3E15B
  8
0
 10
0.0
 20
-0.07
 30
2.37
 70
    64
  0
VERTEX
  5
3E15C
  8
0
 10
0.0
 20
-0.07
 30
2.37
 70
    64
  0
VERTEX
  5
3E15D
  8
0
 10
0.0
 20
-1.35
 30
2.37
 70
    64
  0
SEQEND
  5
3E15E
  8
0
  0
POLYLINE
  5
3E15F
  8
0
 66
     1
 10
0.0
 20
0.0
 30
0.0
 70
    16
 71
     6
 72
     3
  0
VERTEX
  5
3E160
  8
0
 10
0.3
 20
-1.53
 30
2.37
 70
    64
  0
VERTEX
  5
3E161
  8
0
 10
0.3
 20
-1.53
 30
1.95
 70
    64
  0
VERTEX
  5
3E162
  8
0
 10
0.3
 20
-1.53
 30
1.95
 70
    64
  0
VERTEX
  5
3E163
  8
0
 10
0.0
 20
-1.53
 30
2.37
 70
    64
  0
VERTEX
  5
3E164
  8
0
 10
0.0
 20
-1.53
 30
1.95
 70
    64
  0
VERTEX
  5
3E165
  8
0
 10
0.0
 20
-1.53
 30
1.95
 70
    64
  0
VERTEX
  5
3E166
  8
0
 10
0.0
 20
-1.35
 30
2.37
 70
    64
  0
VERTEX
  5
3E167
  8
0
 10
0.0
 20
-1.35
 30
1.95
 70
    64
  0
VERTEX
  5
3E168
  8
0
 10
0.0
 20
-1.53
 30
1.95
 70
    64
  0
VERTEX
  5
3E169
  8
0
 10
0.3
 20
-1.35
 30
2.37
 70
    64
  0
VERTEX
  5
3E16A
  8
0
 10
0.3
 20
-1.35
 30
1.95
 70
    64
  0
VERTEX
  5
3E16B
  8
0
 10
0.3
 20
-1.53
 30
1.95
 70
    64
  0
VERTEX
  5
3E16C
  8
0
 10
0.3
 20
-1.35
 30
2.37
 70
    64
  0
VERTEX
  5
3E16D
  8
0
 10
0.3
 20
-1.35
 30
2.37
 70
    64
  0
VERTEX
  5
3E16E
  8
0
 10
0.3
 20
-1.53
 30
2.37
 70
    64
  0
VERTEX
  5
3E16F
  8
0
 10
0.0
 20
-1.35
 30
2.37
 70
    64
  0
VERTEX
  5
3E170
  8
0
 10
0.0
 20
-1.35
 30
2.37
 70
    64
  0
VERTEX
  5
3E171
  8
0
 10
0.0
 20
-1.53
 30
2.37
 70
    64
  0
SEQEND
  5
3E172
  8
0
  0
POLYLINE
  5
3E173
  8
0
 66
     1
 10
0.0
 20
0.0
 30
0.0
 70
    16
 71
     6
 72
     3
  0
VERTEX
  5
3E174
  8
0
 10
1.46
 20
-1.53
 30
2.37
 70
    64
  0
VERTEX
  5
3E175
  8
0
 10
1.46
 20
-1.53
 30
1.95
 70
    64
  0
VERTEX
  5
3E176
  8
0
 10
1.46
 20
-1.53
 30
1.95
 70
    64
  0
VERTEX
  5
3E177
  8
0
 10
1.76
 20
-1.53
 30
2.37
 70
    64
  0
VERTEX
  5
3E178
  8
0
 10
1.76
 20
-1.53
 30
1.95
 70
    64
  0
VERTEX
  5
3E179
  8
0
 10
1.76
 20
-1.53
 30
1.95
 70
    64
  0
VERTEX
  5
3E17A
  8
0
 10
1.76
 20
-1.35
 30
2.37
 70
    64
  0
VERTEX
  5
3E17B
  8
0
 10
1.76
 20
-1.35
 30
1.95
 70
    64
  0
VERTEX
  5
3E17C
  8
0
 10
1.76
 20
-1.53
 30
1.95
 70
    64
  0
VERTEX
  5
3E17D
  8
0
 10
1.46
 20
-1.35
 30
2.37
 70
    64
  0
VERTEX
  5
3E17E
  8
0
 10
1.46
 20
-1.35
 30
1.95
 70
    64
  0
VERTEX
  5
3E17F
  8
0
 10
1.46
 20
-1.53
 30
1.95
 70
    64
  0
VERTEX
  5
3E180
  8
0
 10
1.46
 20
-1.35
 30
2.37
 70
    64
  0
VERTEX
  5
3E181
  8
0
 10
1.46
 20
-1.35
 30
2.37
 70
    64
  0
VERTEX
  5
3E182
  8
0
 10
1.46
 20
-1.53
 30
2.37
 70
    64
  0
VERTEX
  5
3E183
  8
0
 10
1.76
 20
-1.35
 30
2.37
 70
    64
  0
VERTEX
  5
3E184
  8
0
 10
1.76
 20
-1.35
 30
2.37
 70
    64
  0
VERTEX
  5
3E185
  8
0
 10
1.76
 20
-1.53
 30
2.37
 70
    64
  0
SEQEND
  5
3E186
  8
0
  0
POLYLINE
  5
3E187
  8
0
 66
     1
 10
0.0
 20
0.0
 30
0.0
 70
    16
 71
     6
 72
     3
  0
VERTEX
  5
3E188
  8
0
 10
0.3
 20
0.11
 30
2.37
 70
    64
  0
VERTEX
  5
3E189
  8
0
 10
0.3
 20
0.11
 30
1.95
 70
    64
  0
VERTEX
  5
3E18A
  8
0
 10
0.3
 20
0.11
 30
1.95
 70
    64
  0
VERTEX
  5
3E18B
  8
0
 10
0.0
 20
0.11
 30
2.37
 70
    64
  0
VERTEX
  5
3E18C
  8
0
 10
0.0
 20
0.11
 30
1.95
 70
    64
  0
VERTEX
  5
3E18D
  8
0
 10
0.0
 20
0.11
 30
1.95
 70
    64
  0
VERTEX
  5
3E18E
  8
0
 10
0.0
 20
-0.07
 30
2.37
 70
    64
  0
VERTEX
  5
3E18F
  8
0
 10
0.0
 20
-0.07
 30
1.95
 70
    64
  0
VERTEX
  5
3E190
  8
0
 10
0.0
 20
0.11
 30
1.95
 70
    64
  0
VERTEX
  5
3E191
  8
0
 10
0.3
 20
-0.07
 30
2.37
 70
    64
  0
VERTEX
  5
3E192
  8
0
 10
0.3
 20
-0.07
 30
1.95
 70
    64
  0
VERTEX
  5
3E193
  8
0
 10
0.3
 20
0.11
 30
1.95
 70
    64
  0
VERTEX
  5
3E194
  8
0
 10
0.3
 20
-0.07
 30
2.37
 70
    64
  0
VERTEX
  5
3E195
  8
0
 10
0.3
 20
-0.07
 30
2.37
 70
    64
  0
VERTEX
  5
3E196
  8
0
 10
0.3
 20
0.11
 30
2.37
 70
    64
  0
VERTEX
  5
3E197
  8
0
 10
0.0
 20
-0.07
 30
2.37
 70
    64
  0
VERTEX
  5
3E198
  8
0
 10
0.0
 20
-0.07
 30
2.37
 70
    64
  0
VERTEX
  5
3E199
  8
0
 10
0.0
 20
0.11
 30
2.37
 70
    64
  0
SEQEND
  5
3E19A
  8
0
  0
POLYLINE
  5
3E19B
  8
0
 66
     1
 10
0.0
 20
0.0
 30
0.0
 70
    16
 71
     6
 72
     3
  0
VERTEX
  5
3E19C
  8
0
 10
1.46
 20
0.11
 30
2.37
 70
    64
  0
VERTEX
  5
3E19D
  8
0
 10
1.46
 20
0.11
 30
1.95
 70
    64
  0
VERTEX
  5
3E19E
  8
0
 10
1.46
 20
0.11
 30
1.95
 70
    64
  0
VERTEX
  5
3E19F
  8
0
 10
1.76
 20
0.11
 30
2.37
 70
    64
  0
VERTEX
  5
3E1A0
  8
0
 10
1.76
 20
0.11
 30
1.95
 70
    64
  0
VERTEX
  5
3E1A1
  8
0
 10
1.76
 20
0.11
 30
1.95
 70
    64
  0
VERTEX
  5
3E1A2
  8
0
 10
1.76
 20
-0.07
 30
2.37
 70
    64
  0
VERTEX
  5
3E1A3
  8
0
 10
1.76
 20
-0.07
 30
1.95
 70
    64
  0
VERTEX
  5
3E1A4
  8
0
 10
1.76
 20
0.11
 30
1.95
 70
    64
  0
VERTEX
  5
3E1A5
  8
0
 10
1.46
 20
-0.07
 30
2.37
 70
    64
  0
VERTEX
  5
3E1A6
  8
0
 10
1.46
 20
-0.07
 30
1.95
 70
    64
  0
VERTEX
  5
3E1A7
  8
0
 10
1.46
 20
0.11
 30
1.95
 70
    64
  0
VERTEX
  5
3E1A8
  8
0
 10
1.46
 20
-0.07
 30
2.37
 70
    64
  0
VERTEX
  5
3E1A9
  8
0
 10
1.46
 20
-0.07
 30
2.37
 70
    64
  0
VERTEX
  5
3E1AA
  8
0
 10
1.46
 20
0.11
 30
2.37
 70
    64
  0
VERTEX
  5
3E1AB
  8
0
 10
1.76
 20
-0.07
 30
2.37
 70
    64
  0
VERTEX
  5
3E1AC
  8
0
 10
1.76
 20
-0.07
 30
2.37
 70
    64
  0
VERTEX
  5
3E1AD
  8
0
 10
1.76
 20
0.11
 30
2.37
 70
    64
  0
SEQEND
  5
3E1AE
  8
0
  0
POLYLINE
  5
3E1C3
  8
0
 66
     1
 10
0.0
 20
0.0
 30
0.0
 70
    16
 71
     6
 72
     3
  0
VERTEX
  5
3E1C4
  8
0
 10
0.76
 20
-2.23
 30
0.15
 70
    64
  0
VERTEX
  5
3E1C5
  8
0
 10
0.76
 20
-2.23
 30
0.0
 70
    64
  0
VERTEX
  5
3E1C6
  8
0
 10
0.76
 20
-2.23
 30
0.0
 70
    64
  0
VERTEX
  5
3E1C7
  8
0
 10
0.38
 20
-2.23
 30
0.15
 70
    64
  0
VERTEX
  5
3E1C8
  8
0
 10
0.38
 20
-2.23
 30
0.0
 70
    64
  0
VERTEX
  5
3E1C9
  8
0
 10
0.38
 20
-2.23
 30
0.0
 70
    64
  0
VERTEX
  5
3E1CA
  8
0
 10
0.38
 20
-1.95
 30
0.15
 70
    64
  0
VERTEX
  5
3E1CB
  8
0
 10
0.38
 20
-1.95
 30
0.0
 70
    64
  0
VERTEX
  5
3E1CC
  8
0
 10
0.38
 20
-2.23
 30
0.0
 70
    64
  0
VERTEX
  5
3E1CD
  8
0
 10
0.76
 20
-1.95
 30
0.15
 70
    64
  0
VERTEX
  5
3E1CE
  8
0
 10
0.76
 20
-1.95
 30
0.0
 70
    64
  0
VERTEX
  5
3E1CF
  8
0
 10
0.76
 20
-2.23
 30
0.0
 70
    64
  0
VERTEX
  5
3E1D0
  8
0
 10
0.76
 20
-1.95
 30
0.15
 70
    64
  0
VERTEX
  5
3E1D1
  8
0
 10
0.76
 20
-1.95
 30
0.15
 70
    64
  0
VERTEX
  5
3E1D2
  8
0
 10
0.76
 20
-2.23
 30
0.15
 70
    64
  0
VERTEX
  5
3E1D3
  8
0
 10
0.38
 20
-1.95
 30
0.15
 70
    64
  0
VERTEX
  5
3E1D4
  8
0
 10
0.38
 20
-1.95
 30
0.15
 70
    64
  0
VERTEX
  5
3E1D5
  8
0
 10
0.38
 20
-2.23
 30
0.15
 70
    64
  0
SEQEND
  5
3E1D6
  8
0
  0
CIRCLE
  5
3E1D8
  8
0
 10
0.57
 20
-2.09
 30
0.15
 40
0.09
  0
CIRCLE
  5
3E1D9
  8
0
 10
0.57
 20
-2.09
 30
0.0
 40
0.09
  0
LINE
  5
3E1DA
  8
DIMS-MTG-HOLES
  6
CONTINUOUS
 10
0.48
 20
-2.09
 30
0.0
 11
0.66
 21
-2.09
 31
0.0
  0
LINE
  5
3E1DB
  8
DIMS-MTG-HOLES
  6
CONTINUOUS
 10
0.57
 20
-2.18
 30
0.0
 11
0.57
 21
-2.0
 31
0.0
  0
POLYLINE
  5
3E1DC
  8
0
 66
     1
 10
0.0
 20
0.0
 30
0.0
 70
    16
 71
     6
 72
     3
  0
VERTEX
  5
3E1DD
  8
0
 10
1.36
 20
0.53
 30
0.15
 70
    64
  0
VERTEX
  5
3E1DE
  8
0
 10
1.36
 20
0.53
 30
0.0
 70
    64
  0
VERTEX
  5
3E1DF
  8
0
 10
1.36
 20
0.53
 30
0.0
 70
    64
  0
VERTEX
  5
3E1E0
  8
0
 10
0.98
 20
0.53
 30
0.15
 70
    64
  0
VERTEX
  5
3E1E1
  8
0
 10
0.98
 20
0.53
 30
0.0
 70
    64
  0
VERTEX
  5
3E1E2
  8
0
 10
0.98
 20
0.53
 30
0.0
 70
    64
  0
VERTEX
  5
3E1E3
  8
0
 10
0.98
 20
0.81
 30
0.15
 70
    64
  0
VERTEX
  5
3E1E4
  8
0
 10
0.98
 20
0.81
 30
0.0
 70
    64
  0
VERTEX
  5
3E1E5
  8
0
 10
0.98
 20
0.53
 30
0.0
 70
    64
  0
VERTEX
  5
3E1E6
  8
0
 10
1.36
 20
0.81
 30
0.15
 70
    64
  0
VERTEX
  5
3E1E7
  8
0
 10
1.36
 20
0.81
 30
0.0
 70
    64
  0
VERTEX
  5
3E1E8
  8
0
 10
1.36
 20
0.53
 30
0.0
 70
    64
  0
VERTEX
  5
3E1E9
  8
0
 10
1.36
 20
0.81
 30
0.15
 70
    64
  0
VERTEX
  5
3E1EA
  8
0
 10
1.36
 20
0.81
 30
0.15
 70
    64
  0
VERTEX
  5
3E1EB
  8
0
 10
1.36
 20
0.53
 30
0.15
 70
    64
  0
VERTEX
  5
3E1EC
  8
0
 10
0.98
 20
0.81
 30
0.15
 70
    64
  0
VERTEX
  5
3E1ED
  8
0
 10
0.98
 20
0.81
 30
0.15
 70
    64
  0
VERTEX
  5
3E1EE
  8
0
 10
0.98
 20
0.53
 30
0.15
 70
    64
  0
SEQEND
  5
3E1EF
  8
0
  0
LINE
  5
3E1F0
  8
DIMS-MTG-HOLES
  6
CONTINUOUS
 10
1.08
 20
0.67
 30
0.0
 11
1.26
 21
0.67
 31
0.0
  0
CIRCLE
  5
3E1F1
  8
0
 10
1.17
 20
0.67
 30
0.0
 40
0.09
  0
LINE
  5
3E1F2
  8
DIMS-MTG-HOLES
  6
CONTINUOUS
 10
1.17
 20
0.58
 30
0.0
 11
1.17
 21
0.76
 31
0.0
  0
CIRCLE
  5
3E1F3
  8
0
 10
1.17
 20
0.67
 30
0.15
 40
0.09
  0
CIRCLE
  5
3E1F4
  8
0
 10
0.17
 20
-1.42
 30
2.37
 40
0.05
  0
CIRCLE
  5
3E1F5
  8
0
 10
0.17
 20
0.0
 30
2.37
 40
0.05
  0
CIRCLE
  5
3E1F6
  8
0
 10
1.59
 20
-1.42
 30
2.37
 40
0.05
  0
CIRCLE
  5
3E1F7
  8
0
 10
1.59
 20
0.0
 30
2.37
 40
0.05
  0
POLYLINE
  5
3E268
  8
0
 66
     1
 10
0.0
 20
0.0
 30
2.37
 70
     1
  0
VERTEX
  5
3EA14
  8
0
 10
1.056068
 20
-0.795
 30
2.37
  0
VERTEX
  5
3EA15
  8
0
 10
1.15
 20
-0.795
 30
2.37
 42
0.414214
  0
VERTEX
  5
3EA16
  8
0
 10
1.2
 20
-0.745
 30
2.37
  0
VERTEX
  5
3EA17
  8
0
 10
1.2
 20
-0.635
 30
2.37
 42
0.414214
  0
VERTEX
  5
3EA18
  8
0
 10
1.15
 20
-0.585
 30
2.37
  0
VERTEX
  5
3EA19
  8
0
 10
1.056068
 20
-0.585
 30
2.37
 42
0.443094
  0
VERTEX
  5
3EA1A
  8
0
 10
0.758345
 20
-0.525
 30
2.37
  0
VERTEX
  5
3EA1B
  8
0
 10
0.61
 20
-0.525
 30
2.37
 42
0.414214
  0
VERTEX
  5
3EA1C
  8
0
 10
0.56
 20
-0.575
 30
2.37
  0
VERTEX
  5
3EA1D
  8
0
 10
0.56
 20
-0.805
 30
2.37
 42
0.414214
  0
VERTEX
  5
3EA1E
  8
0
 10
0.61
 20
-0.855
 30
2.37
  0
VERTEX
  5
3EA1F
  8
0
 10
0.758345
 20
-0.855
 30
2.37
 42
0.443094
  0
SEQEND
  5
3EA20
  8
0
  0
3DFACE
  5
3E277
  8
0
 10
0.0
 20
-0.585
 30
1.235
 11
0.0
 21
-0.835
 31
1.235
 12
0.0
 22
-0.835
 32
0.635
 13
0.0
 23
-0.585
 33
0.635
  0
3DFACE
  5
3E27D
  8
0
 10
0.0
 20
-0.585
 30
0.755
 11
0.0
 21
-0.835
 31
0.755
 12
0.0
 22
-0.835
 32
0.925
 13
0.0
 23
-0.585
 33
0.925
  0
3DFACE
  5
3E280
  8
0
 10
1.76
 20
-0.585
 30
1.235
 11
1.76
 21
-0.835
 31
1.235
 12
1.76
 22
-0.835
 32
0.635
 13
1.76
 23
-0.585
 33
0.635
  0
3DFACE
  5
3E281
  8
0
 10
1.76
 20
-0.585
 30
0.755
 11
1.76
 21
-0.835
 31
0.755
 12
1.76
 22
-0.835
 32
0.925
 13
1.76
 23
-0.585
 33
0.925
  0
CIRCLE
  5
3E286
  8
0
 10
0.305
 20
-1.645
 30
1.67
 40
0.125
  0
POLYLINE
  5
3E2BC
  8
0
 66
     1
 10
0.0
 20
0.0
 30
1.67
  0
VERTEX
  5
3EA21
  8
0
 10
0.32
 20
-1.769097
 30
1.67
  0
VERTEX
  5
3EA22
  8
0
 10
0.32
 20
-1.66
 30
1.67
  0
VERTEX
  5
3EA23
  8
0
 10
0.365
 20
-1.66
 30
1.67
  0
VERTEX
  5
3EA24
  8
0
 10
0.365
 20
-1.63
 30
1.67
  0
VERTEX
  5
3EA25
  8
0
 10
0.32
 20
-1.63
 30
1.67
  0
VERTEX
  5
3EA26
  8
0
 10
0.32
 20
-1.520903
 30
1.67
  0
SEQEND
  5
3EA27
  8
0
  0
POLYLINE
  5
3E2C4
  8
0
 66
     1
 10
0.0
 20
0.0
 30
1.67
  0
VERTEX
  5
3EA28
  8
0
 10
0.29
 20
-1.520903
 30
1.67
  0
VERTEX
  5
3EA29
  8
0
 10
0.29
 20
-1.63
 30
1.67
  0
VERTEX
  5
3EA2A
  8
0
 10
0.245
 20
-1.63
 30
1.67
  0
VERTEX
  5
3EA2B
  8
0
 10
0.245
 20
-1.66
 30
1.67
  0
VERTEX
  5
3EA2C
  8
0
 10
0.29
 20
-1.66
 30
1.67
  0
VERTEX
  5
3EA2D
  8
0
 10
0.29
 20
-1.769097
 30
1.67
  0
SEQEND
  5
3EA2E
  8
0
  0
CIRCLE
  5
3E2CC
  8
0
 10
1.455
 20
-1.645
 30
1.67
 40
0.125
  0
POLYLINE
  5
3E2CD
  8
0
 66
     1
 10
0.0
 20
0.0
 30
1.67
  0
VERTEX
  5
3EA2F
  8
0
 10
1.47
 20
-1.520903
 30
1.67
  0
VERTEX
  5
3EA30
  8
0
 10
1.47
 20
-1.63
 30
1.67
  0
VERTEX
  5
3EA31
  8
0
 10
1.515
 20
-1.63
 30
1.67
  0
VERTEX
  5
3EA32
  8
0
 10
1.515
 20
-1.66
 30
1.67
  0
VERTEX
  5
3EA33
  8
0
 10
1.47
 20
-1.66
 30
1.67
  0
VERTEX
  5
3EA34
  8
0
 10
1.47
 20
-1.769097
 30
1.67
  0
SEQEND
  5
3EA35
  8
0
  0
POLYLINE
  5
3E2D5
  8
0
 66
     1
 10
0.0
 20
0.0
 30
1.67
  0
VERTEX
  5
3EA36
  8
0
 10
1.44
 20
-1.769097
 30
1.67
  0
VERTEX
  5
3EA37
  8
0
 10
1.44
 20
-1.66
 30
1.67
  0
VERTEX
  5
3EA38
  8
0
 10
1.395
 20
-1.66
 30
1.67
  0
VERTEX
  5
3EA39
  8
0
 10
1.395
 20
-1.63
 30
1.67
  0
VERTEX
  5
3EA3A
  8
0
 10
1.44
 20
-1.63
 30
1.67
  0
VERTEX
  5
3EA3B
  8
0
 10
1.44
 20
-1.520903
 30
1.67
  0
SEQEND
  5
3EA3C
  8
0
  0
CIRCLE
  5
3E2DE
  8
0
 10
0.88
 20
-1.645
 30
1.67
 40
0.125
  0
POLYLINE
  5
3E2DF
  8
0
 66
     1
 10
0.0
 20
0.0
 30
1.67
  0
VERTEX
  5
3EA3D
  8
0
 10
0.895
 20
-1.769097
 30
1.67
  0
VERTEX
  5
3EA3E
  8
0
 10
0.895
 20
-1.66
 30
1.67
  0
VERTEX
  5
3EA3F
  8
0
 10
0.94
 20
-1.66
 30
1.67
  0
VERTEX
  5
3EA40
  8
0
 10
0.94
 20
-1.63
 30
1.67
  0
VERTEX
  5
3EA41
  8
0
 10
0.895
 20
-1.63
 30
1.67
  0
VERTEX
  5
3EA42
  8
0
 10
0.895
 20
-1.520903
 30
1.67
  0
SEQEND
  5
3EA43
  8
0
  0
POLYLINE
  5
3E2E7
  8
0
 66
     1
 10
0.0
 20
0.0
 30
1.67
  0
VERTEX
  5
3EA44
  8
0
 10
0.865
 20
-1.520903
 30
1.67
  0
VERTEX
  5
3EA45
  8
0
 10
0.865
 20
-1.63
 30
1.67
  0
VERTEX
  5
3EA46
  8
0
 10
0.82
 20
-1.63
 30
1.67
  0
VERTEX
  5
3EA47
  8
0
 10
0.82
 20
-1.66
 30
1.67
  0
VERTEX
  5
3EA48
  8
0
 10
0.865
 20
-1.66
 30
1.67
  0
VERTEX
  5
3EA49
  8
0
 10
0.865
 20
-1.769097
 30
1.67
  0
SEQEND
  5
3EA4A
  8
0
  0
3DFACE
  5
3E2EF
  8
0
 10
0.2
 20
-1.95
 30
0.97
 11
0.42
 21
-1.95
 31
0.97
 12
0.42
 22
-1.95
 32
0.67
 13
0.2
 23
-1.95
 33
0.67
  0
3DFACE
  5
3E2F0
  8
0
 10
1.56
 20
-1.95
 30
0.97
 11
1.34
 21
-1.95
 31
0.97
 12
1.34
 22
-1.95
 32
0.67
 13
1.56
 23
-1.95
 33
0.67
  0
3DFACE
  5
3E2F2
  8
0
 10
0.77
 20
-1.95
 30
0.97
 11
0.99
 21
-1.95
 31
0.97
 12
0.99
 22
-1.95
 32
0.67
 13
0.77
 23
-1.95
 33
0.67
  0
CIRCLE
  5
3E2F3
  8
0
 10
0.305
 20
0.225
 30
1.67
 40
0.125
  0
POLYLINE
  5
3E2F4
  8
0
 66
     1
 10
0.0
 20
0.0
 30
1.67
  0
VERTEX
  5
3EA4B
  8
0
 10
0.32
 20
0.349097
 30
1.67
  0
VERTEX
  5
3EA4C
  8
0
 10
0.32
 20
0.24
 30
1.67
  0
VERTEX
  5
3EA4D
  8
0
 10
0.365
 20
0.24
 30
1.67
  0
VERTEX
  5
3EA4E
  8
0
 10
0.365
 20
0.21
 30
1.67
  0
VERTEX
  5
3EA4F
  8
0
 10
0.32
 20
0.21
 30
1.67
  0
VERTEX
  5
3EA50
  8
0
 10
0.32
 20
0.100903
 30
1.67
  0
SEQEND
  5
3EA51
  8
0
  0
POLYLINE
  5
3E2FC
  8
0
 66
     1
 10
0.0
 20
0.0
 30
1.67
  0
VERTEX
  5
3EA52
  8
0
 10
0.29
 20
0.100903
 30
1.67
  0
VERTEX
  5
3EA53
  8
0
 10
0.29
 20
0.21
 30
1.67
  0
VERTEX
  5
3EA54
  8
0
 10
0.245
 20
0.21
 30
1.67
  0
VERTEX
  5
3EA55
  8
0
 10
0.245
 20
0.24
 30
1.67
  0
VERTEX
  5
3EA56
  8
0
 10
0.29
 20
0.24
 30
1.67
  0
VERTEX
  5
3EA57
  8
0
 10
0.29
 20
0.349097
 30
1.67
  0
SEQEND
  5
3EA58
  8
0
  0
POLYLINE
  5
3E304
  8
0
 66
     1
 10
0.0
 20
0.0
 30
1.67
  0
VERTEX
  5
3EA59
  8
0
 10
0.865
 20
0.100903
 30
1.67
  0
VERTEX
  5
3EA5A
  8
0
 10
0.865
 20
0.21
 30
1.67
  0
VERTEX
  5
3EA5B
  8
0
 10
0.82
 20
0.21
 30
1.67
  0
VERTEX
  5
3EA5C
  8
0
 10
0.82
 20
0.24
 30
1.67
  0
VERTEX
  5
3EA5D
  8
0
 10
0.865
 20
0.24
 30
1.67
  0
VERTEX
  5
3EA5E
  8
0
 10
0.865
 20
0.349097
 30
1.67
  0
SEQEND
  5
3EA5F
  8
0
  0
POLYLINE
  5
3E30C
  8
0
 66
     1
 10
0.0
 20
0.0
 30
1.67
  0
VERTEX
  5
3EA60
  8
0
 10
0.895
 20
0.349097
 30
1.67
  0
VERTEX
  5
3EA61
  8
0
 10
0.895
 20
0.24
 30
1.67
  0
VERTEX
  5
3EA62
  8
0
 10
0.94
 20
0.24
 30
1.67
  0
VERTEX
  5
3EA63
  8
0
 10
0.94
 20
0.21
 30
1.67
  0
VERTEX
  5
3EA64
  8
0
 10
0.895
 20
0.21
 30
1.67
  0
VERTEX
  5
3EA65
  8
0
 10
0.895
 20
0.100903
 30
1.67
  0
SEQEND
  5
3EA66
  8
0
  0
CIRCLE
  5
3E314
  8
0
 10
0.88
 20
0.225
 30
1.67
 40
0.125
  0
POLYLINE
  5
3E315
  8
0
 66
     1
 10
0.0
 20
0.0
 30
1.67
  0
VERTEX
  5
3EA67
  8
0
 10
1.44
 20
0.349097
 30
1.67
  0
VERTEX
  5
3EA68
  8
0
 10
1.44
 20
0.24
 30
1.67
  0
VERTEX
  5
3EA69
  8
0
 10
1.395
 20
0.24
 30
1.67
  0
VERTEX
  5
3EA6A
  8
0
 10
1.395
 20
0.21
 30
1.67
  0
VERTEX
  5
3EA6B
  8
0
 10
1.44
 20
0.21
 30
1.67
  0
VERTEX
  5
3EA6C
  8
0
 10
1.44
 20
0.100903
 30
1.67
  0
SEQEND
  5
3EA6D
  8
0
  0
POLYLINE
  5
3E31D
  8
0
 66
     1
 10
0.0
 20
0.0
 30
1.67
  0
VERTEX
  5
3EA6E
  8
0
 10
1.47
 20
0.100903
 30
1.67
  0
VERTEX
  5
3EA6F
  8
0
 10
1.47
 20
0.21
 30
1.67
  0
VERTEX
  5
3EA70
  8
0
 10
1.515
 20
0.21
 30
1.67
  0
VERTEX
  5
3EA71
  8
0
 10
1.515
 20
0.24
 30
1.67
  0
VERTEX
  5
3EA72
  8
0
 10
1.47
 20
0.24
 30
1.67
  0
VERTEX
  5
3EA73
  8
0
 10
1.47
 20
0.349097
 30
1.67
  0
SEQEND
  5
3EA74
  8
0
  0
CIRCLE
  5
3E325
  8
0
 10
1.455
 20
0.225
 30
1.67
 40
0.125
  0
3DFACE
  5
3E326
  8
0
 10
1.56
 20
0.53
 30
0.97
 11
1.34
 21
0.53
 31
0.97
 12
1.34
 22
0.53
 32
0.67
 13
1.56
 23
0.53
 33
0.67
  0
3DFACE
  5
3E327
  8
0
 10
0.77
 20
0.53
 30
0.97
 11
0.99
 21
0.53
 31
0.97
 12
0.99
 22
0.53
 32
0.67
 13
0.77
 23
0.53
 33
0.67
  0
3DFACE
  5
3E328
  8
0
 10
0.2
 20
0.53
 30
0.97
 11
0.42
 21
0.53
 31
0.97
 12
0.42
 22
0.53
 32
0.67
 13
0.2
 23
0.53
 33
0.67
  0
3DFACE
  5
3E350
  8
0
 10
1.96
 20
0.53
 30
0.97
 11
2.18
 21
0.53
 31
0.97
 12
2.18
 22
0.53
 32
0.67
 13
1.96
 23
0.53
 33
0.67
  0
3DFACE
  5
3E351
  8
0
 10
2.53
 20
0.53
 30
0.97
 11
2.75
 21
0.53
 31
0.97
 12
2.75
 22
0.53
 32
0.67
 13
2.53
 23
0.53
 33
0.67
  0
3DFACE
  5
3E352
  8
0
 10
3.32
 20
0.53
 30
0.97
 11
3.1
 21
0.53
 31
0.97
 12
3.1
 22
0.53
 32
0.67
 13
3.32
 23
0.53
 33
0.67
  0
CIRCLE
  5
3E353
  8
0
 10
3.215
 20
0.225
 30
1.67
 40
0.125
  0
POLYLINE
  5
3E354
  8
0
 66
     1
 10
0.0
 20
0.0
 30
1.67
  0
VERTEX
  5
3EA75
  8
0
 10
3.23
 20
0.100903
 30
1.67
  0
VERTEX
  5
3EA76
  8
0
 10
3.23
 20
0.21
 30
1.67
  0
VERTEX
  5
3EA77
  8
0
 10
3.275
 20
0.21
 30
1.67
  0
VERTEX
  5
3EA78
  8
0
 10
3.275
 20
0.24
 30
1.67
  0
VERTEX
  5
3EA79
  8
0
 10
3.23
 20
0.24
 30
1.67
  0
VERTEX
  5
3EA7A
  8
0
 10
3.23
 20
0.349097
 30
1.67
  0
SEQEND
  5
3EA7B
  8
0
  0
POLYLINE
  5
3E355
  8
0
 66
     1
 10
0.0
 20
0.0
 30
1.67
  0
VERTEX
  5
3EA7C
  8
0
 10
3.2
 20
0.349097
 30
1.67
  0
VERTEX
  5
3EA7D
  8
0
 10
3.2
 20
0.24
 30
1.67
  0
VERTEX
  5
3EA7E
  8
0
 10
3.155
 20
0.24
 30
1.67
  0
VERTEX
  5
3EA7F
  8
0
 10
3.155
 20
0.21
 30
1.67
  0
VERTEX
  5
3EA80
  8
0
 10
3.2
 20
0.21
 30
1.67
  0
VERTEX
  5
3EA81
  8
0
 10
3.2
 20
0.100903
 30
1.67
  0
SEQEND
  5
3EA82
  8
0
  0
CIRCLE
  5
3E356
  8
0
 10
2.64
 20
0.225
 30
1.67
 40
0.125
  0
POLYLINE
  5
3E357
  8
0
 66
     1
 10
0.0
 20
0.0
 30
1.67
  0
VERTEX
  5
3EA83
  8
0
 10
2.655
 20
0.349097
 30
1.67
  0
VERTEX
  5
3EA84
  8
0
 10
2.655
 20
0.24
 30
1.67
  0
VERTEX
  5
3EA85
  8
0
 10
2.7
 20
0.24
 30
1.67
  0
VERTEX
  5
3EA86
  8
0
 10
2.7
 20
0.21
 30
1.67
  0
VERTEX
  5
3EA87
  8
0
 10
2.655
 20
0.21
 30
1.67
  0
VERTEX
  5
3EA88
  8
0
 10
2.655
 20
0.100903
 30
1.67
  0
SEQEND
  5
3EA89
  8
0
  0
POLYLINE
  5
3E358
  8
0
 66
     1
 10
0.0
 20
0.0
 30
1.67
  0
VERTEX
  5
3EA8A
  8
0
 10
2.625
 20
0.100903
 30
1.67
  0
VERTEX
  5
3EA8B
  8
0
 10
2.625
 20
0.21
 30
1.67
  0
VERTEX
  5
3EA8C
  8
0
 10
2.58
 20
0.21
 30
1.67
  0
VERTEX
  5
3EA8D
  8
0
 10
2.58
 20
0.24
 30
1.67
  0
VERTEX
  5
3EA8E
  8
0
 10
2.625
 20
0.24
 30
1.67
  0
VERTEX
  5
3EA8F
  8
0
 10
2.625
 20
0.349097
 30
1.67
  0
SEQEND
  5
3EA90
  8
0
  0
POLYLINE
  5
3E359
  8
0
 66
     1
 10
0.0
 20
0.0
 30
1.67
  0
VERTEX
  5
3EA91
  8
0
 10
2.05
 20
0.100903
 30
1.67
  0
VERTEX
  5
3EA92
  8
0
 10
2.05
 20
0.21
 30
1.67
  0
VERTEX
  5
3EA93
  8
0
 10
2.005
 20
0.21
 30
1.67
  0
VERTEX
  5
3EA94
  8
0
 10
2.005
 20
0.24
 30
1.67
  0
VERTEX
  5
3EA95
  8
0
 10
2.05
 20
0.24
 30
1.67
  0
VERTEX
  5
3EA96
  8
0
 10
2.05
 20
0.349097
 30
1.67
  0
SEQEND
  5
3EA97
  8
0
  0
POLYLINE
  5
3E35A
  8
0
 66
     1
 10
0.0
 20
0.0
 30
1.67
  0
VERTEX
  5
3EA98
  8
0
 10
2.08
 20
0.349097
 30
1.67
  0
VERTEX
  5
3EA99
  8
0
 10
2.08
 20
0.24
 30
1.67
  0
VERTEX
  5
3EA9A
  8
0
 10
2.125
 20
0.24
 30
1.67
  0
VERTEX
  5
3EA9B
  8
0
 10
2.125
 20
0.21
 30
1.67
  0
VERTEX
  5
3EA9C
  8
0
 10
2.08
 20
0.21
 30
1.67
  0
VERTEX
  5
3EA9D
  8
0
 10
2.08
 20
0.100903
 30
1.67
  0
SEQEND
  5
3EA9E
  8
0
  0
CIRCLE
  5
3E35B
  8
0
 10
2.065
 20
0.225
 30
1.67
 40
0.125
  0
3DFACE
  5
3E35C
  8
0
 10
2.53
 20
-1.95
 30
0.97
 11
2.75
 21
-1.95
 31
0.97
 12
2.75
 22
-1.95
 32
0.67
 13
2.53
 23
-1.95
 33
0.67
  0
3DFACE
  5
3E35D
  8
0
 10
3.32
 20
-1.95
 30
0.97
 11
3.1
 21
-1.95
 31
0.97
 12
3.1
 22
-1.95
 32
0.67
 13
3.32
 23
-1.95
 33
0.67
  0
3DFACE
  5
3E35E
  8
0
 10
1.96
 20
-1.95
 30
0.97
 11
2.18
 21
-1.95
 31
0.97
 12
2.18
 22
-1.95
 32
0.67
 13
1.96
 23
-1.95
 33
0.67
  0
POLYLINE
  5
3E35F
  8
0
 66
     1
 10
0.0
 20
0.0
 30
1.67
  0
VERTEX
  5
3EA9F
  8
0
 10
2.625
 20
-1.520903
 30
1.67
  0
VERTEX
  5
3EAA0
  8
0
 10
2.625
 20
-1.63
 30
1.67
  0
VERTEX
  5
3EAA1
  8
0
 10
2.58
 20
-1.63
 30
1.67
  0
VERTEX
  5
3EAA2
  8
0
 10
2.58
 20
-1.66
 30
1.67
  0
VERTEX
  5
3EAA3
  8
0
 10
2.625
 20
-1.66
 30
1.67
  0
VERTEX
  5
3EAA4
  8
0
 10
2.625
 20
-1.769097
 30
1.67
  0
SEQEND
  5
3EAA5
  8
0
  0
POLYLINE
  5
3E360
  8
0
 66
     1
 10
0.0
 20
0.0
 30
1.67
  0
VERTEX
  5
3EAA6
  8
0
 10
2.655
 20
-1.769097
 30
1.67
  0
VERTEX
  5
3EAA7
  8
0
 10
2.655
 20
-1.66
 30
1.67
  0
VERTEX
  5
3EAA8
  8
0
 10
2.7
 20
-1.66
 30
1.67
  0
VERTEX
  5
3EAA9
  8
0
 10
2.7
 20
-1.63
 30
1.67
  0
VERTEX
  5
3EAAA
  8
0
 10
2.655
 20
-1.63
 30
1.67
  0
VERTEX
  5
3EAAB
  8
0
 10
2.655
 20
-1.520903
 30
1.67
  0
SEQEND
  5
3EAAC
  8
0
  0
CIRCLE
  5
3E361
  8
0
 10
2.64
 20
-1.645
 30
1.67
 40
0.125
  0
POLYLINE
  5
3E362
  8
0
 66
     1
 10
0.0
 20
0.0
 30
1.67
  0
VERTEX
  5
3EAAD
  8
0
 10
3.2
 20
-1.769097
 30
1.67
  0
VERTEX
  5
3EAAE
  8
0
 10
3.2
 20
-1.66
 30
1.67
  0
VERTEX
  5
3EAAF
  8
0
 10
3.155
 20
-1.66
 30
1.67
  0
VERTEX
  5
3EAB0
  8
0
 10
3.155
 20
-1.63
 30
1.67
  0
VERTEX
  5
3EAB1
  8
0
 10
3.2
 20
-1.63
 30
1.67
  0
VERTEX
  5
3EAB2
  8
0
 10
3.2
 20
-1.520903
 30
1.67
  0
SEQEND
  5
3EAB3
  8
0
  0
POLYLINE
  5
3E363
  8
0
 66
     1
 10
0.0
 20
0.0
 30
1.67
  0
VERTEX
  5
3EAB4
  8
0
 10
3.23
 20
-1.520903
 30
1.67
  0
VERTEX
  5
3EAB5
  8
0
 10
3.23
 20
-1.63
 30
1.67
  0
VERTEX
  5
3EAB6
  8
0
 10
3.275
 20
-1.63
 30
1.67
  0
VERTEX
  5
3EAB7
  8
0
 10
3.275
 20
-1.66
 30
1.67
  0
VERTEX
  5
3EAB8
  8
0
 10
3.23
 20
-1.66
 30
1.67
  0
VERTEX
  5
3EAB9
  8
0
 10
3.23
 20
-1.769097
 30
1.67
  0
SEQEND
  5
3EABA
  8
0
  0
CIRCLE
  5
3E364
  8
0
 10
3.215
 20
-1.645
 30
1.67
 40
0.125
  0
POLYLINE
  5
3E365
  8
0
 66
     1
 10
0.0
 20
0.0
 30
1.67
  0
VERTEX
  5
3EABB
  8
0
 10
2.05
 20
-1.520903
 30
1.67
  0
VERTEX
  5
3EABC
  8
0
 10
2.05
 20
-1.63
 30
1.67
  0
VERTEX
  5
3EABD
  8
0
 10
2.005
 20
-1.63
 30
1.67
  0
VERTEX
  5
3EABE
  8
0
 10
2.005
 20
-1.66
 30
1.67
  0
VERTEX
  5
3EABF
  8
0
 10
2.05
 20
-1.66
 30
1.67
  0
VERTEX
  5
3EAC0
  8
0
 10
2.05
 20
-1.769097
 30
1.67
  0
SEQEND
  5
3EAC1
  8
0
  0
POLYLINE
  5
3E366
  8
0
 66
     1
 10
0.0
 20
0.0
 30
1.67
  0
VERTEX
  5
3EAC2
  8
0
 10
2.08
 20
-1.769097
 30
1.67
  0
VERTEX
  5
3EAC3
  8
0
 10
2.08
 20
-1.66
 30
1.67
  0
VERTEX
  5
3EAC4
  8
0
 10
2.125
 20
-1.66
 30
1.67
  0
VERTEX
  5
3EAC5
  8
0
 10
2.125
 20
-1.63
 30
1.67
  0
VERTEX
  5
3EAC6
  8
0
 10
2.08
 20
-1.63
 30
1.67
  0
VERTEX
  5
3EAC7
  8
0
 10
2.08
 20
-1.520903
 30
1.67
  0
SEQEND
  5
3EAC8
  8
0
  0
CIRCLE
  5
3E367
  8
0
 10
2.065
 20
-1.645
 30
1.67
 40
0.125
  0
3DFACE
  5
3E36A
  8
0
 10
3.52
 20
-0.585
 30
0.755
 11
3.52
 21
-0.835
 31
0.755
 12
3.52
 22
-0.835
 32
0.925
 13
3.52
 23
-0.585
 33
0.925
  0
3DFACE
  5
3E36B
  8
0
 10
3.52
 20
-0.585
 30
1.235
 11
3.52
 21
-0.835
 31
1.235
 12
3.52
 22
-0.835
 32
0.635
 13
3.52
 23
-0.585
 33
0.635
  0
3DFACE
  5
3E36D
  8
0
 10
1.76
 20
-0.585
 30
0.755
 11
1.76
 21
-0.835
 31
0.755
 12
1.76
 22
-0.835
 32
0.925
 13
1.76
 23
-0.585
 33
0.925
  0
3DFACE
  5
3E36E
  8
0
 10
1.76
 20
-0.585
 30
1.235
 11
1.76
 21
-0.835
 31
1.235
 12
1.76
 22
-0.835
 32
0.635
 13
1.76
 23
-0.585
 33
0.635
  0
POLYLINE
  5
3E36F
  8
0
 66
     1
 10
0.0
 20
0.0
 30
2.37
 70
     1
  0
VERTEX
  5
3EAC9
  8
0
 10
2.816068
 20
-0.795
 30
2.37
  0
VERTEX
  5
3EACA
  8
0
 10
2.91
 20
-0.795
 30
2.37
 42
0.414214
  0
VERTEX
  5
3EACB
  8
0
 10
2.96
 20
-0.745
 30
2.37
  0
VERTEX
  5
3EACC
  8
0
 10
2.96
 20
-0.635
 30
2.37
 42
0.414214
  0
VERTEX
  5
3EACD
  8
0
 10
2.91
 20
-0.585
 30
2.37
  0
VERTEX
  5
3EACE
  8
0
 10
2.816068
 20
-0.585
 30
2.37
 42
0.443094
  0
VERTEX
  5
3EACF
  8
0
 10
2.518345
 20
-0.525
 30
2.37
  0
VERTEX
  5
3EAD0
  8
0
 10
2.37
 20
-0.525
 30
2.37
 42
0.414214
  0
VERTEX
  5
3EAD1
  8
0
 10
2.32
 20
-0.575
 30
2.37
  0
VERTEX
  5
3EAD2
  8
0
 10
2.32
 20
-0.805
 30
2.37
 42
0.414214
  0
VERTEX
  5
3EAD3
  8
0
 10
2.37
 20
-0.855
 30
2.37
  0
VERTEX
  5
3EAD4
  8
0
 10
2.518345
 20
-0.855
 30
2.37
 42
0.443094
  0
SEQEND
  5
3EAD5
  8
0
  0
CIRCLE
  5
3E384
  8
0
 10
3.35
 20
0.0
 30
2.37
 40
0.05
  0
CIRCLE
  5
3E385
  8
0
 10
3.35
 20
-1.42
 30
2.37
 40
0.05
  0
CIRCLE
  5
3E386
  8
0
 10
1.93
 20
0.0
 30
2.37
 40
0.05
  0
CIRCLE
  5
3E387
  8
0
 10
1.93
 20
-1.42
 30
2.37
 40
0.05
  0
CIRCLE
  5
3E388
  8
0
 10
2.93
 20
0.67
 30
0.15
 40
0.09
  0
LINE
  5
3E389
  8
DIMS-MTG-HOLES
  6
CONTINUOUS
 10
2.93
 20
0.58
 30
0.0
 11
2.93
 21
0.76
 31
0.0
  0
CIRCLE
  5
3E38A
  8
0
 10
2.93
 20
0.67
 30
0.0
 40
0.09
  0
LINE
  5
3E38B
  8
DIMS-MTG-HOLES
  6
CONTINUOUS
 10
2.84
 20
0.67
 30
0.0
 11
3.02
 21
0.67
 31
0.0
  0
POLYLINE
  5
3E38C
  8
0
 66
     1
 10
0.0
 20
0.0
 30
0.0
 70
    16
 71
     6
 72
     3
  0
VERTEX
  5
3E38D
  8
0
 10
3.12
 20
0.53
 30
0.15
 70
    64
  0
VERTEX
  5
3E38E
  8
0
 10
3.12
 20
0.53
 30
0.0
 70
    64
  0
VERTEX
  5
3E38F
  8
0
 10
3.12
 20
0.53
 30
0.0
 70
    64
  0
VERTEX
  5
3E390
  8
0
 10
2.74
 20
0.53
 30
0.15
 70
    64
  0
VERTEX
  5
3E391
  8
0
 10
2.74
 20
0.53
 30
0.0
 70
    64
  0
VERTEX
  5
3E392
  8
0
 10
2.74
 20
0.53
 30
0.0
 70
    64
  0
VERTEX
  5
3E393
  8
0
 10
2.74
 20
0.81
 30
0.15
 70
    64
  0
VERTEX
  5
3E394
  8
0
 10
2.74
 20
0.81
 30
0.0
 70
    64
  0
VERTEX
  5
3E395
  8
0
 10
2.74
 20
0.53
 30
0.0
 70
    64
  0
VERTEX
  5
3E396
  8
0
 10
3.12
 20
0.81
 30
0.15
 70
    64
  0
VERTEX
  5
3E397
  8
0
 10
3.12
 20
0.81
 30
0.0
 70
    64
  0
VERTEX
  5
3E398
  8
0
 10
3.12
 20
0.53
 30
0.0
 70
    64
  0
VERTEX
  5
3E399
  8
0
 10
3.12
 20
0.81
 30
0.15
 70
    64
  0
VERTEX
  5
3E39A
  8
0
 10
3.12
 20
0.81
 30
0.15
 70
    64
  0
VERTEX
  5
3E39B
  8
0
 10
3.12
 20
0.53
 30
0.15
 70
    64
  0
VERTEX
  5
3E39C
  8
0
 10
2.74
 20
0.81
 30
0.15
 70
    64
  0
VERTEX
  5
3E39D
  8
0
 10
2.74
 20
0.81
 30
0.15
 70
    64
  0
VERTEX
  5
3E39E
  8
0
 10
2.74
 20
0.53
 30
0.15
 70
    64
  0
SEQEND
  5
3E39F
  8
0
  0
LINE
  5
3E3A0
  8
DIMS-MTG-HOLES
  6
CONTINUOUS
 10
2.33
 20
-2.18
 30
0.0
 11
2.33
 21
-2.0
 31
0.0
  0
LINE
  5
3E3A1
  8
DIMS-MTG-HOLES
  6
CONTINUOUS
 10
2.24
 20
-2.09
 30
0.0
 11
2.42
 21
-2.09
 31
0.0
  0
CIRCLE
  5
3E3A2
  8
0
 10
2.33
 20
-2.09
 30
0.0
 40
0.09
  0
CIRCLE
  5
3E3A3
  8
0
 10
2.33
 20
-2.09
 30
0.15
 40
0.09
  0
POLYLINE
  5
3E3A4
  8
0
 66
     1
 10
0.0
 20
0.0
 30
0.0
 70
    16
 71
     6
 72
     3
  0
VERTEX
  5
3E3A5
  8
0
 10
2.52
 20
-2.23
 30
0.15
 70
    64
  0
VERTEX
  5
3E3A6
  8
0
 10
2.52
 20
-2.23
 30
0.0
 70
    64
  0
VERTEX
  5
3E3A7
  8
0
 10
2.52
 20
-2.23
 30
0.0
 70
    64
  0
VERTEX
  5
3E3A8
  8
0
 10
2.14
 20
-2.23
 30
0.15
 70
    64
  0
VERTEX
  5
3E3A9
  8
0
 10
2.14
 20
-2.23
 30
0.0
 70
    64
  0
VERTEX
  5
3E3AA
  8
0
 10
2.14
 20
-2.23
 30
0.0
 70
    64
  0
VERTEX
  5
3E3AB
  8
0
 10
2.14
 20
-1.95
 30
0.15
 70
    64
  0
VERTEX
  5
3E3AC
  8
0
 10
2.14
 20
-1.95
 30
0.0
 70
    64
  0
VERTEX
  5
3E3AD
  8
0
 10
2.14
 20
-2.23
 30
0.0
 70
    64
  0
VERTEX
  5
3E3AE
  8
0
 10
2.52
 20
-1.95
 30
0.15
 70
    64
  0
VERTEX
  5
3E3AF
  8
0
 10
2.52
 20
-1.95
 30
0.0
 70
    64
  0
VERTEX
  5
3E3B0
  8
0
 10
2.52
 20
-2.23
 30
0.0
 70
    64
  0
VERTEX
  5
3E3B1
  8
0
 10
2.52
 20
-1.95
 30
0.15
 70
    64
  0
VERTEX
  5
3E3B2
  8
0
 10
2.52
 20
-1.95
 30
0.15
 70
    64
  0
VERTEX
  5
3E3B3
  8
0
 10
2.52
 20
-2.23
 30
0.15
 70
    64
  0
VERTEX
  5
3E3B4
  8
0
 10
2.14
 20
-1.95
 30
0.15
 70
    64
  0
VERTEX
  5
3E3B5
  8
0
 10
2.14
 20
-1.95
 30
0.15
 70
    64
  0
VERTEX
  5
3E3B6
  8
0
 10
2.14
 20
-2.23
 30
0.15
 70
    64
  0
SEQEND
  5
3E3B7
  8
0
  0
POLYLINE
  5
3E3B8
  8
0
 66
     1
 10
0.0
 20
0.0
 30
0.0
 70
    16
 71
     6
 72
     3
  0
VERTEX
  5
3E3B9
  8
0
 10
3.22
 20
0.11
 30
2.37
 70
    64
  0
VERTEX
  5
3E3BA
  8
0
 10
3.22
 20
0.11
 30
1.95
 70
    64
  0
VERTEX
  5
3E3BB
  8
0
 10
3.22
 20
0.11
 30
1.95
 70
    64
  0
VERTEX
  5
3E3BC
  8
0
 10
3.52
 20
0.11
 30
2.37
 70
    64
  0
VERTEX
  5
3E3BD
  8
0
 10
3.52
 20
0.11
 30
1.95
 70
    64
  0
VERTEX
  5
3E3BE
  8
0
 10
3.52
 20
0.11
 30
1.95
 70
    64
  0
VERTEX
  5
3E3BF
  8
0
 10
3.52
 20
-0.07
 30
2.37
 70
    64
  0
VERTEX
  5
3E3C0
  8
0
 10
3.52
 20
-0.07
 30
1.95
 70
    64
  0
VERTEX
  5
3E3C1
  8
0
 10
3.52
 20
0.11
 30
1.95
 70
    64
  0
VERTEX
  5
3E3C2
  8
0
 10
3.22
 20
-0.07
 30
2.37
 70
    64
  0
VERTEX
  5
3E3C3
  8
0
 10
3.22
 20
-0.07
 30
1.95
 70
    64
  0
VERTEX
  5
3E3C4
  8
0
 10
3.22
 20
0.11
 30
1.95
 70
    64
  0
VERTEX
  5
3E3C5
  8
0
 10
3.22
 20
-0.07
 30
2.37
 70
    64
  0
VERTEX
  5
3E3C6
  8
0
 10
3.22
 20
-0.07
 30
2.37
 70
    64
  0
VERTEX
  5
3E3C7
  8
0
 10
3.22
 20
0.11
 30
2.37
 70
    64
  0
VERTEX
  5
3E3C8
  8
0
 10
3.52
 20
-0.07
 30
2.37
 70
    64
  0
VERTEX
  5
3E3C9
  8
0
 10
3.52
 20
-0.07
 30
2.37
 70
    64
  0
VERTEX
  5
3E3CA
  8
0
 10
3.52
 20
0.11
 30
2.37
 70
    64
  0
SEQEND
  5
3E3CB
  8
0
  0
POLYLINE
  5
3E3CC
  8
0
 66
     1
 10
0.0
 20
0.0
 30
0.0
 70
    16
 71
     6
 72
     3
  0
VERTEX
  5
3E3CD
  8
0
 10
2.06
 20
0.11
 30
2.37
 70
    64
  0
VERTEX
  5
3E3CE
  8
0
 10
2.06
 20
0.11
 30
1.95
 70
    64
  0
VERTEX
  5
3E3CF
  8
0
 10
2.06
 20
0.11
 30
1.95
 70
    64
  0
VERTEX
  5
3E3D0
  8
0
 10
1.76
 20
0.11
 30
2.37
 70
    64
  0
VERTEX
  5
3E3D1
  8
0
 10
1.76
 20
0.11
 30
1.95
 70
    64
  0
VERTEX
  5
3E3D2
  8
0
 10
1.76
 20
0.11
 30
1.95
 70
    64
  0
VERTEX
  5
3E3D3
  8
0
 10
1.76
 20
-0.07
 30
2.37
 70
    64
  0
VERTEX
  5
3E3D4
  8
0
 10
1.76
 20
-0.07
 30
1.95
 70
    64
  0
VERTEX
  5
3E3D5
  8
0
 10
1.76
 20
0.11
 30
1.95
 70
    64
  0
VERTEX
  5
3E3D6
  8
0
 10
2.06
 20
-0.07
 30
2.37
 70
    64
  0
VERTEX
  5
3E3D7
  8
0
 10
2.06
 20
-0.07
 30
1.95
 70
    64
  0
VERTEX
  5
3E3D8
  8
0
 10
2.06
 20
0.11
 30
1.95
 70
    64
  0
VERTEX
  5
3E3D9
  8
0
 10
2.06
 20
-0.07
 30
2.37
 70
    64
  0
VERTEX
  5
3E3DA
  8
0
 10
2.06
 20
-0.07
 30
2.37
 70
    64
  0
VERTEX
  5
3E3DB
  8
0
 10
2.06
 20
0.11
 30
2.37
 70
    64
  0
VERTEX
  5
3E3DC
  8
0
 10
1.76
 20
-0.07
 30
2.37
 70
    64
  0
VERTEX
  5
3E3DD
  8
0
 10
1.76
 20
-0.07
 30
2.37
 70
    64
  0
VERTEX
  5
3E3DE
  8
0
 10
1.76
 20
0.11
 30
2.37
 70
    64
  0
SEQEND
  5
3E3DF
  8
0
  0
POLYLINE
  5
3E3E0
  8
0
 66
     1
 10
0.0
 20
0.0
 30
0.0
 70
    16
 71
     6
 72
     3
  0
VERTEX
  5
3E3E1
  8
0
 10
3.22
 20
-1.53
 30
2.37
 70
    64
  0
VERTEX
  5
3E3E2
  8
0
 10
3.22
 20
-1.53
 30
1.95
 70
    64
  0
VERTEX
  5
3E3E3
  8
0
 10
3.22
 20
-1.53
 30
1.95
 70
    64
  0
VERTEX
  5
3E3E4
  8
0
 10
3.52
 20
-1.53
 30
2.37
 70
    64
  0
VERTEX
  5
3E3E5
  8
0
 10
3.52
 20
-1.53
 30
1.95
 70
    64
  0
VERTEX
  5
3E3E6
  8
0
 10
3.52
 20
-1.53
 30
1.95
 70
    64
  0
VERTEX
  5
3E3E7
  8
0
 10
3.52
 20
-1.35
 30
2.37
 70
    64
  0
VERTEX
  5
3E3E8
  8
0
 10
3.52
 20
-1.35
 30
1.95
 70
    64
  0
VERTEX
  5
3E3E9
  8
0
 10
3.52
 20
-1.53
 30
1.95
 70
    64
  0
VERTEX
  5
3E3EA
  8
0
 10
3.22
 20
-1.35
 30
2.37
 70
    64
  0
VERTEX
  5
3E3EB
  8
0
 10
3.22
 20
-1.35
 30
1.95
 70
    64
  0
VERTEX
  5
3E3EC
  8
0
 10
3.22
 20
-1.53
 30
1.95
 70
    64
  0
VERTEX
  5
3E3ED
  8
0
 10
3.22
 20
-1.35
 30
2.37
 70
    64
  0
VERTEX
  5
3E3EE
  8
0
 10
3.22
 20
-1.35
 30
2.37
 70
    64
  0
VERTEX
  5
3E3EF
  8
0
 10
3.22
 20
-1.53
 30
2.37
 70
    64
  0
VERTEX
  5
3E3F0
  8
0
 10
3.52
 20
-1.35
 30
2.37
 70
    64
  0
VERTEX
  5
3E3F1
  8
0
 10
3.52
 20
-1.35
 30
2.37
 70
    64
  0
VERTEX
  5
3E3F2
  8
0
 10
3.52
 20
-1.53
 30
2.37
 70
    64
  0
SEQEND
  5
3E3F3
  8
0
  0
POLYLINE
  5
3E3F4
  8
0
 66
     1
 10
0.0
 20
0.0
 30
0.0
 70
    16
 71
     6
 72
     3
  0
VERTEX
  5
3E3F5
  8
0
 10
2.06
 20
-1.53
 30
2.37
 70
    64
  0
VERTEX
  5
3E3F6
  8
0
 10
2.06
 20
-1.53
 30
1.95
 70
    64
  0
VERTEX
  5
3E3F7
  8
0
 10
2.06
 20
-1.53
 30
1.95
 70
    64
  0
VERTEX
  5
3E3F8
  8
0
 10
1.76
 20
-1.53
 30
2.37
 70
    64
  0
VERTEX
  5
3E3F9
  8
0
 10
1.76
 20
-1.53
 30
1.95
 70
    64
  0
VERTEX
  5
3E3FA
  8
0
 10
1.76
 20
-1.53
 30
1.95
 70
    64
  0
VERTEX
  5
3E3FB
  8
0
 10
1.76
 20
-1.35
 30
2.37
 70
    64
  0
VERTEX
  5
3E3FC
  8
0
 10
1.76
 20
-1.35
 30
1.95
 70
    64
  0
VERTEX
  5
3E3FD
  8
0
 10
1.76
 20
-1.53
 30
1.95
 70
    64
  0
VERTEX
  5
3E3FE
  8
0
 10
2.06
 20
-1.35
 30
2.37
 70
    64
  0
VERTEX
  5
3E3FF
  8
0
 10
2.06
 20
-1.35
 30
1.95
 70
    64
  0
VERTEX
  5
3E400
  8
0
 10
2.06
 20
-1.53
 30
1.95
 70
    64
  0
VERTEX
  5
3E401
  8
0
 10
2.06
 20
-1.35
 30
2.37
 70
    64
  0
VERTEX
  5
3E402
  8
0
 10
2.06
 20
-1.35
 30
2.37
 70
    64
  0
VERTEX
  5
3E403
  8
0
 10
2.06
 20
-1.53
 30
2.37
 70
    64
  0
VERTEX
  5
3E404
  8
0
 10
1.76
 20
-1.35
 30
2.37
 70
    64
  0
VERTEX
  5
3E405
  8
0
 10
1.76
 20
-1.35
 30
2.37
 70
    64
  0
VERTEX
  5
3E406
  8
0
 10
1.76
 20
-1.53
 30
2.37
 70
    64
  0
SEQEND
  5
3E407
  8
0
  0
POLYLINE
  5
3E408
  8
0
 66
     1
 10
0.0
 20
0.0
 30
0.0
 70
    16
 71
     6
 72
     3
  0
VERTEX
  5
3E409
  8
0
 10
3.52
 20
-1.35
 30
2.37
 70
    64
  0
VERTEX
  5
3E40A
  8
0
 10
3.52
 20
-1.35
 30
1.67
 70
    64
  0
VERTEX
  5
3E40B
  8
0
 10
3.52
 20
-1.35
 30
1.67
 70
    64
  0
VERTEX
  5
3E40C
  8
0
 10
1.76
 20
-1.35
 30
2.37
 70
    64
  0
VERTEX
  5
3E40D
  8
0
 10
1.76
 20
-1.35
 30
1.67
 70
    64
  0
VERTEX
  5
3E40E
  8
0
 10
1.76
 20
-1.35
 30
1.67
 70
    64
  0
VERTEX
  5
3E40F
  8
0
 10
1.76
 20
-0.07
 30
2.37
 70
    64
  0
VERTEX
  5
3E410
  8
0
 10
1.76
 20
-0.07
 30
1.67
 70
    64
  0
VERTEX
  5
3E411
  8
0
 10
1.76
 20
-1.35
 30
1.67
 70
    64
  0
VERTEX
  5
3E412
  8
0
 10
3.52
 20
-0.07
 30
2.37
 70
    64
  0
VERTEX
  5
3E413
  8
0
 10
3.52
 20
-0.07
 30
1.67
 70
    64
  0
VERTEX
  5
3E414
  8
0
 10
3.52
 20
-1.35
 30
1.67
 70
    64
  0
VERTEX
  5
3E415
  8
0
 10
3.52
 20
-0.07
 30
2.37
 70
    64
  0
VERTEX
  5
3E416
  8
0
 10
3.52
 20
-0.07
 30
2.37
 70
    64
  0
VERTEX
  5
3E417
  8
0
 10
3.52
 20
-1.35
 30
2.37
 70
    64
  0
VERTEX
  5
3E418
  8
0
 10
1.76
 20
-0.07
 30
2.37
 70
    64
  0
VERTEX
  5
3E419
  8
0
 10
1.76
 20
-0.07
 30
2.37
 70
    64
  0
VERTEX
  5
3E41A
  8
0
 10
1.76
 20
-1.35
 30
2.37
 70
    64
  0
SEQEND
  5
3E41B
  8
0
  0
POLYLINE
  5
3E41C
  8
0
 66
     1
 10
0.0
 20
0.0
 30
0.0
 70
    16
 71
     6
 72
     3
  0
VERTEX
  5
3E41D
  8
0
 10
3.52
 20
0.0
 30
0.2
 70
    64
  0
VERTEX
  5
3E41E
  8
0
 10
3.52
 20
0.0
 30
0.0
 70
    64
  0
VERTEX
  5
3E41F
  8
0
 10
3.52
 20
0.0
 30
0.0
 70
    64
  0
VERTEX
  5
3E420
  8
0
 10
1.76
 20
0.0
 30
0.2
 70
    64
  0
VERTEX
  5
3E421
  8
0
 10
1.76
 20
0.0
 30
0.0
 70
    64
  0
VERTEX
  5
3E422
  8
0
 10
1.76
 20
0.0
 30
0.0
 70
    64
  0
VERTEX
  5
3E423
  8
0
 10
1.76
 20
0.53
 30
0.2
 70
    64
  0
VERTEX
  5
3E424
  8
0
 10
1.76
 20
0.53
 30
0.0
 70
    64
  0
VERTEX
  5
3E425
  8
0
 10
1.76
 20
0.0
 30
0.0
 70
    64
  0
VERTEX
  5
3E426
  8
0
 10
3.52
 20
0.53
 30
0.2
 70
    64
  0
VERTEX
  5
3E427
  8
0
 10
3.52
 20
0.53
 30
0.0
 70
    64
  0
VERTEX
  5
3E428
  8
0
 10
3.52
 20
0.0
 30
0.0
 70
    64
  0
VERTEX
  5
3E429
  8
0
 10
3.52
 20
0.53
 30
0.2
 70
    64
  0
VERTEX
  5
3E42A
  8
0
 10
3.52
 20
0.53
 30
0.2
 70
    64
  0
VERTEX
  5
3E42B
  8
0
 10
3.52
 20
0.0
 30
0.2
 70
    64
  0
VERTEX
  5
3E42C
  8
0
 10
1.76
 20
0.53
 30
0.2
 70
    64
  0
VERTEX
  5
3E42D
  8
0
 10
1.76
 20
0.53
 30
0.2
 70
    64
  0
VERTEX
  5
3E42E
  8
0
 10
1.76
 20
0.0
 30
0.2
 70
    64
  0
SEQEND
  5
3E42F
  8
0
  0
POLYLINE
  5
3E430
  8
0
 66
     1
 10
0.0
 20
0.0
 30
0.0
 70
    16
 71
     6
 72
     3
  0
VERTEX
  5
3E431
  8
0
 10
3.52
 20
-1.95
 30
1.67
 70
    64
  0
VERTEX
  5
3E432
  8
0
 10
3.52
 20
-1.95
 30
0.2
 70
    64
  0
VERTEX
  5
3E433
  8
0
 10
3.52
 20
-1.95
 30
0.2
 70
    64
  0
VERTEX
  5
3E434
  8
0
 10
1.76
 20
-1.95
 30
1.67
 70
    64
  0
VERTEX
  5
3E435
  8
0
 10
1.76
 20
-1.95
 30
0.2
 70
    64
  0
VERTEX
  5
3E436
  8
0
 10
1.76
 20
-1.95
 30
0.2
 70
    64
  0
VERTEX
  5
3E437
  8
0
 10
1.76
 20
0.53
 30
1.67
 70
    64
  0
VERTEX
  5
3E438
  8
0
 10
1.76
 20
0.53
 30
0.2
 70
    64
  0
VERTEX
  5
3E439
  8
0
 10
1.76
 20
-1.95
 30
0.2
 70
    64
  0
VERTEX
  5
3E43A
  8
0
 10
3.52
 20
0.53
 30
1.67
 70
    64
  0
VERTEX
  5
3E43B
  8
0
 10
3.52
 20
0.53
 30
0.2
 70
    64
  0
VERTEX
  5
3E43C
  8
0
 10
3.52
 20
-1.95
 30
0.2
 70
    64
  0
VERTEX
  5
3E43D
  8
0
 10
3.52
 20
0.53
 30
1.67
 70
    64
  0
VERTEX
  5
3E43E
  8
0
 10
3.52
 20
0.53
 30
1.67
 70
    64
  0
VERTEX
  5
3E43F
  8
0
 10
3.52
 20
-1.95
 30
1.67
 70
    64
  0
VERTEX
  5
3E440
  8
0
 10
1.76
 20
0.53
 30
1.67
 70
    64
  0
VERTEX
  5
3E441
  8
0
 10
1.76
 20
0.53
 30
1.67
 70
    64
  0
VERTEX
  5
3E442
  8
0
 10
1.76
 20
-1.95
 30
1.67
 70
    64
  0
SEQEND
  5
3E443
  8
0
  0
POLYLINE
  5
3E444
  8
0
 66
     1
 10
0.0
 20
0.0
 30
0.0
 70
    16
 71
     6
 72
     3
  0
VERTEX
  5
3E445
  8
0
 10
3.52
 20
-1.95
 30
0.2
 70
    64
  0
VERTEX
  5
3E446
  8
0
 10
3.52
 20
-1.95
 30
0.0
 70
    64
  0
VERTEX
  5
3E447
  8
0
 10
3.52
 20
-1.95
 30
0.0
 70
    64
  0
VERTEX
  5
3E448
  8
0
 10
1.76
 20
-1.95
 30
0.2
 70
    64
  0
VERTEX
  5
3E449
  8
0
 10
1.76
 20
-1.95
 30
0.0
 70
    64
  0
VERTEX
  5
3E44A
  8
0
 10
1.76
 20
-1.95
 30
0.0
 70
    64
  0
VERTEX
  5
3E44B
  8
0
 10
1.76
 20
-1.34
 30
0.2
 70
    64
  0
VERTEX
  5
3E44C
  8
0
 10
1.76
 20
-1.34
 30
0.0
 70
    64
  0
VERTEX
  5
3E44D
  8
0
 10
1.76
 20
-1.95
 30
0.0
 70
    64
  0
VERTEX
  5
3E44E
  8
0
 10
3.52
 20
-1.34
 30
0.2
 70
    64
  0
VERTEX
  5
3E44F
  8
0
 10
3.52
 20
-1.34
 30
0.0
 70
    64
  0
VERTEX
  5
3E450
  8
0
 10
3.52
 20
-1.95
 30
0.0
 70
    64
  0
VERTEX
  5
3E451
  8
0
 10
3.52
 20
-1.34
 30
0.2
 70
    64
  0
VERTEX
  5
3E452
  8
0
 10
3.52
 20
-1.34
 30
0.2
 70
    64
  0
VERTEX
  5
3E453
  8
0
 10
3.52
 20
-1.95
 30
0.2
 70
    64
  0
VERTEX
  5
3E454
  8
0
 10
1.76
 20
-1.34
 30
0.2
 70
    64
  0
VERTEX
  5
3E455
  8
0
 10
1.76
 20
-1.34
 30
0.2
 70
    64
  0
VERTEX
  5
3E456
  8
0
 10
1.76
 20
-1.95
 30
0.2
 70
    64
  0
SEQEND
  5
3E457
  8
0
  0
POLYLINE
  5
3E6E9
  8
0
 66
     1
 10
0.0
 20
0.0
 30
0.0
 70
    16
 71
     6
 72
     3
  0
VERTEX
  5
3E6EA
  8
0
 10
1.51
 20
-0.05
 30
3.5
 70
    64
  0
VERTEX
  5
3E6EB
  8
0
 10
1.51
 20
-0.05
 30
2.73
 70
    64
  0
VERTEX
  5
3E6EC
  8
0
 10
1.51
 20
-0.05
 30
2.73
 70
    64
  0
VERTEX
  5
3E6ED
  8
0
 10
1.51
 20
0.07
 30
3.5
 70
    64
  0
VERTEX
  5
3E6EE
  8
0
 10
1.51
 20
0.07
 30
2.73
 70
    64
  0
VERTEX
  5
3E6EF
  8
0
 10
1.51
 20
0.07
 30
2.73
 70
    64
  0
VERTEX
  5
3E6F0
  8
0
 10
2.01
 20
0.07
 30
3.5
 70
    64
  0
VERTEX
  5
3E6F1
  8
0
 10
2.01
 20
0.07
 30
2.73
 70
    64
  0
VERTEX
  5
3E6F2
  8
0
 10
1.51
 20
0.07
 30
2.73
 70
    64
  0
VERTEX
  5
3E6F3
  8
0
 10
2.01
 20
-0.05
 30
3.5
 70
    64
  0
VERTEX
  5
3E6F4
  8
0
 10
2.01
 20
-0.05
 30
2.73
 70
    64
  0
VERTEX
  5
3E6F5
  8
0
 10
1.51
 20
-0.05
 30
2.73
 70
    64
  0
VERTEX
  5
3E6F6
  8
0
 10
2.01
 20
-0.05
 30
3.5
 70
    64
  0
VERTEX
  5
3E6F7
  8
0
 10
2.01
 20
-0.05
 30
3.5
 70
    64
  0
VERTEX
  5
3E6F8
  8
0
 10
1.51
 20
-0.05
 30
3.5
 70
    64
  0
VERTEX
  5
3E6F9
  8
0
 10
2.01
 20
0.07
 30
3.5
 70
    64
  0
VERTEX
  5
3E6FA
  8
0
 10
2.01
 20
0.07
 30
3.5
 70
    64
  0
VERTEX
  5
3E6FB
  8
0
 10
1.51
 20
0.07
 30
3.5
 70
    64
  0
SEQEND
  5
3E6FC
  8
0
  0
CIRCLE
  5
3E6FD
  8
0
 39
0.15
 10
1.76
 20
-0.71
 30
3.35
 40
0.7
  0
POLYLINE
  5
3E6FE
  8
0
 66
     1
 10
0.0
 20
0.0
 30
3.5
 70
     1
  0
VERTEX
  5
3EAD6
  8
0
 10
1.583932
 20
-0.605
 30
3.5
  0
VERTEX
  5
3EAD7
  8
0
 10
1.49
 20
-0.605
 30
3.5
 42
0.414214
  0
VERTEX
  5
3EAD8
  8
0
 10
1.44
 20
-0.655
 30
3.5
  0
VERTEX
  5
3EAD9
  8
0
 10
1.44
 20
-0.765
 30
3.5
 42
0.414214
  0
VERTEX
  5
3EADA
  8
0
 10
1.49
 20
-0.815
 30
3.5
  0
VERTEX
  5
3EADB
  8
0
 10
1.583932
 20
-0.815
 30
3.5
 42
0.443094
  0
VERTEX
  5
3EADC
  8
0
 10
1.881655
 20
-0.875
 30
3.5
  0
VERTEX
  5
3EADD
  8
0
 10
2.03
 20
-0.875
 30
3.5
 42
0.414214
  0
VERTEX
  5
3EADE
  8
0
 10
2.08
 20
-0.825
 30
3.5
  0
VERTEX
  5
3EADF
  8
0
 10
2.08
 20
-0.595
 30
3.5
 42
0.414214
  0
VERTEX
  5
3EAE0
  8
0
 10
2.03
 20
-0.545
 30
3.5
  0
VERTEX
  5
3EAE1
  8
0
 10
1.881655
 20
-0.545
 30
3.5
 42
0.443094
  0
SEQEND
  5
3EAE2
  8
0
  0
POLYLINE
  5
3E700
  8
0
 66
     1
 10
0.0
 20
0.0
 30
0.0
 70
    16
 71
     6
 72
     3
  0
VERTEX
  5
3E701
  8
0
 10
1.51
 20
-1.49
 30
3.5
 70
    64
  0
VERTEX
  5
3E702
  8
0
 10
1.51
 20
-1.49
 30
2.73
 70
    64
  0
VERTEX
  5
3E703
  8
0
 10
1.51
 20
-1.49
 30
2.73
 70
    64
  0
VERTEX
  5
3E704
  8
0
 10
1.51
 20
-1.37
 30
3.5
 70
    64
  0
VERTEX
  5
3E705
  8
0
 10
1.51
 20
-1.37
 30
2.73
 70
    64
  0
VERTEX
  5
3E706
  8
0
 10
1.51
 20
-1.37
 30
2.73
 70
    64
  0
VERTEX
  5
3E707
  8
0
 10
2.01
 20
-1.37
 30
3.5
 70
    64
  0
VERTEX
  5
3E708
  8
0
 10
2.01
 20
-1.37
 30
2.73
 70
    64
  0
VERTEX
  5
3E709
  8
0
 10
1.51
 20
-1.37
 30
2.73
 70
    64
  0
VERTEX
  5
3E70A
  8
0
 10
2.01
 20
-1.49
 30
3.5
 70
    64
  0
VERTEX
  5
3E70B
  8
0
 10
2.01
 20
-1.49
 30
2.73
 70
    64
  0
VERTEX
  5
3E70C
  8
0
 10
1.51
 20
-1.49
 30
2.73
 70
    64
  0
VERTEX
  5
3E70D
  8
0
 10
2.01
 20
-1.49
 30
3.5
 70
    64
  0
VERTEX
  5
3E70E
  8
0
 10
2.01
 20
-1.49
 30
3.5
 70
    64
  0
VERTEX
  5
3E70F
  8
0
 10
1.51
 20
-1.49
 30
3.5
 70
    64
  0
VERTEX
  5
3E710
  8
0
 10
2.01
 20
-1.37
 30
3.5
 70
    64
  0
VERTEX
  5
3E711
  8
0
 10
2.01
 20
-1.37
 30
3.5
 70
    64
  0
VERTEX
  5
3E712
  8
0
 10
1.51
 20
-1.37
 30
3.5
 70
    64
  0
SEQEND
  5
3E713
  8
0
  0
POLYLINE
  5
3E714
  8
0
 66
     1
 10
0.0
 20
0.0
 30
0.0
 70
    16
 71
     6
 72
     3
  0
VERTEX
  5
3E715
  8
0
 10
3.52
 20
-1.35
 30
3.35
 70
    64
  0
VERTEX
  5
3E716
  8
0
 10
3.52
 20
-1.35
 30
2.37
 70
    64
  0
VERTEX
  5
3E717
  8
0
 10
3.52
 20
-1.35
 30
2.37
 70
    64
  0
VERTEX
  5
3E718
  8
0
 10
0.0
 20
-1.35
 30
3.35
 70
    64
  0
VERTEX
  5
3E719
  8
0
 10
0.0
 20
-1.35
 30
2.37
 70
    64
  0
VERTEX
  5
3E71A
  8
0
 10
0.0
 20
-1.35
 30
2.37
 70
    64
  0
VERTEX
  5
3E71B
  8
0
 10
0.0
 20
-0.07
 30
3.35
 70
    64
  0
VERTEX
  5
3E71C
  8
0
 10
0.0
 20
-0.07
 30
2.37
 70
    64
  0
VERTEX
  5
3E71D
  8
0
 10
0.0
 20
-1.35
 30
2.37
 70
    64
  0
VERTEX
  5
3E71E
  8
0
 10
3.52
 20
-0.07
 30
3.35
 70
    64
  0
VERTEX
  5
3E71F
  8
0
 10
3.52
 20
-0.07
 30
2.37
 70
    64
  0
VERTEX
  5
3E720
  8
0
 10
3.52
 20
-1.35
 30
2.37
 70
    64
  0
VERTEX
  5
3E721
  8
0
 10
3.52
 20
-0.07
 30
3.35
 70
    64
  0
VERTEX
  5
3E722
  8
0
 10
3.52
 20
-0.07
 30
3.35
 70
    64
  0
VERTEX
  5
3E723
  8
0
 10
3.52
 20
-1.35
 30
3.35
 70
    64
  0
VERTEX
  5
3E724
  8
0
 10
0.0
 20
-0.07
 30
3.35
 70
    64
  0
VERTEX
  5
3E725
  8
0
 10
0.0
 20
-0.07
 30
3.35
 70
    64
  0
VERTEX
  5
3E726
  8
0
 10
0.0
 20
-1.35
 30
3.35
 70
    64
  0
SEQEND
  5
3E727
  8
0
  0
POLYLINE
  5
3E728
  8
0
 66
     1
 10
0.0
 20
0.0
 30
0.0
 70
    16
 71
     6
 72
     3
  0
VERTEX
  5
3E729
  8
0
 10
1.15
 20
-1.47
 30
2.93
 70
    64
  0
VERTEX
  5
3E72A
  8
0
 10
1.15
 20
-1.47
 30
1.75
 70
    64
  0
VERTEX
  5
3E72B
  8
0
 10
1.15
 20
-1.47
 30
1.75
 70
    64
  0
VERTEX
  5
3E72C
  8
0
 10
0.42
 20
-1.47
 30
2.93
 70
    64
  0
VERTEX
  5
3E72D
  8
0
 10
0.42
 20
-1.47
 30
1.75
 70
    64
  0
VERTEX
  5
3E72E
  8
0
 10
0.42
 20
-1.47
 30
1.75
 70
    64
  0
VERTEX
  5
3E72F
  8
0
 10
0.42
 20
-1.35
 30
2.93
 70
    64
  0
VERTEX
  5
3E730
  8
0
 10
0.42
 20
-1.35
 30
1.75
 70
    64
  0
VERTEX
  5
3E731
  8
0
 10
0.42
 20
-1.47
 30
1.75
 70
    64
  0
VERTEX
  5
3E732
  8
0
 10
1.15
 20
-1.35
 30
2.93
 70
    64
  0
VERTEX
  5
3E733
  8
0
 10
1.15
 20
-1.35
 30
1.75
 70
    64
  0
VERTEX
  5
3E734
  8
0
 10
1.15
 20
-1.47
 30
1.75
 70
    64
  0
VERTEX
  5
3E735
  8
0
 10
1.15
 20
-1.35
 30
2.93
 70
    64
  0
VERTEX
  5
3E736
  8
0
 10
1.15
 20
-1.35
 30
2.93
 70
    64
  0
VERTEX
  5
3E737
  8
0
 10
1.15
 20
-1.47
 30
2.93
 70
    64
  0
VERTEX
  5
3E738
  8
0
 10
0.42
 20
-1.35
 30
2.93
 70
    64
  0
VERTEX
  5
3E739
  8
0
 10
0.42
 20
-1.35
 30
2.93
 70
    64
  0
VERTEX
  5
3E73A
  8
0
 10
0.42
 20
-1.47
 30
2.93
 70
    64
  0
SEQEND
  5
3E73B
  8
0
  0
POLYLINE
  5
3E73C
  8
0
 66
     1
 10
0.0
 20
0.0
 30
0.0
 70
    16
 71
     6
 72
     3
  0
VERTEX
  5
3E73D
  8
0
 10
1.17
 20
-1.57
 30
3.35
 70
    64
  0
VERTEX
  5
3E73E
  8
0
 10
1.17
 20
-1.57
 30
2.93
 70
    64
  0
VERTEX
  5
3E73F
  8
0
 10
1.17
 20
-1.57
 30
2.93
 70
    64
  0
VERTEX
  5
3E740
  8
0
 10
0.92
 20
-1.57
 30
3.35
 70
    64
  0
VERTEX
  5
3E741
  8
0
 10
0.92
 20
-1.57
 30
2.93
 70
    64
  0
VERTEX
  5
3E742
  8
0
 10
0.92
 20
-1.57
 30
2.93
 70
    64
  0
VERTEX
  5
3E743
  8
0
 10
0.92
 20
-1.35
 30
3.35
 70
    64
  0
VERTEX
  5
3E744
  8
0
 10
0.92
 20
-1.35
 30
2.93
 70
    64
  0
VERTEX
  5
3E745
  8
0
 10
0.92
 20
-1.57
 30
2.93
 70
    64
  0
VERTEX
  5
3E746
  8
0
 10
1.17
 20
-1.35
 30
3.35
 70
    64
  0
VERTEX
  5
3E747
  8
0
 10
1.17
 20
-1.35
 30
2.93
 70
    64
  0
VERTEX
  5
3E748
  8
0
 10
1.17
 20
-1.57
 30
2.93
 70
    64
  0
VERTEX
  5
3E749
  8
0
 10
1.17
 20
-1.35
 30
3.35
 70
    64
  0
VERTEX
  5
3E74A
  8
0
 10
1.17
 20
-1.35
 30
3.35
 70
    64
  0
VERTEX
  5
3E74B
  8
0
 10
1.17
 20
-1.57
 30
3.35
 70
    64
  0
VERTEX
  5
3E74C
  8
0
 10
0.92
 20
-1.35
 30
3.35
 70
    64
  0
VERTEX
  5
3E74D
  8
0
 10
0.92
 20
-1.35
 30
3.35
 70
    64
  0
VERTEX
  5
3E74E
  8
0
 10
0.92
 20
-1.57
 30
3.35
 70
    64
  0
SEQEND
  5
3E74F
  8
0
  0
CIRCLE
  5
3E750
  8
0
 10
1.045
 20
-1.46
 30
3.35
 40
0.05
  0
POLYLINE
  5
3E752
  8
0
 66
     1
 10
0.0
 20
0.0
 30
0.0
 70
    16
 71
     6
 72
     3
  0
VERTEX
  5
3E753
  8
0
 10
2.37
 20
-1.47
 30
2.93
 70
    64
  0
VERTEX
  5
3E754
  8
0
 10
2.37
 20
-1.47
 30
1.75
 70
    64
  0
VERTEX
  5
3E755
  8
0
 10
2.37
 20
-1.47
 30
1.75
 70
    64
  0
VERTEX
  5
3E756
  8
0
 10
3.1
 20
-1.47
 30
2.93
 70
    64
  0
VERTEX
  5
3E757
  8
0
 10
3.1
 20
-1.47
 30
1.75
 70
    64
  0
VERTEX
  5
3E758
  8
0
 10
3.1
 20
-1.47
 30
1.75
 70
    64
  0
VERTEX
  5
3E759
  8
0
 10
3.1
 20
-1.35
 30
2.93
 70
    64
  0
VERTEX
  5
3E75A
  8
0
 10
3.1
 20
-1.35
 30
1.75
 70
    64
  0
VERTEX
  5
3E75B
  8
0
 10
3.1
 20
-1.47
 30
1.75
 70
    64
  0
VERTEX
  5
3E75C
  8
0
 10
2.37
 20
-1.35
 30
2.93
 70
    64
  0
VERTEX
  5
3E75D
  8
0
 10
2.37
 20
-1.35
 30
1.75
 70
    64
  0
VERTEX
  5
3E75E
  8
0
 10
2.37
 20
-1.47
 30
1.75
 70
    64
  0
VERTEX
  5
3E75F
  8
0
 10
2.37
 20
-1.35
 30
2.93
 70
    64
  0
VERTEX
  5
3E760
  8
0
 10
2.37
 20
-1.35
 30
2.93
 70
    64
  0
VERTEX
  5
3E761
  8
0
 10
2.37
 20
-1.47
 30
2.93
 70
    64
  0
VERTEX
  5
3E762
  8
0
 10
3.1
 20
-1.35
 30
2.93
 70
    64
  0
VERTEX
  5
3E763
  8
0
 10
3.1
 20
-1.35
 30
2.93
 70
    64
  0
VERTEX
  5
3E764
  8
0
 10
3.1
 20
-1.47
 30
2.93
 70
    64
  0
SEQEND
  5
3E765
  8
0
  0
POLYLINE
  5
3E766
  8
0
 66
     1
 10
0.0
 20
0.0
 30
0.0
 70
    16
 71
     6
 72
     3
  0
VERTEX
  5
3E767
  8
0
 10
2.35
 20
-1.57
 30
3.35
 70
    64
  0
VERTEX
  5
3E768
  8
0
 10
2.35
 20
-1.57
 30
2.93
 70
    64
  0
VERTEX
  5
3E769
  8
0
 10
2.35
 20
-1.57
 30
2.93
 70
    64
  0
VERTEX
  5
3E76A
  8
0
 10
2.6
 20
-1.57
 30
3.35
 70
    64
  0
VERTEX
  5
3E76B
  8
0
 10
2.6
 20
-1.57
 30
2.93
 70
    64
  0
VERTEX
  5
3E76C
  8
0
 10
2.6
 20
-1.57
 30
2.93
 70
    64
  0
VERTEX
  5
3E76D
  8
0
 10
2.6
 20
-1.35
 30
3.35
 70
    64
  0
VERTEX
  5
3E76E
  8
0
 10
2.6
 20
-1.35
 30
2.93
 70
    64
  0
VERTEX
  5
3E76F
  8
0
 10
2.6
 20
-1.57
 30
2.93
 70
    64
  0
VERTEX
  5
3E770
  8
0
 10
2.35
 20
-1.35
 30
3.35
 70
    64
  0
VERTEX
  5
3E771
  8
0
 10
2.35
 20
-1.35
 30
2.93
 70
    64
  0
VERTEX
  5
3E772
  8
0
 10
2.35
 20
-1.57
 30
2.93
 70
    64
  0
VERTEX
  5
3E773
  8
0
 10
2.35
 20
-1.35
 30
3.35
 70
    64
  0
VERTEX
  5
3E774
  8
0
 10
2.35
 20
-1.35
 30
3.35
 70
    64
  0
VERTEX
  5
3E775
  8
0
 10
2.35
 20
-1.57
 30
3.35
 70
    64
  0
VERTEX
  5
3E776
  8
0
 10
2.6
 20
-1.35
 30
3.35
 70
    64
  0
VERTEX
  5
3E777
  8
0
 10
2.6
 20
-1.35
 30
3.35
 70
    64
  0
VERTEX
  5
3E778
  8
0
 10
2.6
 20
-1.57
 30
3.35
 70
    64
  0
SEQEND
  5
3E779
  8
0
  0
CIRCLE
  5
3E77A
  8
0
 10
2.475
 20
-1.46
 30
3.35
 40
0.05
  0
CIRCLE
  5
3E77B
  8
0
 10
1.045
 20
0.04
 30
3.35
 40
0.05
  0
POLYLINE
  5
3E77C
  8
0
 66
     1
 10
0.0
 20
0.0
 30
0.0
 70
    16
 71
     6
 72
     3
  0
VERTEX
  5
3E77D
  8
0
 10
1.17
 20
0.15
 30
3.35
 70
    64
  0
VERTEX
  5
3E77E
  8
0
 10
1.17
 20
0.15
 30
2.93
 70
    64
  0
VERTEX
  5
3E77F
  8
0
 10
1.17
 20
0.15
 30
2.93
 70
    64
  0
VERTEX
  5
3E780
  8
0
 10
0.92
 20
0.15
 30
3.35
 70
    64
  0
VERTEX
  5
3E781
  8
0
 10
0.92
 20
0.15
 30
2.93
 70
    64
  0
VERTEX
  5
3E782
  8
0
 10
0.92
 20
0.15
 30
2.93
 70
    64
  0
VERTEX
  5
3E783
  8
0
 10
0.92
 20
-0.07
 30
3.35
 70
    64
  0
VERTEX
  5
3E784
  8
0
 10
0.92
 20
-0.07
 30
2.93
 70
    64
  0
VERTEX
  5
3E785
  8
0
 10
0.92
 20
0.15
 30
2.93
 70
    64
  0
VERTEX
  5
3E786
  8
0
 10
1.17
 20
-0.07
 30
3.35
 70
    64
  0
VERTEX
  5
3E787
  8
0
 10
1.17
 20
-0.07
 30
2.93
 70
    64
  0
VERTEX
  5
3E788
  8
0
 10
1.17
 20
0.15
 30
2.93
 70
    64
  0
VERTEX
  5
3E789
  8
0
 10
1.17
 20
-0.07
 30
3.35
 70
    64
  0
VERTEX
  5
3E78A
  8
0
 10
1.17
 20
-0.07
 30
3.35
 70
    64
  0
VERTEX
  5
3E78B
  8
0
 10
1.17
 20
0.15
 30
3.35
 70
    64
  0
VERTEX
  5
3E78C
  8
0
 10
0.92
 20
-0.07
 30
3.35
 70
    64
  0
VERTEX
  5
3E78D
  8
0
 10
0.92
 20
-0.07
 30
3.35
 70
    64
  0
VERTEX
  5
3E78E
  8
0
 10
0.92
 20
0.15
 30
3.35
 70
    64
  0
SEQEND
  5
3E78F
  8
0
  0
POLYLINE
  5
3E790
  8
0
 66
     1
 10
0.0
 20
0.0
 30
0.0
 70
    16
 71
     6
 72
     3
  0
VERTEX
  5
3E791
  8
0
 10
1.15
 20
0.05
 30
2.93
 70
    64
  0
VERTEX
  5
3E792
  8
0
 10
1.15
 20
0.05
 30
1.75
 70
    64
  0
VERTEX
  5
3E793
  8
0
 10
1.15
 20
0.05
 30
1.75
 70
    64
  0
VERTEX
  5
3E794
  8
0
 10
0.42
 20
0.05
 30
2.93
 70
    64
  0
VERTEX
  5
3E795
  8
0
 10
0.42
 20
0.05
 30
1.75
 70
    64
  0
VERTEX
  5
3E796
  8
0
 10
0.42
 20
0.05
 30
1.75
 70
    64
  0
VERTEX
  5
3E797
  8
0
 10
0.42
 20
-0.07
 30
2.93
 70
    64
  0
VERTEX
  5
3E798
  8
0
 10
0.42
 20
-0.07
 30
1.75
 70
    64
  0
VERTEX
  5
3E799
  8
0
 10
0.42
 20
0.05
 30
1.75
 70
    64
  0
VERTEX
  5
3E79A
  8
0
 10
1.15
 20
-0.07
 30
2.93
 70
    64
  0
VERTEX
  5
3E79B
  8
0
 10
1.15
 20
-0.07
 30
1.75
 70
    64
  0
VERTEX
  5
3E79C
  8
0
 10
1.15
 20
0.05
 30
1.75
 70
    64
  0
VERTEX
  5
3E79D
  8
0
 10
1.15
 20
-0.07
 30
2.93
 70
    64
  0
VERTEX
  5
3E79E
  8
0
 10
1.15
 20
-0.07
 30
2.93
 70
    64
  0
VERTEX
  5
3E79F
  8
0
 10
1.15
 20
0.05
 30
2.93
 70
    64
  0
VERTEX
  5
3E7A0
  8
0
 10
0.42
 20
-0.07
 30
2.93
 70
    64
  0
VERTEX
  5
3E7A1
  8
0
 10
0.42
 20
-0.07
 30
2.93
 70
    64
  0
VERTEX
  5
3E7A2
  8
0
 10
0.42
 20
0.05
 30
2.93
 70
    64
  0
SEQEND
  5
3E7A3
  8
0
  0
CIRCLE
  5
3E7A4
  8
0
 10
2.475
 20
0.04
 30
3.35
 40
0.05
  0
POLYLINE
  5
3E7A5
  8
0
 66
     1
 10
0.0
 20
0.0
 30
0.0
 70
    16
 71
     6
 72
     3
  0
VERTEX
  5
3E7A6
  8
0
 10
2.37
 20
0.05
 30
2.93
 70
    64
  0
VERTEX
  5
3E7A7
  8
0
 10
2.37
 20
0.05
 30
1.75
 70
    64
  0
VERTEX
  5
3E7A8
  8
0
 10
2.37
 20
0.05
 30
1.75
 70
    64
  0
VERTEX
  5
3E7A9
  8
0
 10
3.1
 20
0.05
 30
2.93
 70
    64
  0
VERTEX
  5
3E7AA
  8
0
 10
3.1
 20
0.05
 30
1.75
 70
    64
  0
VERTEX
  5
3E7AB
  8
0
 10
3.1
 20
0.05
 30
1.75
 70
    64
  0
VERTEX
  5
3E7AC
  8
0
 10
3.1
 20
-0.07
 30
2.93
 70
    64
  0
VERTEX
  5
3E7AD
  8
0
 10
3.1
 20
-0.07
 30
1.75
 70
    64
  0
VERTEX
  5
3E7AE
  8
0
 10
3.1
 20
0.05
 30
1.75
 70
    64
  0
VERTEX
  5
3E7AF
  8
0
 10
2.37
 20
-0.07
 30
2.93
 70
    64
  0
VERTEX
  5
3E7B0
  8
0
 10
2.37
 20
-0.07
 30
1.75
 70
    64
  0
VERTEX
  5
3E7B1
  8
0
 10
2.37
 20
0.05
 30
1.75
 70
    64
  0
VERTEX
  5
3E7B2
  8
0
 10
2.37
 20
-0.07
 30
2.93
 70
    64
  0
VERTEX
  5
3E7B3
  8
0
 10
2.37
 20
-0.07
 30
2.93
 70
    64
  0
VERTEX
  5
3E7B4
  8
0
 10
2.37
 20
0.05
 30
2.93
 70
    64
  0
VERTEX
  5
3E7B5
  8
0
 10
3.1
 20
-0.07
 30
2.93
 70
    64
  0
VERTEX
  5
3E7B6
  8
0
 10
3.1
 20
-0.07
 30
2.93
 70
    64
  0
VERTEX
  5
3E7B7
  8
0
 10
3.1
 20
0.05
 30
2.93
 70
    64
  0
SEQEND
  5
3E7B8
  8
0
  0
POLYLINE
  5
3E7B9
  8
0
 66
     1
 10
0.0
 20
0.0
 30
0.0
 70
    16
 71
     6
 72
     3
  0
VERTEX
  5
3E7BA
  8
0
 10
2.35
 20
0.15
 30
3.35
 70
    64
  0
VERTEX
  5
3E7BB
  8
0
 10
2.35
 20
0.15
 30
2.93
 70
    64
  0
VERTEX
  5
3E7BC
  8
0
 10
2.35
 20
0.15
 30
2.93
 70
    64
  0
VERTEX
  5
3E7BD
  8
0
 10
2.6
 20
0.15
 30
3.35
 70
    64
  0
VERTEX
  5
3E7BE
  8
0
 10
2.6
 20
0.15
 30
2.93
 70
    64
  0
VERTEX
  5
3E7BF
  8
0
 10
2.6
 20
0.15
 30
2.93
 70
    64
  0
VERTEX
  5
3E7C0
  8
0
 10
2.6
 20
-0.07
 30
3.35
 70
    64
  0
VERTEX
  5
3E7C1
  8
0
 10
2.6
 20
-0.07
 30
2.93
 70
    64
  0
VERTEX
  5
3E7C2
  8
0
 10
2.6
 20
0.15
 30
2.93
 70
    64
  0
VERTEX
  5
3E7C3
  8
0
 10
2.35
 20
-0.07
 30
3.35
 70
    64
  0
VERTEX
  5
3E7C4
  8
0
 10
2.35
 20
-0.07
 30
2.93
 70
    64
  0
VERTEX
  5
3E7C5
  8
0
 10
2.35
 20
0.15
 30
2.93
 70
    64
  0
VERTEX
  5
3E7C6
  8
0
 10
2.35
 20
-0.07
 30
3.35
 70
    64
  0
VERTEX
  5
3E7C7
  8
0
 10
2.35
 20
-0.07
 30
3.35
 70
    64
  0
VERTEX
  5
3E7C8
  8
0
 10
2.35
 20
0.15
 30
3.35
 70
    64
  0
VERTEX
  5
3E7C9
  8
0
 10
2.6
 20
-0.07
 30
3.35
 70
    64
  0
VERTEX
  5
3E7CA
  8
0
 10
2.6
 20
-0.07
 30
3.35
 70
    64
  0
VERTEX
  5
3E7CB
  8
0
 10
2.6
 20
0.15
 30
3.35
 70
    64
  0
SEQEND
  5
3E7CC
  8
0
  0
TEXT
  5
3E7CF
  8
0
 10
0.099132
 20
-1.91488
 30
1.67
 40
0.12
  1
2 T1
  0
TEXT
  5
3E7D0
  8
0
 10
0.676073
 20
-1.91488
 30
1.67
 40
0.12
  1
4 T2
  0
TEXT
  5
3E7D1
  8
0
 10
1.268482
 20
-1.91488
 30
1.67
 40
0.12
  1
6 T3
  0
TEXT
  5
3E7D2
  8
0
 10
2.965696
 20
-1.91488
 30
1.67
 40
0.12
  1
12 T6
  0
TEXT
  5
3E7D3
  8
0
 10
2.373286
 20
-1.91488
 30
1.67
 40
0.12
  1
10 T5
  0
TEXT
  5
3E7D4
  8
0
 10
1.859132
 20
-1.91488
 30
1.67
 40
0.12
  1
8 T4
  0
TEXT
  5
3E7DB
  8
0
 10
3.00138
 20
0.370522
 30
1.67
 40
0.12
  1
11 L6
  0
TEXT
  5
3E7DC
  8
0
 10
2.40897
 20
0.370522
 30
1.67
 40
0.12
  1
9 L5
  0
TEXT
  5
3E7DD
  8
0
 10
1.859132
 20
0.370522
 30
1.67
 40
0.12
  1
7 L4
  0
TEXT
  5
3E7DE
  8
0
 10
1.268482
 20
0.370522
 30
1.67
 40
0.12
  1
5 L3
  0
TEXT
  5
3E7DF
  8
0
 10
0.676073
 20
0.370522
 30
1.67
 40
0.12
  1
3 L2
  0
TEXT
  5
3E7E0
  8
0
 10
0.099132
 20
0.370522
 30
1.67
 40
0.12
  1
1 L1
  0
POLYLINE
  5
3E7F5
  8
0
 66
     1
 10
0.0
 20
0.0
 30
0.0
 70
    16
 71
     6
 72
     3
  0
VERTEX
  5
3E7F6
  8
0
 10
0.98
 20
-1.95
 30
0.27
 70
    64
  0
VERTEX
  5
3E7F7
  8
0
 10
0.98
 20
-1.95
 30
0.0
 70
    64
  0
VERTEX
  5
3E7F8
  8
0
 10
0.98
 20
-1.95
 30
0.0
 70
    64
  0
VERTEX
  5
3E7F9
  8
0
 10
1.36
 20
-1.95
 30
0.27
 70
    64
  0
VERTEX
  5
3E7FA
  8
0
 10
1.36
 20
-1.95
 30
0.0
 70
    64
  0
VERTEX
  5
3E7FB
  8
0
 10
1.36
 20
-1.95
 30
0.0
 70
    64
  0
VERTEX
  5
3E7FC
  8
0
 10
1.36
 20
-2.15
 30
0.27
 70
    64
  0
VERTEX
  5
3E7FD
  8
0
 10
1.36
 20
-2.15
 30
0.0
 70
    64
  0
VERTEX
  5
3E7FE
  8
0
 10
1.36
 20
-1.95
 30
0.0
 70
    64
  0
VERTEX
  5
3E7FF
  8
0
 10
0.98
 20
-2.15
 30
0.27
 70
    64
  0
VERTEX
  5
3E800
  8
0
 10
0.98
 20
-2.15
 30
0.0
 70
    64
  0
VERTEX
  5
3E801
  8
0
 10
0.98
 20
-1.95
 30
0.0
 70
    64
  0
VERTEX
  5
3E802
  8
0
 10
0.98
 20
-2.15
 30
0.27
 70
    64
  0
VERTEX
  5
3E803
  8
0
 10
0.98
 20
-2.15
 30
0.27
 70
    64
  0
VERTEX
  5
3E804
  8
0
 10
0.98
 20
-1.95
 30
0.27
 70
    64
  0
VERTEX
  5
3E805
  8
0
 10
1.36
 20
-2.15
 30
0.27
 70
    64
  0
VERTEX
  5
3E806
  8
0
 10
1.36
 20
-2.15
 30
0.27
 70
    64
  0
VERTEX
  5
3E807
  8
0
 10
1.36
 20
-1.95
 30
0.27
 70
    64
  0
SEQEND
  5
3E808
  8
0
  0
POLYLINE
  5
3E809
  8
0
 66
     1
 10
0.0
 20
0.0
 30
0.0
 70
    16
 71
     6
 72
     3
  0
VERTEX
  5
3E80A
  8
0
 10
2.74
 20
-1.95
 30
0.27
 70
    64
  0
VERTEX
  5
3E80B
  8
0
 10
2.74
 20
-1.95
 30
0.0
 70
    64
  0
VERTEX
  5
3E80C
  8
0
 10
2.74
 20
-1.95
 30
0.0
 70
    64
  0
VERTEX
  5
3E80D
  8
0
 10
3.12
 20
-1.95
 30
0.27
 70
    64
  0
VERTEX
  5
3E80E
  8
0
 10
3.12
 20
-1.95
 30
0.0
 70
    64
  0
VERTEX
  5
3E80F
  8
0
 10
3.12
 20
-1.95
 30
0.0
 70
    64
  0
VERTEX
  5
3E810
  8
0
 10
3.12
 20
-2.15
 30
0.27
 70
    64
  0
VERTEX
  5
3E811
  8
0
 10
3.12
 20
-2.15
 30
0.0
 70
    64
  0
VERTEX
  5
3E812
  8
0
 10
3.12
 20
-1.95
 30
0.0
 70
    64
  0
VERTEX
  5
3E813
  8
0
 10
2.74
 20
-2.15
 30
0.27
 70
    64
  0
VERTEX
  5
3E814
  8
0
 10
2.74
 20
-2.15
 30
0.0
 70
    64
  0
VERTEX
  5
3E815
  8
0
 10
2.74
 20
-1.95
 30
0.0
 70
    64
  0
VERTEX
  5
3E816
  8
0
 10
2.74
 20
-2.15
 30
0.27
 70
    64
  0
VERTEX
  5
3E817
  8
0
 10
2.74
 20
-2.15
 30
0.27
 70
    64
  0
VERTEX
  5
3E818
  8
0
 10
2.74
 20
-1.95
 30
0.27
 70
    64
  0
VERTEX
  5
3E819
  8
0
 10
3.12
 20
-2.15
 30
0.27
 70
    64
  0
VERTEX
  5
3E81A
  8
0
 10
3.12
 20
-2.15
 30
0.27
 70
    64
  0
VERTEX
  5
3E81B
  8
0
 10
3.12
 20
-1.95
 30
0.27
 70
    64
  0
SEQEND
  5
3E81C
  8
0
  0
ENDSEC
  0
EOF
