  0
SECTION
  2
HEADER
  9
$ACADVER
  1
AC1009
  9
$INSBASE
 10
0.0
 20
0.0
 30
0.0
  9
$EXTMIN
 10
-0.850784
 20
-1.760657
 30
-1.805193
  9
$EXTMAX
 10
0.250213
 20
1.760389
 30
0.765157
  9
$LIMMIN
 10
0.0
 20
0.0
  9
$LIMMAX
 10
12.0
 20
9.0
  9
$ORTHOMODE
 70
     0
  9
$REGENMODE
 70
     1
  9
$FILLMODE
 70
     1
  9
$QTEXTMODE
 70
     0
  9
$MIRRTEXT
 70
     1
  9
$DRAGMODE
 70
     2
  9
$LTSCALE
 40
1.0
  9
$OSMODE
 70
     0
  9
$ATTMODE
 70
     0
  9
$TEXTSIZE
 40
0.08
  9
$TRACEWID
 40
0.05
  9
$TEXTSTYLE
  7
STANDARD
  9
$CLAYER
  8
0
  9
$CELTYPE
  6
BYLAYER
  9
$CECOLOR
 62
   256
  9
$DIMSCALE
 40
1.0
  9
$DIMASZ
 40
0.18
  9
$DIMEXO
 40
0.0625
  9
$DIMDLI
 40
0.38
  9
$DIMRND
 40
0.0
  9
$DIMDLE
 40
0.0
  9
$DIMEXE
 40
0.18
  9
$DIMTP
 40
0.0
  9
$DIMTM
 40
0.0
  9
$DIMTXT
 40
0.18
  9
$DIMCEN
 40
0.09
  9
$DIMTSZ
 40
0.0
  9
$DIMTOL
 70
     0
  9
$DIMLIM
 70
     0
  9
$DIMTIH
 70
     1
  9
$DIMTOH
 70
     1
  9
$DIMSE1
 70
     0
  9
$DIMSE2
 70
     0
  9
$DIMTAD
 70
     0
  9
$DIMZIN
 70
     0
  9
$DIMBLK
  1

  9
$DIMASO
 70
     1
  9
$DIMSHO
 70
     1
  9
$DIMPOST
  1

  9
$DIMAPOST
  1

  9
$DIMALT
 70
     0
  9
$DIMALTD
 70
     2
  9
$DIMALTF
 40
25.4
  9
$DIMLFAC
 40
1.0
  9
$DIMTOFL
 70
     0
  9
$DIMTVP
 40
0.0
  9
$DIMTIX
 70
     0
  9
$DIMSOXD
 70
     0
  9
$DIMSAH
 70
     0
  9
$DIMBLK1
  1

  9
$DIMBLK2
  1

  9
$DIMSTYLE
  2
STANDARD
  9
$DIMCLRD
 70
     0
  9
$DIMCLRE
 70
     0
  9
$DIMCLRT
 70
     0
  9
$DIMTFAC
 40
1.0
  9
$DIMGAP
 40
0.09
  9
$LUNITS
 70
     2
  9
$LUPREC
 70
     4
  9
$SKETCHINC
 40
0.1
  9
$FILLETRAD
 40
0.0
  9
$AUNITS
 70
     0
  9
$AUPREC
 70
     0
  9
$MENU
  1
acad
  9
$ELEVATION
 40
0.0
  9
$PELEVATION
 40
0.0
  9
$THICKNESS
 40
0.0
  9
$LIMCHECK
 70
     0
  9
$BLIPMODE
 70
     0
  9
$CHAMFERA
 40
0.0
  9
$CHAMFERB
 40
0.0
  9
$SKPOLY
 70
     0
  9
$TDCREATE
 40
2450685.840231
  9
$TDUPDATE
 40
2451166.500493
  9
$TDINDWG
 40
0.000979
  9
$TDUSRTIMER
 40
0.000979
  9
$USRTIMER
 70
     1
  9
$ANGBASE
 50
0.0
  9
$ANGDIR
 70
     0
  9
$PDMODE
 70
    96
  9
$PDSIZE
 40
0.09
  9
$PLINEWID
 40
0.0
  9
$COORDS
 70
     1
  9
$SPLFRAME
 70
     1
  9
$SPLINETYPE
 70
     6
  9
$SPLINESEGS
 70
     8
  9
$ATTDIA
 70
     0
  9
$ATTREQ
 70
     1
  9
$HANDLING
 70
     1
  9
$HANDSEED
  5
3E40F
  9
$SURFTAB1
 70
     6
  9
$SURFTAB2
 70
     6
  9
$SURFTYPE
 70
     6
  9
$SURFU
 70
     6
  9
$SURFV
 70
     6
  9
$UCSNAME
  2

  9
$UCSORG
 10
0.0
 20
0.0
 30
0.0
  9
$UCSXDIR
 10
1.0
 20
0.0
 30
0.0
  9
$UCSYDIR
 10
0.0
 20
1.0
 30
0.0
  9
$PUCSNAME
  2

  9
$PUCSORG
 10
0.0
 20
0.0
 30
0.0
  9
$PUCSXDIR
 10
1.0
 20
0.0
 30
0.0
  9
$PUCSYDIR
 10
0.0
 20
1.0
 30
0.0
  9
$USERI1
 70
     0
  9
$USERI2
 70
     0
  9
$USERI3
 70
     0
  9
$USERI4
 70
     0
  9
$USERI5
 70
     0
  9
$USERR1
 40
0.0
  9
$USERR2
 40
0.0
  9
$USERR3
 40
0.0
  9
$USERR4
 40
0.0
  9
$USERR5
 40
0.0
  9
$WORLDVIEW
 70
     1
  9
$SHADEDGE
 70
     3
  9
$SHADEDIF
 70
    70
  9
$TILEMODE
 70
     1
  9
$MAXACTVP
 70
    16
  9
$PLIMCHECK
 70
     0
  9
$PEXTMIN
 10
1.000000E+020
 20
1.000000E+020
 30
1.000000E+020
  9
$PEXTMAX
 10
-1.000000E+020
 20
-1.000000E+020
 30
-1.000000E+020
  9
$PLIMMIN
 10
0.0
 20
0.0
  9
$PLIMMAX
 10
12.0
 20
9.0
  9
$UNITMODE
 70
     0
  9
$VISRETAIN
 70
     0
  9
$PLINEGEN
 70
     0
  9
$PSLTSCALE
 70
     1
  0
ENDSEC
  0
SECTION
  2
TABLES
  0
TABLE
  2
VPORT
 70
     2
  0
VPORT
  2
*ACTIVE
 70
     0
 10
0.0
 20
0.0
 11
1.0
 21
1.0
 12
-0.300286
 22
-0.000134
 13
0.0
 23
0.0
 14
0.25
 24
0.25
 15
0.25
 25
0.25
 16
0.0
 26
0.0
 36
1.0
 17
0.0
 27
0.0
 37
0.0
 40
3.744184
 41
1.603066
 42
50.0
 43
0.0
 44
0.0
 50
0.0
 51
0.0
 71
     0
 72
 20000
 73
     1
 74
     1
 75
     0
 76
     0
 77
     0
 78
     0
  0
ENDTAB
  0
TABLE
  2
LTYPE
 70
     1
  0
LTYPE
  2
CONTINUOUS
 70
     0
  3
Solid line
 72
    65
 73
     0
 40
0.0
  0
ENDTAB
  0
TABLE
  2
LAYER
 70
     2
  0
LAYER
  2
0
 70
     0
 62
     7
  6
CONTINUOUS
  0
LAYER
  2
DIMS-MTG-HOLES
 70
     0
 62
     1
  6
CONTINUOUS
  0
ENDTAB
  0
TABLE
  2
STYLE
 70
     1
  0
STYLE
  2
STANDARD
 70
     0
 40
0.0
 41
1.0
 50
0.0
 71
     0
 42
0.08
  3
txt
  4

  0
ENDTAB
  0
TABLE
  2
VIEW
 70
     0
  0
ENDTAB
  0
TABLE
  2
UCS
 70
     0
  0
ENDTAB
  0
TABLE
  2
APPID
 70
     1
  0
APPID
  2
ACAD
 70
     0
  0
ENDTAB
  0
TABLE
  2
DIMSTYLE
 70
     1
  0
DIMSTYLE
  2
STANDARD
 70
     0
  3

  4

  5

  6

  7

 40
1.0
 41
0.18
 42
0.0625
 43
0.38
 44
0.18
 45
0.0
 46
0.0
 47
0.0
 48
0.0
140
0.18
141
0.09
142
0.0
143
25.4
144
1.0
145
0.0
146
1.0
147
0.09
 71
     0
 72
     0
 73
     1
 74
     1
 75
     0
 76
     0
 77
     0
 78
     0
170
     0
171
     2
172
     0
173
     0
174
     0
175
     0
176
     0
177
     0
178
     0
  0
ENDTAB
  0
ENDSEC
  0
SECTION
  2
BLOCKS
  0
BLOCK
  8
0
  2
$MODEL_SPACE
 70
     0
 10
0.0
 20
0.0
 30
0.0
  3
$MODEL_SPACE
  1

  0
ENDBLK
  5
3E3F3
  8
0
  0
BLOCK
 67
     1
  8
0
  2
$PAPER_SPACE
 70
     0
 10
0.0
 20
0.0
 30
0.0
  3
$PAPER_SPACE
  1

  0
ENDBLK
  5
3E3F1
 67
     1
  8
0
  0
ENDSEC
  0
SECTION
  2
ENTITIES
  0
CIRCLE
  5
3E173
  8
0
 10
-0.425
 20
-1.445
 30
-1.635
 40
0.125
  0
TEXT
  5
3E21A
  8
0
 10
-0.50269
 20
-1.731842
 30
-1.635
 40
0.08
  1
PE
  0
CIRCLE
  5
3E22C
  8
0
 10
-0.425
 20
1.445
 30
-1.635
 40
0.125
  0
TEXT
  5
3E22F
  8
0
 10
-0.50269
 20
1.655499
 30
-1.635
 40
0.08
  1
PE
  0
POLYLINE
  5
3E230
  8
0
 66
     1
 10
0.0
 20
0.0
 30
0.0
 70
    16
 71
     6
 72
     3
  0
VERTEX
  5
3E231
  8
0
 10
0.25
 20
-0.075
 30
0.075
 70
    64
  0
VERTEX
  5
3E232
  8
0
 10
0.25
 20
-0.075
 30
-0.075
 70
    64
  0
VERTEX
  5
3E233
  8
0
 10
0.25
 20
-0.075
 30
-0.075
 70
    64
  0
VERTEX
  5
3E234
  8
0
 10
0.0
 20
-0.075
 30
0.075
 70
    64
  0
VERTEX
  5
3E235
  8
0
 10
0.0
 20
-0.075
 30
-0.075
 70
    64
  0
VERTEX
  5
3E236
  8
0
 10
0.0
 20
-0.075
 30
-0.075
 70
    64
  0
VERTEX
  5
3E237
  8
0
 10
0.0
 20
0.075
 30
0.075
 70
    64
  0
VERTEX
  5
3E238
  8
0
 10
0.0
 20
0.075
 30
-0.075
 70
    64
  0
VERTEX
  5
3E239
  8
0
 10
0.0
 20
-0.075
 30
-0.075
 70
    64
  0
VERTEX
  5
3E23A
  8
0
 10
0.25
 20
0.075
 30
0.075
 70
    64
  0
VERTEX
  5
3E23B
  8
0
 10
0.25
 20
0.075
 30
-0.075
 70
    64
  0
VERTEX
  5
3E23C
  8
0
 10
0.25
 20
-0.075
 30
-0.075
 70
    64
  0
VERTEX
  5
3E23D
  8
0
 10
0.25
 20
0.075
 30
0.075
 70
    64
  0
VERTEX
  5
3E23E
  8
0
 10
0.25
 20
0.075
 30
0.075
 70
    64
  0
VERTEX
  5
3E23F
  8
0
 10
0.25
 20
-0.075
 30
0.075
 70
    64
  0
VERTEX
  5
3E240
  8
0
 10
0.0
 20
0.075
 30
0.075
 70
    64
  0
VERTEX
  5
3E241
  8
0
 10
0.0
 20
0.075
 30
0.075
 70
    64
  0
VERTEX
  5
3E242
  8
0
 10
0.0
 20
-0.075
 30
0.075
 70
    64
  0
SEQEND
  5
3E243
  8
0
  0
3DFACE
  5
3E244
  8
0
 10
0.0
 20
0.075
 30
-0.225
 11
0.0
 21
-0.075
 31
-0.225
 12
0.0
 22
-0.075
 32
0.435
 13
0.0
 23
0.075
 33
0.435
  0
POLYLINE
  5
3E2A3
  8
0
 66
     1
 10
0.0
 20
0.0
 30
0.0
 70
    16
 71
     6
 72
     3
  0
VERTEX
  5
3E2A4
  8
0
 10
0.0
 20
-0.36
 30
-1.635
 70
    64
  0
VERTEX
  5
3E2A5
  8
0
 10
0.0
 20
-0.36
 30
-1.805
 70
    64
  0
VERTEX
  5
3E2A6
  8
0
 10
0.0
 20
-0.36
 30
-1.805
 70
    64
  0
VERTEX
  5
3E2A7
  8
0
 10
-0.85
 20
-0.36
 30
-1.635
 70
    64
  0
VERTEX
  5
3E2A8
  8
0
 10
-0.85
 20
-0.36
 30
-1.805
 70
    64
  0
VERTEX
  5
3E2A9
  8
0
 10
-0.85
 20
-0.36
 30
-1.805
 70
    64
  0
VERTEX
  5
3E2AA
  8
0
 10
-0.85
 20
0.36
 30
-1.635
 70
    64
  0
VERTEX
  5
3E2AB
  8
0
 10
-0.85
 20
0.36
 30
-1.805
 70
    64
  0
VERTEX
  5
3E2AC
  8
0
 10
-0.85
 20
-0.36
 30
-1.805
 70
    64
  0
VERTEX
  5
3E2AD
  8
0
 10
0.0
 20
0.36
 30
-1.635
 70
    64
  0
VERTEX
  5
3E2AE
  8
0
 10
0.0
 20
0.36
 30
-1.805
 70
    64
  0
VERTEX
  5
3E2AF
  8
0
 10
0.0
 20
-0.36
 30
-1.805
 70
    64
  0
VERTEX
  5
3E2B0
  8
0
 10
0.0
 20
0.36
 30
-1.635
 70
    64
  0
VERTEX
  5
3E2B1
  8
0
 10
0.0
 20
0.36
 30
-1.635
 70
    64
  0
VERTEX
  5
3E2B2
  8
0
 10
0.0
 20
-0.36
 30
-1.635
 70
    64
  0
VERTEX
  5
3E2B3
  8
0
 10
-0.85
 20
0.36
 30
-1.635
 70
    64
  0
VERTEX
  5
3E2B4
  8
0
 10
-0.85
 20
0.36
 30
-1.635
 70
    64
  0
VERTEX
  5
3E2B5
  8
0
 10
-0.85
 20
-0.36
 30
-1.635
 70
    64
  0
SEQEND
  5
3E2B6
  8
0
  0
3DFACE
  5
3E2B7
  8
0
 10
-0.66
 20
-1.76
 30
0.135
 11
-0.19
 21
-1.76
 31
0.135
 12
-0.19
 22
-1.76
 32
-0.435
 13
-0.66
 23
-1.76
 33
-0.435
  0
3DFACE
  5
3E2B8
  8
0
 10
-0.66
 20
1.76
 30
0.135
 11
-0.19
 21
1.76
 31
0.135
 12
-0.19
 22
1.76
 32
-0.435
 13
-0.66
 23
1.76
 33
-0.435
  0
POLYLINE
  5
3E2CB
  8
0
 66
     1
 10
0.0
 20
0.0
 30
-1.635
 70
     1
  0
VERTEX
  5
3E400
  8
0
 10
-0.4875
 20
1.553253
 30
-1.635
  0
VERTEX
  5
3E401
  8
0
 10
-0.3625
 20
1.553253
 30
-1.635
  0
VERTEX
  5
3E402
  8
0
 10
-0.3
 20
1.445
 30
-1.635
  0
VERTEX
  5
3E403
  8
0
 10
-0.3625
 20
1.336747
 30
-1.635
  0
VERTEX
  5
3E404
  8
0
 10
-0.4875
 20
1.336747
 30
-1.635
  0
VERTEX
  5
3E405
  8
0
 10
-0.55
 20
1.445
 30
-1.635
  0
SEQEND
  5
3E406
  8
0
  0
POLYLINE
  5
3E2D3
  8
0
 66
     1
 10
0.0
 20
0.0
 30
-1.635
 70
     1
  0
VERTEX
  5
3E407
  8
0
 10
-0.4875
 20
-1.336747
 30
-1.635
  0
VERTEX
  5
3E408
  8
0
 10
-0.3625
 20
-1.336747
 30
-1.635
  0
VERTEX
  5
3E409
  8
0
 10
-0.3
 20
-1.445
 30
-1.635
  0
VERTEX
  5
3E40A
  8
0
 10
-0.3625
 20
-1.553253
 30
-1.635
  0
VERTEX
  5
3E40B
  8
0
 10
-0.4875
 20
-1.553253
 30
-1.635
  0
VERTEX
  5
3E40C
  8
0
 10
-0.55
 20
-1.445
 30
-1.635
  0
SEQEND
  5
3E40D
  8
0
  0
POLYLINE
  5
3E2EF
  8
0
 66
     1
 10
0.0
 20
0.0
 30
0.0
 70
    16
 71
     6
 72
     3
  0
VERTEX
  5
3E2F0
  8
0
 10
0.0
 20
-1.76
 30
0.765
 70
    64
  0
VERTEX
  5
3E2F1
  8
0
 10
0.0
 20
-1.76
 30
0.595
 70
    64
  0
VERTEX
  5
3E2F2
  8
0
 10
0.0
 20
-1.76
 30
0.595
 70
    64
  0
VERTEX
  5
3E2F3
  8
0
 10
-0.85
 20
-1.76
 30
0.765
 70
    64
  0
VERTEX
  5
3E2F4
  8
0
 10
-0.85
 20
-1.76
 30
0.595
 70
    64
  0
VERTEX
  5
3E2F5
  8
0
 10
-0.85
 20
-1.76
 30
0.595
 70
    64
  0
VERTEX
  5
3E2F6
  8
0
 10
-0.85
 20
-0.36
 30
0.765
 70
    64
  0
VERTEX
  5
3E2F7
  8
0
 10
-0.85
 20
-0.36
 30
0.595
 70
    64
  0
VERTEX
  5
3E2F8
  8
0
 10
-0.85
 20
-1.76
 30
0.595
 70
    64
  0
VERTEX
  5
3E2F9
  8
0
 10
0.0
 20
-0.36
 30
0.765
 70
    64
  0
VERTEX
  5
3E2FA
  8
0
 10
0.0
 20
-0.36
 30
0.595
 70
    64
  0
VERTEX
  5
3E2FB
  8
0
 10
0.0
 20
-1.76
 30
0.595
 70
    64
  0
VERTEX
  5
3E2FC
  8
0
 10
0.0
 20
-0.36
 30
0.765
 70
    64
  0
VERTEX
  5
3E2FD
  8
0
 10
0.0
 20
-0.36
 30
0.765
 70
    64
  0
VERTEX
  5
3E2FE
  8
0
 10
0.0
 20
-1.76
 30
0.765
 70
    64
  0
VERTEX
  5
3E2FF
  8
0
 10
-0.85
 20
-0.36
 30
0.765
 70
    64
  0
VERTEX
  5
3E300
  8
0
 10
-0.85
 20
-0.36
 30
0.765
 70
    64
  0
VERTEX
  5
3E301
  8
0
 10
-0.85
 20
-1.76
 30
0.765
 70
    64
  0
SEQEND
  5
3E302
  8
0
  0
POLYLINE
  5
3E303
  8
0
 66
     1
 10
0.0
 20
0.0
 30
0.0
 70
    16
 71
     6
 72
     3
  0
VERTEX
  5
3E304
  8
0
 10
0.0
 20
0.36
 30
0.765
 70
    64
  0
VERTEX
  5
3E305
  8
0
 10
0.0
 20
0.36
 30
0.595
 70
    64
  0
VERTEX
  5
3E306
  8
0
 10
0.0
 20
0.36
 30
0.595
 70
    64
  0
VERTEX
  5
3E307
  8
0
 10
-0.85
 20
0.36
 30
0.765
 70
    64
  0
VERTEX
  5
3E308
  8
0
 10
-0.85
 20
0.36
 30
0.595
 70
    64
  0
VERTEX
  5
3E309
  8
0
 10
-0.85
 20
0.36
 30
0.595
 70
    64
  0
VERTEX
  5
3E30A
  8
0
 10
-0.85
 20
1.76
 30
0.765
 70
    64
  0
VERTEX
  5
3E30B
  8
0
 10
-0.85
 20
1.76
 30
0.595
 70
    64
  0
VERTEX
  5
3E30C
  8
0
 10
-0.85
 20
0.36
 30
0.595
 70
    64
  0
VERTEX
  5
3E30D
  8
0
 10
0.0
 20
1.76
 30
0.765
 70
    64
  0
VERTEX
  5
3E30E
  8
0
 10
0.0
 20
1.76
 30
0.595
 70
    64
  0
VERTEX
  5
3E30F
  8
0
 10
0.0
 20
0.36
 30
0.595
 70
    64
  0
VERTEX
  5
3E310
  8
0
 10
0.0
 20
1.76
 30
0.765
 70
    64
  0
VERTEX
  5
3E311
  8
0
 10
0.0
 20
1.76
 30
0.765
 70
    64
  0
VERTEX
  5
3E312
  8
0
 10
0.0
 20
0.36
 30
0.765
 70
    64
  0
VERTEX
  5
3E313
  8
0
 10
-0.85
 20
1.76
 30
0.765
 70
    64
  0
VERTEX
  5
3E314
  8
0
 10
-0.85
 20
1.76
 30
0.765
 70
    64
  0
VERTEX
  5
3E315
  8
0
 10
-0.85
 20
0.36
 30
0.765
 70
    64
  0
SEQEND
  5
3E316
  8
0
  0
POLYLINE
  5
3E317
  8
0
 66
     1
 10
0.0
 20
0.0
 30
0.0
 70
    16
 71
     6
 72
     3
  0
VERTEX
  5
3E318
  8
0
 10
0.0
 20
-1.76
 30
0.595
 70
    64
  0
VERTEX
  5
3E319
  8
0
 10
0.0
 20
-1.76
 30
-1.635
 70
    64
  0
VERTEX
  5
3E31A
  8
0
 10
0.0
 20
-1.76
 30
-1.635
 70
    64
  0
VERTEX
  5
3E31B
  8
0
 10
-0.85
 20
-1.76
 30
0.595
 70
    64
  0
VERTEX
  5
3E31C
  8
0
 10
-0.85
 20
-1.76
 30
-1.635
 70
    64
  0
VERTEX
  5
3E31D
  8
0
 10
-0.85
 20
-1.76
 30
-1.635
 70
    64
  0
VERTEX
  5
3E31E
  8
0
 10
-0.85
 20
1.76
 30
0.595
 70
    64
  0
VERTEX
  5
3E31F
  8
0
 10
-0.85
 20
1.76
 30
-1.635
 70
    64
  0
VERTEX
  5
3E320
  8
0
 10
-0.85
 20
-1.76
 30
-1.635
 70
    64
  0
VERTEX
  5
3E321
  8
0
 10
0.0
 20
1.76
 30
0.595
 70
    64
  0
VERTEX
  5
3E322
  8
0
 10
0.0
 20
1.76
 30
-1.635
 70
    64
  0
VERTEX
  5
3E323
  8
0
 10
0.0
 20
-1.76
 30
-1.635
 70
    64
  0
VERTEX
  5
3E324
  8
0
 10
0.0
 20
1.76
 30
0.595
 70
    64
  0
VERTEX
  5
3E325
  8
0
 10
0.0
 20
1.76
 30
0.595
 70
    64
  0
VERTEX
  5
3E326
  8
0
 10
0.0
 20
-1.76
 30
0.595
 70
    64
  0
VERTEX
  5
3E327
  8
0
 10
-0.85
 20
1.76
 30
0.595
 70
    64
  0
VERTEX
  5
3E328
  8
0
 10
-0.85
 20
1.76
 30
0.595
 70
    64
  0
VERTEX
  5
3E329
  8
0
 10
-0.85
 20
-1.76
 30
0.595
 70
    64
  0
SEQEND
  5
3E32A
  8
0
  0
POLYLINE
  5
3E33F
  8
0
 66
     1
 10
0.0
 20
0.0
 30
0.0
 70
    16
 71
     6
 72
     3
  0
VERTEX
  5
3E340
  8
0
 10
0.0
 20
-0.36
 30
0.765
 70
    64
  0
VERTEX
  5
3E341
  8
0
 10
0.0
 20
-0.36
 30
0.595
 70
    64
  0
VERTEX
  5
3E342
  8
0
 10
0.0
 20
-0.36
 30
0.595
 70
    64
  0
VERTEX
  5
3E343
  8
0
 10
-0.38
 20
-0.36
 30
0.765
 70
    64
  0
VERTEX
  5
3E344
  8
0
 10
-0.38
 20
-0.36
 30
0.595
 70
    64
  0
VERTEX
  5
3E345
  8
0
 10
-0.38
 20
-0.36
 30
0.595
 70
    64
  0
VERTEX
  5
3E346
  8
0
 10
-0.38
 20
0.36
 30
0.765
 70
    64
  0
VERTEX
  5
3E347
  8
0
 10
-0.38
 20
0.36
 30
0.595
 70
    64
  0
VERTEX
  5
3E348
  8
0
 10
-0.38
 20
-0.36
 30
0.595
 70
    64
  0
VERTEX
  5
3E349
  8
0
 10
0.0
 20
0.36
 30
0.765
 70
    64
  0
VERTEX
  5
3E34A
  8
0
 10
0.0
 20
0.36
 30
0.595
 70
    64
  0
VERTEX
  5
3E34B
  8
0
 10
0.0
 20
-0.36
 30
0.595
 70
    64
  0
VERTEX
  5
3E34C
  8
0
 10
0.0
 20
0.36
 30
0.765
 70
    64
  0
VERTEX
  5
3E34D
  8
0
 10
0.0
 20
0.36
 30
0.765
 70
    64
  0
VERTEX
  5
3E34E
  8
0
 10
0.0
 20
-0.36
 30
0.765
 70
    64
  0
VERTEX
  5
3E34F
  8
0
 10
-0.38
 20
0.36
 30
0.765
 70
    64
  0
VERTEX
  5
3E350
  8
0
 10
-0.38
 20
0.36
 30
0.765
 70
    64
  0
VERTEX
  5
3E351
  8
0
 10
-0.38
 20
-0.36
 30
0.765
 70
    64
  0
SEQEND
  5
3E352
  8
0
  0
ENDSEC
  0
EOF
