  0
SECTION
  2
HEADER
  9
$ACADVER
  1
AC1009
  9
$INSBASE
 10
0.0
 20
0.0
 30
0.0
  9
$EXTMIN
 10
-0.550766
 20
-1.250626
 30
-0.715111
  9
$EXTMAX
 10
0.250677
 20
1.250328
 30
0.885098
  9
$LIMMIN
 10
0.0
 20
0.0
  9
$LIMMAX
 10
12.0
 20
9.0
  9
$ORTHOMODE
 70
     1
  9
$REGENMODE
 70
     1
  9
$FILLMODE
 70
     1
  9
$QTEXTMODE
 70
     0
  9
$MIRRTEXT
 70
     1
  9
$DRAGMODE
 70
     2
  9
$LTSCALE
 40
1.0
  9
$OSMODE
 70
     0
  9
$ATTMODE
 70
     0
  9
$TEXTSIZE
 40
0.08
  9
$TRACEWID
 40
0.05
  9
$TEXTSTYLE
  7
STANDARD
  9
$CLAYER
  8
0
  9
$CELTYPE
  6
BYLAYER
  9
$CECOLOR
 62
   256
  9
$DIMSCALE
 40
1.0
  9
$DIMASZ
 40
0.18
  9
$DIMEXO
 40
0.0625
  9
$DIMDLI
 40
0.38
  9
$DIMRND
 40
0.0
  9
$DIMDLE
 40
0.0
  9
$DIMEXE
 40
0.18
  9
$DIMTP
 40
0.0
  9
$DIMTM
 40
0.0
  9
$DIMTXT
 40
0.18
  9
$DIMCEN
 40
0.09
  9
$DIMTSZ
 40
0.0
  9
$DIMTOL
 70
     0
  9
$DIMLIM
 70
     0
  9
$DIMTIH
 70
     1
  9
$DIMTOH
 70
     1
  9
$DIMSE1
 70
     0
  9
$DIMSE2
 70
     0
  9
$DIMTAD
 70
     0
  9
$DIMZIN
 70
     0
  9
$DIMBLK
  1

  9
$DIMASO
 70
     1
  9
$DIMSHO
 70
     1
  9
$DIMPOST
  1

  9
$DIMAPOST
  1

  9
$DIMALT
 70
     0
  9
$DIMALTD
 70
     2
  9
$DIMALTF
 40
25.4
  9
$DIMLFAC
 40
1.0
  9
$DIMTOFL
 70
     0
  9
$DIMTVP
 40
0.0
  9
$DIMTIX
 70
     0
  9
$DIMSOXD
 70
     0
  9
$DIMSAH
 70
     0
  9
$DIMBLK1
  1

  9
$DIMBLK2
  1

  9
$DIMSTYLE
  2
STANDARD
  9
$DIMCLRD
 70
     0
  9
$DIMCLRE
 70
     0
  9
$DIMCLRT
 70
     0
  9
$DIMTFAC
 40
1.0
  9
$DIMGAP
 40
0.09
  9
$LUNITS
 70
     2
  9
$LUPREC
 70
     4
  9
$SKETCHINC
 40
0.1
  9
$FILLETRAD
 40
0.0
  9
$AUNITS
 70
     0
  9
$AUPREC
 70
     0
  9
$MENU
  1
acad
  9
$ELEVATION
 40
0.0
  9
$PELEVATION
 40
0.0
  9
$THICKNESS
 40
0.0
  9
$LIMCHECK
 70
     0
  9
$BLIPMODE
 70
     0
  9
$CHAMFERA
 40
0.0
  9
$CHAMFERB
 40
0.0
  9
$SKPOLY
 70
     0
  9
$TDCREATE
 40
2450685.719854
  9
$TDUPDATE
 40
2451166.500242
  9
$TDINDWG
 40
0.002253
  9
$TDUSRTIMER
 40
0.002253
  9
$USRTIMER
 70
     1
  9
$ANGBASE
 50
0.0
  9
$ANGDIR
 70
     0
  9
$PDMODE
 70
    96
  9
$PDSIZE
 40
0.09
  9
$PLINEWID
 40
0.0
  9
$COORDS
 70
     1
  9
$SPLFRAME
 70
     1
  9
$SPLINETYPE
 70
     6
  9
$SPLINESEGS
 70
     8
  9
$ATTDIA
 70
     0
  9
$ATTREQ
 70
     1
  9
$HANDLING
 70
     1
  9
$HANDSEED
  5
3E31F
  9
$SURFTAB1
 70
     6
  9
$SURFTAB2
 70
     6
  9
$SURFTYPE
 70
     6
  9
$SURFU
 70
     6
  9
$SURFV
 70
     6
  9
$UCSNAME
  2

  9
$UCSORG
 10
0.0
 20
0.0
 30
0.0
  9
$UCSXDIR
 10
1.0
 20
0.0
 30
0.0
  9
$UCSYDIR
 10
0.0
 20
1.0
 30
0.0
  9
$PUCSNAME
  2

  9
$PUCSORG
 10
0.0
 20
0.0
 30
0.0
  9
$PUCSXDIR
 10
1.0
 20
0.0
 30
0.0
  9
$PUCSYDIR
 10
0.0
 20
1.0
 30
0.0
  9
$USERI1
 70
     0
  9
$USERI2
 70
     0
  9
$USERI3
 70
     0
  9
$USERI4
 70
     0
  9
$USERI5
 70
     0
  9
$USERR1
 40
0.0
  9
$USERR2
 40
0.0
  9
$USERR3
 40
0.0
  9
$USERR4
 40
0.0
  9
$USERR5
 40
0.0
  9
$WORLDVIEW
 70
     1
  9
$SHADEDGE
 70
     3
  9
$SHADEDIF
 70
    70
  9
$TILEMODE
 70
     1
  9
$MAXACTVP
 70
    16
  9
$PLIMCHECK
 70
     0
  9
$PEXTMIN
 10
1.000000E+020
 20
1.000000E+020
 30
1.000000E+020
  9
$PEXTMAX
 10
-1.000000E+020
 20
-1.000000E+020
 30
-1.000000E+020
  9
$PLIMMIN
 10
0.0
 20
0.0
  9
$PLIMMAX
 10
12.0
 20
9.0
  9
$UNITMODE
 70
     0
  9
$VISRETAIN
 70
     0
  9
$PLINEGEN
 70
     0
  9
$PSLTSCALE
 70
     1
  0
ENDSEC
  0
SECTION
  2
TABLES
  0
TABLE
  2
VPORT
 70
     2
  0
VPORT
  2
*ACTIVE
 70
     0
 10
0.0
 20
0.0
 11
1.0
 21
1.0
 12
-0.150045
 22
-0.000149
 13
0.0
 23
0.0
 14
0.25
 24
0.25
 15
0.25
 25
0.25
 16
0.0
 26
0.0
 36
1.0
 17
0.0
 27
0.0
 37
0.0
 40
2.659446
 41
1.603066
 42
50.0
 43
0.0
 44
0.0
 50
0.0
 51
0.0
 71
     0
 72
 20000
 73
     1
 74
     1
 75
     0
 76
     0
 77
     0
 78
     0
  0
ENDTAB
  0
TABLE
  2
LTYPE
 70
     1
  0
LTYPE
  2
CONTINUOUS
 70
     0
  3
Solid line
 72
    65
 73
     0
 40
0.0
  0
ENDTAB
  0
TABLE
  2
LAYER
 70
     2
  0
LAYER
  2
0
 70
     0
 62
     7
  6
CONTINUOUS
  0
LAYER
  2
DIMS-MTG-HOLES
 70
     0
 62
     1
  6
CONTINUOUS
  0
ENDTAB
  0
TABLE
  2
STYLE
 70
     1
  0
STYLE
  2
STANDARD
 70
     0
 40
0.0
 41
1.0
 50
0.0
 71
     0
 42
0.08
  3
txt
  4

  0
ENDTAB
  0
TABLE
  2
VIEW
 70
     0
  0
ENDTAB
  0
TABLE
  2
UCS
 70
     0
  0
ENDTAB
  0
TABLE
  2
APPID
 70
     1
  0
APPID
  2
ACAD
 70
     0
  0
ENDTAB
  0
TABLE
  2
DIMSTYLE
 70
     1
  0
DIMSTYLE
  2
STANDARD
 70
     0
  3

  4

  5

  6

  7

 40
1.0
 41
0.18
 42
0.0625
 43
0.38
 44
0.18
 45
0.0
 46
0.0
 47
0.0
 48
0.0
140
0.18
141
0.09
142
0.0
143
25.4
144
1.0
145
0.0
146
1.0
147
0.09
 71
     0
 72
     0
 73
     1
 74
     1
 75
     0
 76
     0
 77
     0
 78
     0
170
     0
171
     2
172
     0
173
     0
174
     0
175
     0
176
     0
177
     0
178
     0
  0
ENDTAB
  0
ENDSEC
  0
SECTION
  2
BLOCKS
  0
BLOCK
  8
0
  2
$MODEL_SPACE
 70
     0
 10
0.0
 20
0.0
 30
0.0
  3
$MODEL_SPACE
  1

  0
ENDBLK
  5
3E2F5
  8
0
  0
BLOCK
 67
     1
  8
0
  2
$PAPER_SPACE
 70
     0
 10
0.0
 20
0.0
 30
0.0
  3
$PAPER_SPACE
  1

  0
ENDBLK
  5
3E2F3
 67
     1
  8
0
  0
ENDSEC
  0
SECTION
  2
ENTITIES
  0
POLYLINE
  5
3E123
  8
0
 66
     1
 10
0.0
 20
0.0
 30
0.0
 70
    16
 71
     6
 72
     3
  0
VERTEX
  5
3E124
  8
0
 10
0.0
 20
-1.25
 30
0.685
 70
    64
  0
VERTEX
  5
3E125
  8
0
 10
0.0
 20
-1.25
 30
-0.665
 70
    64
  0
VERTEX
  5
3E126
  8
0
 10
0.0
 20
-1.25
 30
-0.665
 70
    64
  0
VERTEX
  5
3E127
  8
0
 10
-0.55
 20
-1.25
 30
0.685
 70
    64
  0
VERTEX
  5
3E128
  8
0
 10
-0.55
 20
-1.25
 30
-0.665
 70
    64
  0
VERTEX
  5
3E129
  8
0
 10
-0.55
 20
-1.25
 30
-0.665
 70
    64
  0
VERTEX
  5
3E12A
  8
0
 10
-0.55
 20
1.25
 30
0.685
 70
    64
  0
VERTEX
  5
3E12B
  8
0
 10
-0.55
 20
1.25
 30
-0.665
 70
    64
  0
VERTEX
  5
3E12C
  8
0
 10
-0.55
 20
-1.25
 30
-0.665
 70
    64
  0
VERTEX
  5
3E12D
  8
0
 10
0.0
 20
1.25
 30
0.685
 70
    64
  0
VERTEX
  5
3E12E
  8
0
 10
0.0
 20
1.25
 30
-0.665
 70
    64
  0
VERTEX
  5
3E12F
  8
0
 10
0.0
 20
-1.25
 30
-0.665
 70
    64
  0
VERTEX
  5
3E130
  8
0
 10
0.0
 20
1.25
 30
0.685
 70
    64
  0
VERTEX
  5
3E131
  8
0
 10
0.0
 20
1.25
 30
0.685
 70
    64
  0
VERTEX
  5
3E132
  8
0
 10
0.0
 20
-1.25
 30
0.685
 70
    64
  0
VERTEX
  5
3E133
  8
0
 10
-0.55
 20
1.25
 30
0.685
 70
    64
  0
VERTEX
  5
3E134
  8
0
 10
-0.55
 20
1.25
 30
0.685
 70
    64
  0
VERTEX
  5
3E135
  8
0
 10
-0.55
 20
-1.25
 30
0.685
 70
    64
  0
SEQEND
  5
3E136
  8
0
  0
POLYLINE
  5
3E137
  8
0
 66
     1
 10
0.0
 20
0.0
 30
0.0
 70
    16
 71
     6
 72
     3
  0
VERTEX
  5
3E138
  8
0
 10
0.0
 20
-0.725
 30
-0.665
 70
    64
  0
VERTEX
  5
3E139
  8
0
 10
0.0
 20
-0.725
 30
-0.715
 70
    64
  0
VERTEX
  5
3E13A
  8
0
 10
0.0
 20
-0.725
 30
-0.715
 70
    64
  0
VERTEX
  5
3E13B
  8
0
 10
-0.55
 20
-0.725
 30
-0.665
 70
    64
  0
VERTEX
  5
3E13C
  8
0
 10
-0.55
 20
-0.725
 30
-0.715
 70
    64
  0
VERTEX
  5
3E13D
  8
0
 10
-0.55
 20
-0.725
 30
-0.715
 70
    64
  0
VERTEX
  5
3E13E
  8
0
 10
-0.55
 20
0.725
 30
-0.665
 70
    64
  0
VERTEX
  5
3E13F
  8
0
 10
-0.55
 20
0.725
 30
-0.715
 70
    64
  0
VERTEX
  5
3E140
  8
0
 10
-0.55
 20
-0.725
 30
-0.715
 70
    64
  0
VERTEX
  5
3E141
  8
0
 10
0.0
 20
0.725
 30
-0.665
 70
    64
  0
VERTEX
  5
3E142
  8
0
 10
0.0
 20
0.725
 30
-0.715
 70
    64
  0
VERTEX
  5
3E143
  8
0
 10
0.0
 20
-0.725
 30
-0.715
 70
    64
  0
VERTEX
  5
3E144
  8
0
 10
0.0
 20
0.725
 30
-0.665
 70
    64
  0
VERTEX
  5
3E145
  8
0
 10
0.0
 20
0.725
 30
-0.665
 70
    64
  0
VERTEX
  5
3E146
  8
0
 10
0.0
 20
-0.725
 30
-0.665
 70
    64
  0
VERTEX
  5
3E147
  8
0
 10
-0.55
 20
0.725
 30
-0.665
 70
    64
  0
VERTEX
  5
3E148
  8
0
 10
-0.55
 20
0.725
 30
-0.665
 70
    64
  0
VERTEX
  5
3E149
  8
0
 10
-0.55
 20
-0.725
 30
-0.665
 70
    64
  0
SEQEND
  5
3E14A
  8
0
  0
POLYLINE
  5
3E14B
  8
0
 66
     1
 10
0.0
 20
0.0
 30
0.0
 70
    16
 71
     6
 72
     3
  0
VERTEX
  5
3E14C
  8
0
 10
0.0
 20
-0.725
 30
0.785
 70
    64
  0
VERTEX
  5
3E14D
  8
0
 10
0.0
 20
-0.725
 30
0.685
 70
    64
  0
VERTEX
  5
3E14E
  8
0
 10
0.0
 20
-0.725
 30
0.685
 70
    64
  0
VERTEX
  5
3E14F
  8
0
 10
-0.55
 20
-0.725
 30
0.785
 70
    64
  0
VERTEX
  5
3E150
  8
0
 10
-0.55
 20
-0.725
 30
0.685
 70
    64
  0
VERTEX
  5
3E151
  8
0
 10
-0.55
 20
-0.725
 30
0.685
 70
    64
  0
VERTEX
  5
3E152
  8
0
 10
-0.55
 20
0.725
 30
0.785
 70
    64
  0
VERTEX
  5
3E153
  8
0
 10
-0.55
 20
0.725
 30
0.685
 70
    64
  0
VERTEX
  5
3E154
  8
0
 10
-0.55
 20
-0.725
 30
0.685
 70
    64
  0
VERTEX
  5
3E155
  8
0
 10
0.0
 20
0.725
 30
0.785
 70
    64
  0
VERTEX
  5
3E156
  8
0
 10
0.0
 20
0.725
 30
0.685
 70
    64
  0
VERTEX
  5
3E157
  8
0
 10
0.0
 20
-0.725
 30
0.685
 70
    64
  0
VERTEX
  5
3E158
  8
0
 10
0.0
 20
0.725
 30
0.785
 70
    64
  0
VERTEX
  5
3E159
  8
0
 10
0.0
 20
0.725
 30
0.785
 70
    64
  0
VERTEX
  5
3E15A
  8
0
 10
0.0
 20
-0.725
 30
0.785
 70
    64
  0
VERTEX
  5
3E15B
  8
0
 10
-0.55
 20
0.725
 30
0.785
 70
    64
  0
VERTEX
  5
3E15C
  8
0
 10
-0.55
 20
0.725
 30
0.785
 70
    64
  0
VERTEX
  5
3E15D
  8
0
 10
-0.55
 20
-0.725
 30
0.785
 70
    64
  0
SEQEND
  5
3E15E
  8
0
  0
POLYLINE
  5
3E15F
  8
0
 66
     1
 10
0.0
 20
0.0
 30
0.0
 70
    16
 71
     6
 72
     3
  0
VERTEX
  5
3E160
  8
0
 10
0.0
 20
-0.35
 30
0.885
 70
    64
  0
VERTEX
  5
3E161
  8
0
 10
0.0
 20
-0.35
 30
0.785
 70
    64
  0
VERTEX
  5
3E162
  8
0
 10
0.0
 20
-0.35
 30
0.785
 70
    64
  0
VERTEX
  5
3E163
  8
0
 10
-0.55
 20
-0.35
 30
0.885
 70
    64
  0
VERTEX
  5
3E164
  8
0
 10
-0.55
 20
-0.35
 30
0.785
 70
    64
  0
VERTEX
  5
3E165
  8
0
 10
-0.55
 20
-0.35
 30
0.785
 70
    64
  0
VERTEX
  5
3E166
  8
0
 10
-0.55
 20
0.35
 30
0.885
 70
    64
  0
VERTEX
  5
3E167
  8
0
 10
-0.55
 20
0.35
 30
0.785
 70
    64
  0
VERTEX
  5
3E168
  8
0
 10
-0.55
 20
-0.35
 30
0.785
 70
    64
  0
VERTEX
  5
3E169
  8
0
 10
0.0
 20
0.35
 30
0.885
 70
    64
  0
VERTEX
  5
3E16A
  8
0
 10
0.0
 20
0.35
 30
0.785
 70
    64
  0
VERTEX
  5
3E16B
  8
0
 10
0.0
 20
-0.35
 30
0.785
 70
    64
  0
VERTEX
  5
3E16C
  8
0
 10
0.0
 20
0.35
 30
0.885
 70
    64
  0
VERTEX
  5
3E16D
  8
0
 10
0.0
 20
0.35
 30
0.885
 70
    64
  0
VERTEX
  5
3E16E
  8
0
 10
0.0
 20
-0.35
 30
0.885
 70
    64
  0
VERTEX
  5
3E16F
  8
0
 10
-0.55
 20
0.35
 30
0.885
 70
    64
  0
VERTEX
  5
3E170
  8
0
 10
-0.55
 20
0.35
 30
0.885
 70
    64
  0
VERTEX
  5
3E171
  8
0
 10
-0.55
 20
-0.35
 30
0.885
 70
    64
  0
SEQEND
  5
3E172
  8
0
  0
CIRCLE
  5
3E173
  8
0
 10
-0.275
 20
-0.935
 30
0.685
 40
0.125
  0
POLYLINE
  5
3E1D9
  8
0
 66
     1
 10
0.0
 20
0.0
 30
0.685
  0
VERTEX
  5
3E302
  8
0
 10
-0.29
 20
-0.810903
 30
0.685
  0
VERTEX
  5
3E303
  8
0
 10
-0.29
 20
-0.92
 30
0.685
  0
VERTEX
  5
3E304
  8
0
 10
-0.335
 20
-0.92
 30
0.685
  0
VERTEX
  5
3E305
  8
0
 10
-0.335
 20
-0.95
 30
0.685
  0
VERTEX
  5
3E306
  8
0
 10
-0.29
 20
-0.95
 30
0.685
  0
VERTEX
  5
3E307
  8
0
 10
-0.29
 20
-1.059097
 30
0.685
  0
SEQEND
  5
3E308
  8
0
  0
POLYLINE
  5
3E212
  8
0
 66
     1
 10
0.0
 20
0.0
 30
0.685
  0
VERTEX
  5
3E309
  8
0
 10
-0.26
 20
-0.810903
 30
0.685
  0
VERTEX
  5
3E30A
  8
0
 10
-0.26
 20
-0.92
 30
0.685
  0
VERTEX
  5
3E30B
  8
0
 10
-0.215
 20
-0.92
 30
0.685
  0
VERTEX
  5
3E30C
  8
0
 10
-0.215
 20
-0.95
 30
0.685
  0
VERTEX
  5
3E30D
  8
0
 10
-0.26
 20
-0.95
 30
0.685
  0
VERTEX
  5
3E30E
  8
0
 10
-0.26
 20
-1.059097
 30
0.685
  0
SEQEND
  5
3E30F
  8
0
  0
TEXT
  5
3E21A
  8
0
 10
-0.352122
 20
-1.221842
 30
0.685
 40
0.08
  1
PE
  0
3DFACE
  5
3E21B
  8
0
 10
-0.385
 20
-1.25
 30
-0.015
 11
-0.165
 21
-1.25
 31
-0.015
 12
-0.165
 22
-1.25
 32
-0.315
 13
-0.385
 23
-1.25
 33
-0.315
  0
POLYLINE
  5
3E21C
  8
0
 66
     1
 10
0.0
 20
0.0
 30
0.685
  0
VERTEX
  5
3E310
  8
0
 10
-0.26
 20
0.810903
 30
0.685
  0
VERTEX
  5
3E311
  8
0
 10
-0.26
 20
0.92
 30
0.685
  0
VERTEX
  5
3E312
  8
0
 10
-0.215
 20
0.92
 30
0.685
  0
VERTEX
  5
3E313
  8
0
 10
-0.215
 20
0.95
 30
0.685
  0
VERTEX
  5
3E314
  8
0
 10
-0.26
 20
0.95
 30
0.685
  0
VERTEX
  5
3E315
  8
0
 10
-0.26
 20
1.059097
 30
0.685
  0
SEQEND
  5
3E316
  8
0
  0
POLYLINE
  5
3E224
  8
0
 66
     1
 10
0.0
 20
0.0
 30
0.685
  0
VERTEX
  5
3E317
  8
0
 10
-0.29
 20
0.810903
 30
0.685
  0
VERTEX
  5
3E318
  8
0
 10
-0.29
 20
0.92
 30
0.685
  0
VERTEX
  5
3E319
  8
0
 10
-0.335
 20
0.92
 30
0.685
  0
VERTEX
  5
3E31A
  8
0
 10
-0.335
 20
0.95
 30
0.685
  0
VERTEX
  5
3E31B
  8
0
 10
-0.29
 20
0.95
 30
0.685
  0
VERTEX
  5
3E31C
  8
0
 10
-0.29
 20
1.059097
 30
0.685
  0
SEQEND
  5
3E31D
  8
0
  0
CIRCLE
  5
3E22C
  8
0
 10
-0.275
 20
0.935
 30
0.685
 40
0.125
  0
3DFACE
  5
3E22E
  8
0
 10
-0.385
 20
1.25
 30
-0.015
 11
-0.165
 21
1.25
 31
-0.015
 12
-0.165
 22
1.25
 32
-0.315
 13
-0.385
 23
1.25
 33
-0.315
  0
TEXT
  5
3E22F
  8
0
 10
-0.352122
 20
1.145499
 30
0.685
 40
0.08
  1
PE
  0
POLYLINE
  5
3E230
  8
0
 66
     1
 10
0.0
 20
0.0
 30
0.0
 70
    16
 71
     6
 72
     3
  0
VERTEX
  5
3E231
  8
0
 10
0.25
 20
-0.075
 30
0.075
 70
    64
  0
VERTEX
  5
3E232
  8
0
 10
0.25
 20
-0.075
 30
-0.075
 70
    64
  0
VERTEX
  5
3E233
  8
0
 10
0.25
 20
-0.075
 30
-0.075
 70
    64
  0
VERTEX
  5
3E234
  8
0
 10
0.0
 20
-0.075
 30
0.075
 70
    64
  0
VERTEX
  5
3E235
  8
0
 10
0.0
 20
-0.075
 30
-0.075
 70
    64
  0
VERTEX
  5
3E236
  8
0
 10
0.0
 20
-0.075
 30
-0.075
 70
    64
  0
VERTEX
  5
3E237
  8
0
 10
0.0
 20
0.075
 30
0.075
 70
    64
  0
VERTEX
  5
3E238
  8
0
 10
0.0
 20
0.075
 30
-0.075
 70
    64
  0
VERTEX
  5
3E239
  8
0
 10
0.0
 20
-0.075
 30
-0.075
 70
    64
  0
VERTEX
  5
3E23A
  8
0
 10
0.25
 20
0.075
 30
0.075
 70
    64
  0
VERTEX
  5
3E23B
  8
0
 10
0.25
 20
0.075
 30
-0.075
 70
    64
  0
VERTEX
  5
3E23C
  8
0
 10
0.25
 20
-0.075
 30
-0.075
 70
    64
  0
VERTEX
  5
3E23D
  8
0
 10
0.25
 20
0.075
 30
0.075
 70
    64
  0
VERTEX
  5
3E23E
  8
0
 10
0.25
 20
0.075
 30
0.075
 70
    64
  0
VERTEX
  5
3E23F
  8
0
 10
0.25
 20
-0.075
 30
0.075
 70
    64
  0
VERTEX
  5
3E240
  8
0
 10
0.0
 20
0.075
 30
0.075
 70
    64
  0
VERTEX
  5
3E241
  8
0
 10
0.0
 20
0.075
 30
0.075
 70
    64
  0
VERTEX
  5
3E242
  8
0
 10
0.0
 20
-0.075
 30
0.075
 70
    64
  0
SEQEND
  5
3E243
  8
0
  0
3DFACE
  5
3E244
  8
0
 10
0.0
 20
0.075
 30
-0.225
 11
0.0
 21
-0.075
 31
-0.225
 12
0.0
 22
-0.075
 32
0.435
 13
0.0
 23
0.075
 33
0.435
  0
ENDSEC
  0
EOF
