  0
SECTION
  2
HEADER
  9
$ACADVER
  1
AC1009
  9
$INSBASE
 10
0.0
 20
0.0
 30
0.0
  9
$EXTMIN
 10
-0.700775
 20
-1.245625
 30
-0.715011
  9
$EXTMAX
 10
0.280784
 20
1.24551
 30
0.945101
  9
$LIMMIN
 10
0.0
 20
0.0
  9
$LIMMAX
 10
12.0
 20
9.0
  9
$ORTHOMODE
 70
     1
  9
$REGENMODE
 70
     1
  9
$FILLMODE
 70
     1
  9
$QTEXTMODE
 70
     0
  9
$MIRRTEXT
 70
     1
  9
$DRAGMODE
 70
     2
  9
$LTSCALE
 40
1.0
  9
$OSMODE
 70
     0
  9
$ATTMODE
 70
     0
  9
$TEXTSIZE
 40
0.12
  9
$TRACEWID
 40
0.05
  9
$TEXTSTYLE
  7
STANDARD
  9
$CLAYER
  8
0
  9
$CELTYPE
  6
BYLAYER
  9
$CECOLOR
 62
   256
  9
$DIMSCALE
 40
1.0
  9
$DIMASZ
 40
0.18
  9
$DIMEXO
 40
0.0625
  9
$DIMDLI
 40
0.38
  9
$DIMRND
 40
0.0
  9
$DIMDLE
 40
0.0
  9
$DIMEXE
 40
0.18
  9
$DIMTP
 40
0.0
  9
$DIMTM
 40
0.0
  9
$DIMTXT
 40
0.18
  9
$DIMCEN
 40
0.09
  9
$DIMTSZ
 40
0.0
  9
$DIMTOL
 70
     0
  9
$DIMLIM
 70
     0
  9
$DIMTIH
 70
     1
  9
$DIMTOH
 70
     1
  9
$DIMSE1
 70
     0
  9
$DIMSE2
 70
     0
  9
$DIMTAD
 70
     0
  9
$DIMZIN
 70
     0
  9
$DIMBLK
  1

  9
$DIMASO
 70
     1
  9
$DIMSHO
 70
     1
  9
$DIMPOST
  1

  9
$DIMAPOST
  1

  9
$DIMALT
 70
     0
  9
$DIMALTD
 70
     2
  9
$DIMALTF
 40
25.4
  9
$DIMLFAC
 40
1.0
  9
$DIMTOFL
 70
     0
  9
$DIMTVP
 40
0.0
  9
$DIMTIX
 70
     0
  9
$DIMSOXD
 70
     0
  9
$DIMSAH
 70
     0
  9
$DIMBLK1
  1

  9
$DIMBLK2
  1

  9
$DIMSTYLE
  2
STANDARD
  9
$DIMCLRD
 70
     0
  9
$DIMCLRE
 70
     0
  9
$DIMCLRT
 70
     0
  9
$DIMTFAC
 40
1.0
  9
$DIMGAP
 40
0.09
  9
$LUNITS
 70
     2
  9
$LUPREC
 70
     4
  9
$SKETCHINC
 40
0.1
  9
$FILLETRAD
 40
0.0
  9
$AUNITS
 70
     0
  9
$AUPREC
 70
     0
  9
$MENU
  1
acad
  9
$ELEVATION
 40
0.0
  9
$PELEVATION
 40
0.0
  9
$THICKNESS
 40
0.0
  9
$LIMCHECK
 70
     0
  9
$BLIPMODE
 70
     0
  9
$CHAMFERA
 40
0.0
  9
$CHAMFERB
 40
0.0
  9
$SKPOLY
 70
     0
  9
$TDCREATE
 40
2450672.023567
  9
$TDUPDATE
 40
2451166.500133
  9
$TDINDWG
 40
0.001021
  9
$TDUSRTIMER
 40
0.001021
  9
$USRTIMER
 70
     1
  9
$ANGBASE
 50
0.0
  9
$ANGDIR
 70
     0
  9
$PDMODE
 70
    96
  9
$PDSIZE
 40
0.09
  9
$PLINEWID
 40
0.0
  9
$COORDS
 70
     1
  9
$SPLFRAME
 70
     1
  9
$SPLINETYPE
 70
     6
  9
$SPLINESEGS
 70
     8
  9
$ATTDIA
 70
     0
  9
$ATTREQ
 70
     1
  9
$HANDLING
 70
     1
  9
$HANDSEED
  5
3E3E3
  9
$SURFTAB1
 70
     6
  9
$SURFTAB2
 70
     6
  9
$SURFTYPE
 70
     6
  9
$SURFU
 70
     6
  9
$SURFV
 70
     6
  9
$UCSNAME
  2

  9
$UCSORG
 10
0.0
 20
0.0
 30
0.0
  9
$UCSXDIR
 10
1.0
 20
0.0
 30
0.0
  9
$UCSYDIR
 10
0.0
 20
1.0
 30
0.0
  9
$PUCSNAME
  2

  9
$PUCSORG
 10
0.0
 20
0.0
 30
0.0
  9
$PUCSXDIR
 10
1.0
 20
0.0
 30
0.0
  9
$PUCSYDIR
 10
0.0
 20
1.0
 30
0.0
  9
$USERI1
 70
     0
  9
$USERI2
 70
     0
  9
$USERI3
 70
     0
  9
$USERI4
 70
     0
  9
$USERI5
 70
     0
  9
$USERR1
 40
0.0
  9
$USERR2
 40
0.0
  9
$USERR3
 40
0.0
  9
$USERR4
 40
0.0
  9
$USERR5
 40
0.0
  9
$WORLDVIEW
 70
     1
  9
$SHADEDGE
 70
     3
  9
$SHADEDIF
 70
    70
  9
$TILEMODE
 70
     1
  9
$MAXACTVP
 70
    16
  9
$PLIMCHECK
 70
     0
  9
$PEXTMIN
 10
1.000000E+020
 20
1.000000E+020
 30
1.000000E+020
  9
$PEXTMAX
 10
-1.000000E+020
 20
-1.000000E+020
 30
-1.000000E+020
  9
$PLIMMIN
 10
0.0
 20
0.0
  9
$PLIMMAX
 10
12.0
 20
9.0
  9
$UNITMODE
 70
     0
  9
$VISRETAIN
 70
     0
  9
$PLINEGEN
 70
     0
  9
$PSLTSCALE
 70
     1
  0
ENDSEC
  0
SECTION
  2
TABLES
  0
TABLE
  2
VPORT
 70
     2
  0
VPORT
  2
*ACTIVE
 70
     0
 10
0.0
 20
0.0
 11
1.0
 21
1.0
 12
-0.209996
 22
-0.000058
 13
0.0
 23
0.0
 14
0.25
 24
0.25
 15
0.25
 25
0.25
 16
0.0
 26
0.0
 36
1.0
 17
0.0
 27
0.0
 37
0.0
 40
2.649006
 41
1.603066
 42
50.0
 43
0.0
 44
0.0
 50
0.0
 51
0.0
 71
     0
 72
 20000
 73
     1
 74
     1
 75
     0
 76
     0
 77
     0
 78
     0
  0
ENDTAB
  0
TABLE
  2
LTYPE
 70
     1
  0
LTYPE
  2
CONTINUOUS
 70
     0
  3
Solid line
 72
    65
 73
     0
 40
0.0
  0
ENDTAB
  0
TABLE
  2
LAYER
 70
     2
  0
LAYER
  2
0
 70
     0
 62
     7
  6
CONTINUOUS
  0
LAYER
  2
DIMS-MTG-HOLES
 70
     0
 62
     1
  6
CONTINUOUS
  0
ENDTAB
  0
TABLE
  2
STYLE
 70
     1
  0
STYLE
  2
STANDARD
 70
     0
 40
0.0
 41
1.0
 50
0.0
 71
     0
 42
0.12
  3
txt
  4

  0
ENDTAB
  0
TABLE
  2
VIEW
 70
     0
  0
ENDTAB
  0
TABLE
  2
UCS
 70
     0
  0
ENDTAB
  0
TABLE
  2
APPID
 70
     1
  0
APPID
  2
ACAD
 70
     0
  0
ENDTAB
  0
TABLE
  2
DIMSTYLE
 70
     1
  0
DIMSTYLE
  2
STANDARD
 70
     0
  3

  4

  5

  6

  7

 40
1.0
 41
0.18
 42
0.0625
 43
0.38
 44
0.18
 45
0.0
 46
0.0
 47
0.0
 48
0.0
140
0.18
141
0.09
142
0.0
143
25.4
144
1.0
145
0.0
146
1.0
147
0.09
 71
     0
 72
     0
 73
     1
 74
     1
 75
     0
 76
     0
 77
     0
 78
     0
170
     0
171
     2
172
     0
173
     0
174
     0
175
     0
176
     0
177
     0
178
     0
  0
ENDTAB
  0
ENDSEC
  0
SECTION
  2
BLOCKS
  0
BLOCK
  8
0
  2
$MODEL_SPACE
 70
     0
 10
0.0
 20
0.0
 30
0.0
  3
$MODEL_SPACE
  1

  0
ENDBLK
  5
3E365
  8
0
  0
BLOCK
 67
     1
  8
0
  2
$PAPER_SPACE
 70
     0
 10
0.0
 20
0.0
 30
0.0
  3
$PAPER_SPACE
  1

  0
ENDBLK
  5
3E363
 67
     1
  8
0
  0
ENDSEC
  0
SECTION
  2
ENTITIES
  0
POLYLINE
  5
3E10F
  8
0
 66
     1
 10
0.0
 20
0.0
 30
0.0
 70
    16
 71
     6
 72
     3
  0
VERTEX
  5
3E110
  8
0
 10
0.0
 20
-1.245
 30
-0.015
 70
    64
  0
VERTEX
  5
3E111
  8
0
 10
0.0
 20
-1.245
 30
-0.665
 70
    64
  0
VERTEX
  5
3E112
  8
0
 10
0.0
 20
-1.245
 30
-0.665
 70
    64
  0
VERTEX
  5
3E113
  8
0
 10
-0.35
 20
-1.245
 30
-0.015
 70
    64
  0
VERTEX
  5
3E114
  8
0
 10
-0.35
 20
-1.245
 30
-0.665
 70
    64
  0
VERTEX
  5
3E115
  8
0
 10
-0.35
 20
-1.245
 30
-0.665
 70
    64
  0
VERTEX
  5
3E116
  8
0
 10
-0.35
 20
1.245
 30
-0.015
 70
    64
  0
VERTEX
  5
3E117
  8
0
 10
-0.35
 20
1.245
 30
-0.665
 70
    64
  0
VERTEX
  5
3E118
  8
0
 10
-0.35
 20
-1.245
 30
-0.665
 70
    64
  0
VERTEX
  5
3E119
  8
0
 10
0.0
 20
1.245
 30
-0.015
 70
    64
  0
VERTEX
  5
3E11A
  8
0
 10
0.0
 20
1.245
 30
-0.665
 70
    64
  0
VERTEX
  5
3E11B
  8
0
 10
0.0
 20
-1.245
 30
-0.665
 70
    64
  0
VERTEX
  5
3E11C
  8
0
 10
0.0
 20
1.245
 30
-0.015
 70
    64
  0
VERTEX
  5
3E11D
  8
0
 10
0.0
 20
1.245
 30
-0.015
 70
    64
  0
VERTEX
  5
3E11E
  8
0
 10
0.0
 20
-1.245
 30
-0.015
 70
    64
  0
VERTEX
  5
3E11F
  8
0
 10
-0.35
 20
1.245
 30
-0.015
 70
    64
  0
VERTEX
  5
3E120
  8
0
 10
-0.35
 20
1.245
 30
-0.015
 70
    64
  0
VERTEX
  5
3E121
  8
0
 10
-0.35
 20
-1.245
 30
-0.015
 70
    64
  0
SEQEND
  5
3E122
  8
0
  0
POLYLINE
  5
3E123
  8
0
 66
     1
 10
0.0
 20
0.0
 30
0.0
 70
    16
 71
     6
 72
     3
  0
VERTEX
  5
3E124
  8
0
 10
0.0
 20
-0.63
 30
0.945
 70
    64
  0
VERTEX
  5
3E125
  8
0
 10
0.0
 20
-0.63
 30
-0.015
 70
    64
  0
VERTEX
  5
3E126
  8
0
 10
0.0
 20
-0.63
 30
-0.015
 70
    64
  0
VERTEX
  5
3E127
  8
0
 10
-0.35
 20
-0.63
 30
0.945
 70
    64
  0
VERTEX
  5
3E128
  8
0
 10
-0.35
 20
-0.63
 30
-0.015
 70
    64
  0
VERTEX
  5
3E129
  8
0
 10
-0.35
 20
-0.63
 30
-0.015
 70
    64
  0
VERTEX
  5
3E12A
  8
0
 10
-0.35
 20
0.63
 30
0.945
 70
    64
  0
VERTEX
  5
3E12B
  8
0
 10
-0.35
 20
0.63
 30
-0.015
 70
    64
  0
VERTEX
  5
3E12C
  8
0
 10
-0.35
 20
-0.63
 30
-0.015
 70
    64
  0
VERTEX
  5
3E12D
  8
0
 10
0.0
 20
0.63
 30
0.945
 70
    64
  0
VERTEX
  5
3E12E
  8
0
 10
0.0
 20
0.63
 30
-0.015
 70
    64
  0
VERTEX
  5
3E12F
  8
0
 10
0.0
 20
-0.63
 30
-0.015
 70
    64
  0
VERTEX
  5
3E130
  8
0
 10
0.0
 20
0.63
 30
0.945
 70
    64
  0
VERTEX
  5
3E131
  8
0
 10
0.0
 20
0.63
 30
0.945
 70
    64
  0
VERTEX
  5
3E132
  8
0
 10
0.0
 20
-0.63
 30
0.945
 70
    64
  0
VERTEX
  5
3E133
  8
0
 10
-0.35
 20
0.63
 30
0.945
 70
    64
  0
VERTEX
  5
3E134
  8
0
 10
-0.35
 20
0.63
 30
0.945
 70
    64
  0
VERTEX
  5
3E135
  8
0
 10
-0.35
 20
-0.63
 30
0.945
 70
    64
  0
SEQEND
  5
3E136
  8
0
  0
POLYLINE
  5
3E137
  8
0
 66
     1
 10
0.0
 20
0.0
 30
0.0
 70
    16
 71
     6
 72
     3
  0
VERTEX
  5
3E138
  8
0
 10
0.0
 20
-0.345
 30
-0.665
 70
    64
  0
VERTEX
  5
3E139
  8
0
 10
0.0
 20
-0.345
 30
-0.715
 70
    64
  0
VERTEX
  5
3E13A
  8
0
 10
0.0
 20
-0.345
 30
-0.715
 70
    64
  0
VERTEX
  5
3E13B
  8
0
 10
-0.35
 20
-0.345
 30
-0.665
 70
    64
  0
VERTEX
  5
3E13C
  8
0
 10
-0.35
 20
-0.345
 30
-0.715
 70
    64
  0
VERTEX
  5
3E13D
  8
0
 10
-0.35
 20
-0.345
 30
-0.715
 70
    64
  0
VERTEX
  5
3E13E
  8
0
 10
-0.35
 20
0.345
 30
-0.665
 70
    64
  0
VERTEX
  5
3E13F
  8
0
 10
-0.35
 20
0.345
 30
-0.715
 70
    64
  0
VERTEX
  5
3E140
  8
0
 10
-0.35
 20
-0.345
 30
-0.715
 70
    64
  0
VERTEX
  5
3E141
  8
0
 10
0.0
 20
0.345
 30
-0.665
 70
    64
  0
VERTEX
  5
3E142
  8
0
 10
0.0
 20
0.345
 30
-0.715
 70
    64
  0
VERTEX
  5
3E143
  8
0
 10
0.0
 20
-0.345
 30
-0.715
 70
    64
  0
VERTEX
  5
3E144
  8
0
 10
0.0
 20
0.345
 30
-0.665
 70
    64
  0
VERTEX
  5
3E145
  8
0
 10
0.0
 20
0.345
 30
-0.665
 70
    64
  0
VERTEX
  5
3E146
  8
0
 10
0.0
 20
-0.345
 30
-0.665
 70
    64
  0
VERTEX
  5
3E147
  8
0
 10
-0.35
 20
0.345
 30
-0.665
 70
    64
  0
VERTEX
  5
3E148
  8
0
 10
-0.35
 20
0.345
 30
-0.665
 70
    64
  0
VERTEX
  5
3E149
  8
0
 10
-0.35
 20
-0.345
 30
-0.665
 70
    64
  0
SEQEND
  5
3E14A
  8
0
  0
3DFACE
  5
3E14B
  8
0
 10
-0.35
 20
-1.245
 30
-0.015
 11
-0.35
 21
-1.245
 31
-0.015
 12
-0.35
 22
-1.245
 32
-0.015
 13
-0.35
 23
-1.245
 33
-0.015
  0
3DFACE
  5
3E14C
  8
0
 10
-0.325
 20
-1.245
 30
-0.175
 11
-0.025
 21
-1.245
 31
-0.175
 12
-0.025
 22
-1.245
 32
-0.475
 13
-0.325
 23
-1.245
 33
-0.475
  0
CIRCLE
  5
3E14D
  8
0
 10
-0.175
 20
-0.89
 30
-0.015
 40
0.125
  0
POLYLINE
  5
3E15C
  8
0
 66
     1
 10
0.0
 20
0.0
 30
-0.015
  0
VERTEX
  5
3E372
  8
0
 10
-0.16
 20
-0.765903
 30
-0.015
  0
VERTEX
  5
3E373
  8
0
 10
-0.16
 20
-0.875
 30
-0.015
  0
VERTEX
  5
3E374
  8
0
 10
-0.115
 20
-0.875
 30
-0.015
  0
VERTEX
  5
3E375
  8
0
 10
-0.115
 20
-0.905
 30
-0.015
  0
VERTEX
  5
3E376
  8
0
 10
-0.16
 20
-0.905
 30
-0.015
  0
VERTEX
  5
3E377
  8
0
 10
-0.16
 20
-1.014097
 30
-0.015
  0
SEQEND
  5
3E378
  8
0
  0
POLYLINE
  5
3E164
  8
0
 66
     1
 10
0.0
 20
0.0
 30
-0.015
  0
VERTEX
  5
3E379
  8
0
 10
-0.19
 20
-0.765903
 30
-0.015
  0
VERTEX
  5
3E37A
  8
0
 10
-0.19
 20
-0.875
 30
-0.015
  0
VERTEX
  5
3E37B
  8
0
 10
-0.235
 20
-0.875
 30
-0.015
  0
VERTEX
  5
3E37C
  8
0
 10
-0.235
 20
-0.905
 30
-0.015
  0
VERTEX
  5
3E37D
  8
0
 10
-0.19
 20
-0.905
 30
-0.015
  0
VERTEX
  5
3E37E
  8
0
 10
-0.19
 20
-1.014097
 30
-0.015
  0
SEQEND
  5
3E37F
  8
0
  0
POLYLINE
  5
3E16C
  8
0
 66
     1
 10
0.0
 20
0.0
 30
0.945
  0
VERTEX
  5
3E380
  8
0
 10
-0.19
 20
-0.150903
 30
0.945
  0
VERTEX
  5
3E381
  8
0
 10
-0.19
 20
-0.26
 30
0.945
  0
VERTEX
  5
3E382
  8
0
 10
-0.235
 20
-0.26
 30
0.945
  0
VERTEX
  5
3E383
  8
0
 10
-0.235
 20
-0.29
 30
0.945
  0
VERTEX
  5
3E384
  8
0
 10
-0.19
 20
-0.29
 30
0.945
  0
VERTEX
  5
3E385
  8
0
 10
-0.19
 20
-0.399097
 30
0.945
  0
SEQEND
  5
3E386
  8
0
  0
CIRCLE
  5
3E174
  8
0
 10
-0.175
 20
-0.275
 30
0.945
 40
0.125
  0
POLYLINE
  5
3E175
  8
0
 66
     1
 10
0.0
 20
0.0
 30
0.945
  0
VERTEX
  5
3E387
  8
0
 10
-0.16
 20
-0.150903
 30
0.945
  0
VERTEX
  5
3E388
  8
0
 10
-0.16
 20
-0.26
 30
0.945
  0
VERTEX
  5
3E389
  8
0
 10
-0.115
 20
-0.26
 30
0.945
  0
VERTEX
  5
3E38A
  8
0
 10
-0.115
 20
-0.29
 30
0.945
  0
VERTEX
  5
3E38B
  8
0
 10
-0.16
 20
-0.29
 30
0.945
  0
VERTEX
  5
3E38C
  8
0
 10
-0.16
 20
-0.399097
 30
0.945
  0
SEQEND
  5
3E38D
  8
0
  0
3DFACE
  5
3E17D
  8
0
 10
-0.325
 20
-0.63
 30
0.785
 11
-0.025
 21
-0.63
 31
0.785
 12
-0.025
 22
-0.63
 32
0.485
 13
-0.325
 23
-0.63
 33
0.485
  0
3DFACE
  5
3E17E
  8
0
 10
-0.325
 20
0.63
 30
0.785
 11
-0.025
 21
0.63
 31
0.785
 12
-0.025
 22
0.63
 32
0.485
 13
-0.325
 23
0.63
 33
0.485
  0
POLYLINE
  5
3E17F
  8
0
 66
     1
 10
0.0
 20
0.0
 30
0.945
  0
VERTEX
  5
3E38E
  8
0
 10
-0.16
 20
0.150903
 30
0.945
  0
VERTEX
  5
3E38F
  8
0
 10
-0.16
 20
0.26
 30
0.945
  0
VERTEX
  5
3E390
  8
0
 10
-0.115
 20
0.26
 30
0.945
  0
VERTEX
  5
3E391
  8
0
 10
-0.115
 20
0.29
 30
0.945
  0
VERTEX
  5
3E392
  8
0
 10
-0.16
 20
0.29
 30
0.945
  0
VERTEX
  5
3E393
  8
0
 10
-0.16
 20
0.399097
 30
0.945
  0
SEQEND
  5
3E394
  8
0
  0
CIRCLE
  5
3E187
  8
0
 10
-0.175
 20
0.275
 30
0.945
 40
0.125
  0
POLYLINE
  5
3E188
  8
0
 66
     1
 10
0.0
 20
0.0
 30
0.945
  0
VERTEX
  5
3E395
  8
0
 10
-0.19
 20
0.150903
 30
0.945
  0
VERTEX
  5
3E396
  8
0
 10
-0.19
 20
0.26
 30
0.945
  0
VERTEX
  5
3E397
  8
0
 10
-0.235
 20
0.26
 30
0.945
  0
VERTEX
  5
3E398
  8
0
 10
-0.235
 20
0.29
 30
0.945
  0
VERTEX
  5
3E399
  8
0
 10
-0.19
 20
0.29
 30
0.945
  0
VERTEX
  5
3E39A
  8
0
 10
-0.19
 20
0.399097
 30
0.945
  0
SEQEND
  5
3E39B
  8
0
  0
3DFACE
  5
3E190
  8
0
 10
-0.325
 20
1.245
 30
-0.175
 11
-0.025
 21
1.245
 31
-0.175
 12
-0.025
 22
1.245
 32
-0.475
 13
-0.325
 23
1.245
 33
-0.475
  0
POLYLINE
  5
3E191
  8
0
 66
     1
 10
0.0
 20
0.0
 30
-0.015
  0
VERTEX
  5
3E39C
  8
0
 10
-0.19
 20
0.765903
 30
-0.015
  0
VERTEX
  5
3E39D
  8
0
 10
-0.19
 20
0.875
 30
-0.015
  0
VERTEX
  5
3E39E
  8
0
 10
-0.235
 20
0.875
 30
-0.015
  0
VERTEX
  5
3E39F
  8
0
 10
-0.235
 20
0.905
 30
-0.015
  0
VERTEX
  5
3E3A0
  8
0
 10
-0.19
 20
0.905
 30
-0.015
  0
VERTEX
  5
3E3A1
  8
0
 10
-0.19
 20
1.014097
 30
-0.015
  0
SEQEND
  5
3E3A2
  8
0
  0
CIRCLE
  5
3E199
  8
0
 10
-0.175
 20
0.89
 30
-0.015
 40
0.125
  0
POLYLINE
  5
3E19A
  8
0
 66
     1
 10
0.0
 20
0.0
 30
-0.015
  0
VERTEX
  5
3E3A3
  8
0
 10
-0.16
 20
0.765903
 30
-0.015
  0
VERTEX
  5
3E3A4
  8
0
 10
-0.16
 20
0.875
 30
-0.015
  0
VERTEX
  5
3E3A5
  8
0
 10
-0.115
 20
0.875
 30
-0.015
  0
VERTEX
  5
3E3A6
  8
0
 10
-0.115
 20
0.905
 30
-0.015
  0
VERTEX
  5
3E3A7
  8
0
 10
-0.16
 20
0.905
 30
-0.015
  0
VERTEX
  5
3E3A8
  8
0
 10
-0.16
 20
1.014097
 30
-0.015
  0
SEQEND
  5
3E3A9
  8
0
  0
3DFACE
  5
3E1A2
  8
0
 10
-0.35
 20
1.245
 30
-0.015
 11
-0.35
 21
1.245
 31
-0.015
 12
-0.35
 22
1.245
 32
-0.015
 13
-0.35
 23
1.245
 33
-0.015
  0
POLYLINE
  5
3E1A3
  8
0
 66
     1
 10
0.0
 20
0.0
 30
0.0
 70
    16
 71
     6
 72
     3
  0
VERTEX
  5
3E1A4
  8
0
 10
0.28
 20
-0.065
 30
0.075
 70
    64
  0
VERTEX
  5
3E1A5
  8
0
 10
0.28
 20
-0.065
 30
-0.075
 70
    64
  0
VERTEX
  5
3E1A6
  8
0
 10
0.28
 20
-0.065
 30
-0.075
 70
    64
  0
VERTEX
  5
3E1A7
  8
0
 10
0.0
 20
-0.065
 30
0.075
 70
    64
  0
VERTEX
  5
3E1A8
  8
0
 10
0.0
 20
-0.065
 30
-0.075
 70
    64
  0
VERTEX
  5
3E1A9
  8
0
 10
0.0
 20
-0.065
 30
-0.075
 70
    64
  0
VERTEX
  5
3E1AA
  8
0
 10
0.0
 20
0.065
 30
0.075
 70
    64
  0
VERTEX
  5
3E1AB
  8
0
 10
0.0
 20
0.065
 30
-0.075
 70
    64
  0
VERTEX
  5
3E1AC
  8
0
 10
0.0
 20
-0.065
 30
-0.075
 70
    64
  0
VERTEX
  5
3E1AD
  8
0
 10
0.28
 20
0.065
 30
0.075
 70
    64
  0
VERTEX
  5
3E1AE
  8
0
 10
0.28
 20
0.065
 30
-0.075
 70
    64
  0
VERTEX
  5
3E1AF
  8
0
 10
0.28
 20
-0.065
 30
-0.075
 70
    64
  0
VERTEX
  5
3E1B0
  8
0
 10
0.28
 20
0.065
 30
0.075
 70
    64
  0
VERTEX
  5
3E1B1
  8
0
 10
0.28
 20
0.065
 30
0.075
 70
    64
  0
VERTEX
  5
3E1B2
  8
0
 10
0.28
 20
-0.065
 30
0.075
 70
    64
  0
VERTEX
  5
3E1B3
  8
0
 10
0.0
 20
0.065
 30
0.075
 70
    64
  0
VERTEX
  5
3E1B4
  8
0
 10
0.0
 20
0.065
 30
0.075
 70
    64
  0
VERTEX
  5
3E1B5
  8
0
 10
0.0
 20
-0.065
 30
0.075
 70
    64
  0
SEQEND
  5
3E1B6
  8
0
  0
3DFACE
  5
3E1B7
  8
0
 10
0.0
 20
0.065
 30
0.335
 11
0.0
 21
-0.065
 31
0.335
 12
0.0
 22
-0.065
 32
-0.225
 13
0.0
 23
0.065
 33
-0.225
  0
3DFACE
  5
3E1DD
  8
0
 10
-0.675
 20
1.245
 30
-0.175
 11
-0.375
 21
1.245
 31
-0.175
 12
-0.375
 22
1.245
 32
-0.475
 13
-0.675
 23
1.245
 33
-0.475
  0
POLYLINE
  5
3E1DE
  8
0
 66
     1
 10
0.0
 20
0.0
 30
-0.015
  0
VERTEX
  5
3E3AA
  8
0
 10
-0.51
 20
0.765903
 30
-0.015
  0
VERTEX
  5
3E3AB
  8
0
 10
-0.51
 20
0.875
 30
-0.015
  0
VERTEX
  5
3E3AC
  8
0
 10
-0.465
 20
0.875
 30
-0.015
  0
VERTEX
  5
3E3AD
  8
0
 10
-0.465
 20
0.905
 30
-0.015
  0
VERTEX
  5
3E3AE
  8
0
 10
-0.51
 20
0.905
 30
-0.015
  0
VERTEX
  5
3E3AF
  8
0
 10
-0.51
 20
1.014097
 30
-0.015
  0
SEQEND
  5
3E3B0
  8
0
  0
CIRCLE
  5
3E1E6
  8
0
 10
-0.525
 20
0.89
 30
-0.015
 40
0.125
  0
POLYLINE
  5
3E1E7
  8
0
 66
     1
 10
0.0
 20
0.0
 30
-0.015
  0
VERTEX
  5
3E3B1
  8
0
 10
-0.54
 20
0.765903
 30
-0.015
  0
VERTEX
  5
3E3B2
  8
0
 10
-0.54
 20
0.875
 30
-0.015
  0
VERTEX
  5
3E3B3
  8
0
 10
-0.585
 20
0.875
 30
-0.015
  0
VERTEX
  5
3E3B4
  8
0
 10
-0.585
 20
0.905
 30
-0.015
  0
VERTEX
  5
3E3B5
  8
0
 10
-0.54
 20
0.905
 30
-0.015
  0
VERTEX
  5
3E3B6
  8
0
 10
-0.54
 20
1.014097
 30
-0.015
  0
SEQEND
  5
3E3B7
  8
0
  0
3DFACE
  5
3E1EF
  8
0
 10
-0.7
 20
1.245
 30
-0.015
 11
-0.7
 21
1.245
 31
-0.015
 12
-0.7
 22
1.245
 32
-0.015
 13
-0.7
 23
1.245
 33
-0.015
  0
POLYLINE
  5
3E1F0
  8
0
 66
     1
 10
0.0
 20
0.0
 30
0.0
 70
    16
 71
     6
 72
     3
  0
VERTEX
  5
3E1F1
  8
0
 10
-0.35
 20
-0.63
 30
0.945
 70
    64
  0
VERTEX
  5
3E1F2
  8
0
 10
-0.35
 20
-0.63
 30
-0.015
 70
    64
  0
VERTEX
  5
3E1F3
  8
0
 10
-0.35
 20
-0.63
 30
-0.015
 70
    64
  0
VERTEX
  5
3E1F4
  8
0
 10
-0.7
 20
-0.63
 30
0.945
 70
    64
  0
VERTEX
  5
3E1F5
  8
0
 10
-0.7
 20
-0.63
 30
-0.015
 70
    64
  0
VERTEX
  5
3E1F6
  8
0
 10
-0.7
 20
-0.63
 30
-0.015
 70
    64
  0
VERTEX
  5
3E1F7
  8
0
 10
-0.7
 20
0.63
 30
0.945
 70
    64
  0
VERTEX
  5
3E1F8
  8
0
 10
-0.7
 20
0.63
 30
-0.015
 70
    64
  0
VERTEX
  5
3E1F9
  8
0
 10
-0.7
 20
-0.63
 30
-0.015
 70
    64
  0
VERTEX
  5
3E1FA
  8
0
 10
-0.35
 20
0.63
 30
0.945
 70
    64
  0
VERTEX
  5
3E1FB
  8
0
 10
-0.35
 20
0.63
 30
-0.015
 70
    64
  0
VERTEX
  5
3E1FC
  8
0
 10
-0.35
 20
-0.63
 30
-0.015
 70
    64
  0
VERTEX
  5
3E1FD
  8
0
 10
-0.35
 20
0.63
 30
0.945
 70
    64
  0
VERTEX
  5
3E1FE
  8
0
 10
-0.35
 20
0.63
 30
0.945
 70
    64
  0
VERTEX
  5
3E1FF
  8
0
 10
-0.35
 20
-0.63
 30
0.945
 70
    64
  0
VERTEX
  5
3E200
  8
0
 10
-0.7
 20
0.63
 30
0.945
 70
    64
  0
VERTEX
  5
3E201
  8
0
 10
-0.7
 20
0.63
 30
0.945
 70
    64
  0
VERTEX
  5
3E202
  8
0
 10
-0.7
 20
-0.63
 30
0.945
 70
    64
  0
SEQEND
  5
3E203
  8
0
  0
POLYLINE
  5
3E204
  8
0
 66
     1
 10
0.0
 20
0.0
 30
0.0
 70
    16
 71
     6
 72
     3
  0
VERTEX
  5
3E205
  8
0
 10
-0.35
 20
-1.245
 30
-0.015
 70
    64
  0
VERTEX
  5
3E206
  8
0
 10
-0.35
 20
-1.245
 30
-0.665
 70
    64
  0
VERTEX
  5
3E207
  8
0
 10
-0.35
 20
-1.245
 30
-0.665
 70
    64
  0
VERTEX
  5
3E208
  8
0
 10
-0.7
 20
-1.245
 30
-0.015
 70
    64
  0
VERTEX
  5
3E209
  8
0
 10
-0.7
 20
-1.245
 30
-0.665
 70
    64
  0
VERTEX
  5
3E20A
  8
0
 10
-0.7
 20
-1.245
 30
-0.665
 70
    64
  0
VERTEX
  5
3E20B
  8
0
 10
-0.7
 20
1.245
 30
-0.015
 70
    64
  0
VERTEX
  5
3E20C
  8
0
 10
-0.7
 20
1.245
 30
-0.665
 70
    64
  0
VERTEX
  5
3E20D
  8
0
 10
-0.7
 20
-1.245
 30
-0.665
 70
    64
  0
VERTEX
  5
3E20E
  8
0
 10
-0.35
 20
1.245
 30
-0.015
 70
    64
  0
VERTEX
  5
3E20F
  8
0
 10
-0.35
 20
1.245
 30
-0.665
 70
    64
  0
VERTEX
  5
3E210
  8
0
 10
-0.35
 20
-1.245
 30
-0.665
 70
    64
  0
VERTEX
  5
3E211
  8
0
 10
-0.35
 20
1.245
 30
-0.015
 70
    64
  0
VERTEX
  5
3E212
  8
0
 10
-0.35
 20
1.245
 30
-0.015
 70
    64
  0
VERTEX
  5
3E213
  8
0
 10
-0.35
 20
-1.245
 30
-0.015
 70
    64
  0
VERTEX
  5
3E214
  8
0
 10
-0.7
 20
1.245
 30
-0.015
 70
    64
  0
VERTEX
  5
3E215
  8
0
 10
-0.7
 20
1.245
 30
-0.015
 70
    64
  0
VERTEX
  5
3E216
  8
0
 10
-0.7
 20
-1.245
 30
-0.015
 70
    64
  0
SEQEND
  5
3E217
  8
0
  0
3DFACE
  5
3E218
  8
0
 10
-0.675
 20
-1.245
 30
-0.175
 11
-0.375
 21
-1.245
 31
-0.175
 12
-0.375
 22
-1.245
 32
-0.475
 13
-0.675
 23
-1.245
 33
-0.475
  0
POLYLINE
  5
3E219
  8
0
 66
     1
 10
0.0
 20
0.0
 30
-0.015
  0
VERTEX
  5
3E3B8
  8
0
 10
-0.54
 20
-0.765903
 30
-0.015
  0
VERTEX
  5
3E3B9
  8
0
 10
-0.54
 20
-0.875
 30
-0.015
  0
VERTEX
  5
3E3BA
  8
0
 10
-0.585
 20
-0.875
 30
-0.015
  0
VERTEX
  5
3E3BB
  8
0
 10
-0.585
 20
-0.905
 30
-0.015
  0
VERTEX
  5
3E3BC
  8
0
 10
-0.54
 20
-0.905
 30
-0.015
  0
VERTEX
  5
3E3BD
  8
0
 10
-0.54
 20
-1.014097
 30
-0.015
  0
SEQEND
  5
3E3BE
  8
0
  0
POLYLINE
  5
3E221
  8
0
 66
     1
 10
0.0
 20
0.0
 30
-0.015
  0
VERTEX
  5
3E3BF
  8
0
 10
-0.51
 20
-0.765903
 30
-0.015
  0
VERTEX
  5
3E3C0
  8
0
 10
-0.51
 20
-0.875
 30
-0.015
  0
VERTEX
  5
3E3C1
  8
0
 10
-0.465
 20
-0.875
 30
-0.015
  0
VERTEX
  5
3E3C2
  8
0
 10
-0.465
 20
-0.905
 30
-0.015
  0
VERTEX
  5
3E3C3
  8
0
 10
-0.51
 20
-0.905
 30
-0.015
  0
VERTEX
  5
3E3C4
  8
0
 10
-0.51
 20
-1.014097
 30
-0.015
  0
SEQEND
  5
3E3C5
  8
0
  0
CIRCLE
  5
3E229
  8
0
 10
-0.525
 20
-0.89
 30
-0.015
 40
0.125
  0
3DFACE
  5
3E22A
  8
0
 10
-0.7
 20
-1.245
 30
-0.015
 11
-0.7
 21
-1.245
 31
-0.015
 12
-0.7
 22
-1.245
 32
-0.015
 13
-0.7
 23
-1.245
 33
-0.015
  0
POLYLINE
  5
3E22B
  8
0
 66
     1
 10
0.0
 20
0.0
 30
0.0
 70
    16
 71
     6
 72
     3
  0
VERTEX
  5
3E22C
  8
0
 10
-0.35
 20
-0.345
 30
-0.665
 70
    64
  0
VERTEX
  5
3E22D
  8
0
 10
-0.35
 20
-0.345
 30
-0.715
 70
    64
  0
VERTEX
  5
3E22E
  8
0
 10
-0.35
 20
-0.345
 30
-0.715
 70
    64
  0
VERTEX
  5
3E22F
  8
0
 10
-0.7
 20
-0.345
 30
-0.665
 70
    64
  0
VERTEX
  5
3E230
  8
0
 10
-0.7
 20
-0.345
 30
-0.715
 70
    64
  0
VERTEX
  5
3E231
  8
0
 10
-0.7
 20
-0.345
 30
-0.715
 70
    64
  0
VERTEX
  5
3E232
  8
0
 10
-0.7
 20
0.345
 30
-0.665
 70
    64
  0
VERTEX
  5
3E233
  8
0
 10
-0.7
 20
0.345
 30
-0.715
 70
    64
  0
VERTEX
  5
3E234
  8
0
 10
-0.7
 20
-0.345
 30
-0.715
 70
    64
  0
VERTEX
  5
3E235
  8
0
 10
-0.35
 20
0.345
 30
-0.665
 70
    64
  0
VERTEX
  5
3E236
  8
0
 10
-0.35
 20
0.345
 30
-0.715
 70
    64
  0
VERTEX
  5
3E237
  8
0
 10
-0.35
 20
-0.345
 30
-0.715
 70
    64
  0
VERTEX
  5
3E238
  8
0
 10
-0.35
 20
0.345
 30
-0.665
 70
    64
  0
VERTEX
  5
3E239
  8
0
 10
-0.35
 20
0.345
 30
-0.665
 70
    64
  0
VERTEX
  5
3E23A
  8
0
 10
-0.35
 20
-0.345
 30
-0.665
 70
    64
  0
VERTEX
  5
3E23B
  8
0
 10
-0.7
 20
0.345
 30
-0.665
 70
    64
  0
VERTEX
  5
3E23C
  8
0
 10
-0.7
 20
0.345
 30
-0.665
 70
    64
  0
VERTEX
  5
3E23D
  8
0
 10
-0.7
 20
-0.345
 30
-0.665
 70
    64
  0
SEQEND
  5
3E23E
  8
0
  0
POLYLINE
  5
3E23F
  8
0
 66
     1
 10
0.0
 20
0.0
 30
0.945
  0
VERTEX
  5
3E3C6
  8
0
 10
-0.54
 20
0.150903
 30
0.945
  0
VERTEX
  5
3E3C7
  8
0
 10
-0.54
 20
0.26
 30
0.945
  0
VERTEX
  5
3E3C8
  8
0
 10
-0.585
 20
0.26
 30
0.945
  0
VERTEX
  5
3E3C9
  8
0
 10
-0.585
 20
0.29
 30
0.945
  0
VERTEX
  5
3E3CA
  8
0
 10
-0.54
 20
0.29
 30
0.945
  0
VERTEX
  5
3E3CB
  8
0
 10
-0.54
 20
0.399097
 30
0.945
  0
SEQEND
  5
3E3CC
  8
0
  0
CIRCLE
  5
3E247
  8
0
 10
-0.525
 20
0.275
 30
0.945
 40
0.125
  0
POLYLINE
  5
3E248
  8
0
 66
     1
 10
0.0
 20
0.0
 30
0.945
  0
VERTEX
  5
3E3CD
  8
0
 10
-0.51
 20
0.150903
 30
0.945
  0
VERTEX
  5
3E3CE
  8
0
 10
-0.51
 20
0.26
 30
0.945
  0
VERTEX
  5
3E3CF
  8
0
 10
-0.465
 20
0.26
 30
0.945
  0
VERTEX
  5
3E3D0
  8
0
 10
-0.465
 20
0.29
 30
0.945
  0
VERTEX
  5
3E3D1
  8
0
 10
-0.51
 20
0.29
 30
0.945
  0
VERTEX
  5
3E3D2
  8
0
 10
-0.51
 20
0.399097
 30
0.945
  0
SEQEND
  5
3E3D3
  8
0
  0
3DFACE
  5
3E250
  8
0
 10
-0.675
 20
0.63
 30
0.785
 11
-0.375
 21
0.63
 31
0.785
 12
-0.375
 22
0.63
 32
0.485
 13
-0.675
 23
0.63
 33
0.485
  0
POLYLINE
  5
3E251
  8
0
 66
     1
 10
0.0
 20
0.0
 30
0.945
  0
VERTEX
  5
3E3D4
  8
0
 10
-0.51
 20
-0.150903
 30
0.945
  0
VERTEX
  5
3E3D5
  8
0
 10
-0.51
 20
-0.26
 30
0.945
  0
VERTEX
  5
3E3D6
  8
0
 10
-0.465
 20
-0.26
 30
0.945
  0
VERTEX
  5
3E3D7
  8
0
 10
-0.465
 20
-0.29
 30
0.945
  0
VERTEX
  5
3E3D8
  8
0
 10
-0.51
 20
-0.29
 30
0.945
  0
VERTEX
  5
3E3D9
  8
0
 10
-0.51
 20
-0.399097
 30
0.945
  0
SEQEND
  5
3E3DA
  8
0
  0
CIRCLE
  5
3E259
  8
0
 10
-0.525
 20
-0.275
 30
0.945
 40
0.125
  0
POLYLINE
  5
3E25A
  8
0
 66
     1
 10
0.0
 20
0.0
 30
0.945
  0
VERTEX
  5
3E3DB
  8
0
 10
-0.54
 20
-0.150903
 30
0.945
  0
VERTEX
  5
3E3DC
  8
0
 10
-0.54
 20
-0.26
 30
0.945
  0
VERTEX
  5
3E3DD
  8
0
 10
-0.585
 20
-0.26
 30
0.945
  0
VERTEX
  5
3E3DE
  8
0
 10
-0.585
 20
-0.29
 30
0.945
  0
VERTEX
  5
3E3DF
  8
0
 10
-0.54
 20
-0.29
 30
0.945
  0
VERTEX
  5
3E3E0
  8
0
 10
-0.54
 20
-0.399097
 30
0.945
  0
SEQEND
  5
3E3E1
  8
0
  0
3DFACE
  5
3E262
  8
0
 10
-0.675
 20
-0.63
 30
0.785
 11
-0.375
 21
-0.63
 31
0.785
 12
-0.375
 22
-0.63
 32
0.485
 13
-0.675
 23
-0.63
 33
0.485
  0
ENDSEC
  0
EOF
