  0
SECTION
  2
HEADER
  9
$ACADVER
  1
AC1009
  9
$INSBASE
 10
0.0
 20
0.0
 30
0.0
  9
$EXTMIN
 10
-1.415636
 20
-2.045674
 30
-3.510214
  9
$EXTMAX
 10
1.415367
 20
2.045597
 30
0.000214
  9
$LIMMIN
 10
0.0
 20
0.0
  9
$LIMMAX
 10
12.0
 20
9.0
  9
$ORTHOMODE
 70
     0
  9
$REGENMODE
 70
     1
  9
$FILLMODE
 70
     1
  9
$QTEXTMODE
 70
     0
  9
$MIRRTEXT
 70
     1
  9
$DRAGMODE
 70
     2
  9
$LTSCALE
 40
1.0
  9
$OSMODE
 70
     8
  9
$ATTMODE
 70
     0
  9
$TEXTSIZE
 40
0.12
  9
$TRACEWID
 40
0.05
  9
$TEXTSTYLE
  7
STANDARD
  9
$CLAYER
  8
0
  9
$CELTYPE
  6
BYLAYER
  9
$CECOLOR
 62
   256
  9
$DIMSCALE
 40
1.0
  9
$DIMASZ
 40
0.18
  9
$DIMEXO
 40
0.0625
  9
$DIMDLI
 40
0.38
  9
$DIMRND
 40
0.0
  9
$DIMDLE
 40
0.0
  9
$DIMEXE
 40
0.18
  9
$DIMTP
 40
0.0
  9
$DIMTM
 40
0.0
  9
$DIMTXT
 40
0.18
  9
$DIMCEN
 40
0.09
  9
$DIMTSZ
 40
0.0
  9
$DIMTOL
 70
     0
  9
$DIMLIM
 70
     0
  9
$DIMTIH
 70
     1
  9
$DIMTOH
 70
     1
  9
$DIMSE1
 70
     0
  9
$DIMSE2
 70
     0
  9
$DIMTAD
 70
     0
  9
$DIMZIN
 70
     0
  9
$DIMBLK
  1

  9
$DIMASO
 70
     1
  9
$DIMSHO
 70
     1
  9
$DIMPOST
  1

  9
$DIMAPOST
  1

  9
$DIMALT
 70
     0
  9
$DIMALTD
 70
     2
  9
$DIMALTF
 40
25.4
  9
$DIMLFAC
 40
1.0
  9
$DIMTOFL
 70
     0
  9
$DIMTVP
 40
0.0
  9
$DIMTIX
 70
     0
  9
$DIMSOXD
 70
     0
  9
$DIMSAH
 70
     0
  9
$DIMBLK1
  1

  9
$DIMBLK2
  1

  9
$DIMSTYLE
  2
STANDARD
  9
$DIMCLRD
 70
     0
  9
$DIMCLRE
 70
     0
  9
$DIMCLRT
 70
     0
  9
$DIMTFAC
 40
1.0
  9
$DIMGAP
 40
0.09
  9
$LUNITS
 70
     2
  9
$LUPREC
 70
     4
  9
$SKETCHINC
 40
0.1
  9
$FILLETRAD
 40
0.05
  9
$AUNITS
 70
     0
  9
$AUPREC
 70
     0
  9
$MENU
  1
acad
  9
$ELEVATION
 40
0.0
  9
$PELEVATION
 40
0.0
  9
$THICKNESS
 40
0.0
  9
$LIMCHECK
 70
     0
  9
$BLIPMODE
 70
     0
  9
$CHAMFERA
 40
0.0
  9
$CHAMFERB
 40
0.0
  9
$SKPOLY
 70
     0
  9
$TDCREATE
 40
2450671.992828
  9
$TDUPDATE
 40
2451166.500001
  9
$TDINDWG
 40
0.000362
  9
$TDUSRTIMER
 40
0.000362
  9
$USRTIMER
 70
     1
  9
$ANGBASE
 50
0.0
  9
$ANGDIR
 70
     0
  9
$PDMODE
 70
    96
  9
$PDSIZE
 40
0.09
  9
$PLINEWID
 40
0.0
  9
$COORDS
 70
     1
  9
$SPLFRAME
 70
     1
  9
$SPLINETYPE
 70
     6
  9
$SPLINESEGS
 70
     8
  9
$ATTDIA
 70
     0
  9
$ATTREQ
 70
     1
  9
$HANDLING
 70
     1
  9
$HANDSEED
  5
3E957
  9
$SURFTAB1
 70
     6
  9
$SURFTAB2
 70
     6
  9
$SURFTYPE
 70
     6
  9
$SURFU
 70
     6
  9
$SURFV
 70
     6
  9
$UCSNAME
  2

  9
$UCSORG
 10
0.0
 20
0.0
 30
0.0
  9
$UCSXDIR
 10
1.0
 20
0.0
 30
0.0
  9
$UCSYDIR
 10
0.0
 20
1.0
 30
0.0
  9
$PUCSNAME
  2

  9
$PUCSORG
 10
0.0
 20
0.0
 30
0.0
  9
$PUCSXDIR
 10
1.0
 20
0.0
 30
0.0
  9
$PUCSYDIR
 10
0.0
 20
1.0
 30
0.0
  9
$USERI1
 70
     0
  9
$USERI2
 70
     0
  9
$USERI3
 70
     0
  9
$USERI4
 70
     0
  9
$USERI5
 70
     0
  9
$USERR1
 40
0.0
  9
$USERR2
 40
0.0
  9
$USERR3
 40
0.0
  9
$USERR4
 40
0.0
  9
$USERR5
 40
0.0
  9
$WORLDVIEW
 70
     1
  9
$SHADEDGE
 70
     3
  9
$SHADEDIF
 70
    70
  9
$TILEMODE
 70
     1
  9
$MAXACTVP
 70
    16
  9
$PLIMCHECK
 70
     0
  9
$PEXTMIN
 10
1.000000E+020
 20
1.000000E+020
 30
1.000000E+020
  9
$PEXTMAX
 10
-1.000000E+020
 20
-1.000000E+020
 30
-1.000000E+020
  9
$PLIMMIN
 10
0.0
 20
0.0
  9
$PLIMMAX
 10
12.0
 20
9.0
  9
$UNITMODE
 70
     0
  9
$VISRETAIN
 70
     0
  9
$PLINEGEN
 70
     0
  9
$PSLTSCALE
 70
     1
  0
ENDSEC
  0
SECTION
  2
TABLES
  0
TABLE
  2
VPORT
 70
     2
  0
VPORT
  2
*ACTIVE
 70
     0
 10
0.0
 20
0.0
 11
1.0
 21
1.0
 12
-0.000135
 22
-0.000038
 13
0.0
 23
0.0
 14
0.25
 24
0.25
 15
0.25
 25
0.25
 16
0.0
 26
0.0
 36
1.0
 17
0.0
 27
0.0
 37
0.0
 40
4.350546
 41
1.603066
 42
50.0
 43
0.0
 44
0.0
 50
0.0
 51
0.0
 71
     0
 72
 20000
 73
     1
 74
     1
 75
     0
 76
     0
 77
     0
 78
     0
  0
ENDTAB
  0
TABLE
  2
LTYPE
 70
     1
  0
LTYPE
  2
CONTINUOUS
 70
     0
  3
Solid line
 72
    65
 73
     0
 40
0.0
  0
ENDTAB
  0
TABLE
  2
LAYER
 70
     2
  0
LAYER
  2
0
 70
     0
 62
     7
  6
CONTINUOUS
  0
LAYER
  2
DIMS-MTG-HOLES
 70
     0
 62
     1
  6
CONTINUOUS
  0
ENDTAB
  0
TABLE
  2
STYLE
 70
     1
  0
STYLE
  2
STANDARD
 70
     0
 40
0.0
 41
1.0
 50
0.0
 71
     0
 42
0.12
  3
txt
  4

  0
ENDTAB
  0
TABLE
  2
VIEW
 70
     0
  0
ENDTAB
  0
TABLE
  2
UCS
 70
     0
  0
ENDTAB
  0
TABLE
  2
APPID
 70
     1
  0
APPID
  2
ACAD
 70
     0
  0
ENDTAB
  0
TABLE
  2
DIMSTYLE
 70
     1
  0
DIMSTYLE
  2
STANDARD
 70
     0
  3

  4

  5

  6

  7

 40
1.0
 41
0.18
 42
0.0625
 43
0.38
 44
0.18
 45
0.0
 46
0.0
 47
0.0
 48
0.0
140
0.18
141
0.09
142
0.0
143
25.4
144
1.0
145
0.0
146
1.0
147
0.09
 71
     0
 72
     0
 73
     1
 74
     1
 75
     0
 76
     0
 77
     0
 78
     0
170
     0
171
     2
172
     0
173
     0
174
     0
175
     0
176
     0
177
     0
178
     0
  0
ENDTAB
  0
ENDSEC
  0
SECTION
  2
BLOCKS
  0
BLOCK
  8
0
  2
$MODEL_SPACE
 70
     0
 10
0.0
 20
0.0
 30
0.0
  3
$MODEL_SPACE
  1

  0
ENDBLK
  5
3E912
  8
0
  0
BLOCK
 67
     1
  8
0
  2
$PAPER_SPACE
 70
     0
 10
0.0
 20
0.0
 30
0.0
  3
$PAPER_SPACE
  1

  0
ENDBLK
  5
3E910
 67
     1
  8
0
  0
ENDSEC
  0
SECTION
  2
ENTITIES
  0
POLYLINE
  5
3E1C3
  8
0
 66
     1
 10
0.0
 20
0.0
 30
0.0
 70
    16
 71
     6
 72
     3
  0
VERTEX
  5
3E1C4
  8
0
 10
-0.315
 20
-2.045
 30
-3.36
 70
    64
  0
VERTEX
  5
3E1C5
  8
0
 10
-0.315
 20
-2.045
 30
-3.51
 70
    64
  0
VERTEX
  5
3E1C6
  8
0
 10
-0.315
 20
-2.045
 30
-3.51
 70
    64
  0
VERTEX
  5
3E1C7
  8
0
 10
-0.695
 20
-2.045
 30
-3.36
 70
    64
  0
VERTEX
  5
3E1C8
  8
0
 10
-0.695
 20
-2.045
 30
-3.51
 70
    64
  0
VERTEX
  5
3E1C9
  8
0
 10
-0.695
 20
-2.045
 30
-3.51
 70
    64
  0
VERTEX
  5
3E1CA
  8
0
 10
-0.695
 20
-1.765
 30
-3.36
 70
    64
  0
VERTEX
  5
3E1CB
  8
0
 10
-0.695
 20
-1.765
 30
-3.51
 70
    64
  0
VERTEX
  5
3E1CC
  8
0
 10
-0.695
 20
-2.045
 30
-3.51
 70
    64
  0
VERTEX
  5
3E1CD
  8
0
 10
-0.315
 20
-1.765
 30
-3.36
 70
    64
  0
VERTEX
  5
3E1CE
  8
0
 10
-0.315
 20
-1.765
 30
-3.51
 70
    64
  0
VERTEX
  5
3E1CF
  8
0
 10
-0.315
 20
-2.045
 30
-3.51
 70
    64
  0
VERTEX
  5
3E1D0
  8
0
 10
-0.315
 20
-1.765
 30
-3.36
 70
    64
  0
VERTEX
  5
3E1D1
  8
0
 10
-0.315
 20
-1.765
 30
-3.36
 70
    64
  0
VERTEX
  5
3E1D2
  8
0
 10
-0.315
 20
-2.045
 30
-3.36
 70
    64
  0
VERTEX
  5
3E1D3
  8
0
 10
-0.695
 20
-1.765
 30
-3.36
 70
    64
  0
VERTEX
  5
3E1D4
  8
0
 10
-0.695
 20
-1.765
 30
-3.36
 70
    64
  0
VERTEX
  5
3E1D5
  8
0
 10
-0.695
 20
-2.045
 30
-3.36
 70
    64
  0
SEQEND
  5
3E1D6
  8
0
  0
CIRCLE
  5
3E1D8
  8
0
 10
-0.505
 20
-1.905
 30
-3.36
 40
0.09
  0
CIRCLE
  5
3E1D9
  8
0
 10
-0.505
 20
-1.905
 30
-3.51
 40
0.09
  0
LINE
  5
3E1DA
  8
DIMS-MTG-HOLES
  6
CONTINUOUS
 10
-0.595
 20
-1.905
 30
-3.51
 11
-0.415
 21
-1.905
 31
-3.51
  0
LINE
  5
3E1DB
  8
DIMS-MTG-HOLES
  6
CONTINUOUS
 10
-0.505
 20
-1.995
 30
-3.51
 11
-0.505
 21
-1.815
 31
-3.51
  0
POLYLINE
  5
3E1DC
  8
0
 66
     1
 10
0.0
 20
0.0
 30
0.0
 70
    16
 71
     6
 72
     3
  0
VERTEX
  5
3E1DD
  8
0
 10
0.695
 20
1.765
 30
-3.36
 70
    64
  0
VERTEX
  5
3E1DE
  8
0
 10
0.695
 20
1.765
 30
-3.51
 70
    64
  0
VERTEX
  5
3E1DF
  8
0
 10
0.695
 20
1.765
 30
-3.51
 70
    64
  0
VERTEX
  5
3E1E0
  8
0
 10
0.315
 20
1.765
 30
-3.36
 70
    64
  0
VERTEX
  5
3E1E1
  8
0
 10
0.315
 20
1.765
 30
-3.51
 70
    64
  0
VERTEX
  5
3E1E2
  8
0
 10
0.315
 20
1.765
 30
-3.51
 70
    64
  0
VERTEX
  5
3E1E3
  8
0
 10
0.315
 20
2.045
 30
-3.36
 70
    64
  0
VERTEX
  5
3E1E4
  8
0
 10
0.315
 20
2.045
 30
-3.51
 70
    64
  0
VERTEX
  5
3E1E5
  8
0
 10
0.315
 20
1.765
 30
-3.51
 70
    64
  0
VERTEX
  5
3E1E6
  8
0
 10
0.695
 20
2.045
 30
-3.36
 70
    64
  0
VERTEX
  5
3E1E7
  8
0
 10
0.695
 20
2.045
 30
-3.51
 70
    64
  0
VERTEX
  5
3E1E8
  8
0
 10
0.695
 20
1.765
 30
-3.51
 70
    64
  0
VERTEX
  5
3E1E9
  8
0
 10
0.695
 20
2.045
 30
-3.36
 70
    64
  0
VERTEX
  5
3E1EA
  8
0
 10
0.695
 20
2.045
 30
-3.36
 70
    64
  0
VERTEX
  5
3E1EB
  8
0
 10
0.695
 20
1.765
 30
-3.36
 70
    64
  0
VERTEX
  5
3E1EC
  8
0
 10
0.315
 20
2.045
 30
-3.36
 70
    64
  0
VERTEX
  5
3E1ED
  8
0
 10
0.315
 20
2.045
 30
-3.36
 70
    64
  0
VERTEX
  5
3E1EE
  8
0
 10
0.315
 20
1.765
 30
-3.36
 70
    64
  0
SEQEND
  5
3E1EF
  8
0
  0
LINE
  5
3E1F0
  8
DIMS-MTG-HOLES
  6
CONTINUOUS
 10
0.415
 20
1.905
 30
-3.51
 11
0.595
 21
1.905
 31
-3.51
  0
CIRCLE
  5
3E1F1
  8
0
 10
0.505
 20
1.905
 30
-3.51
 40
0.09
  0
LINE
  5
3E1F2
  8
DIMS-MTG-HOLES
  6
CONTINUOUS
 10
0.505
 20
1.815
 30
-3.51
 11
0.505
 21
1.995
 31
-3.51
  0
POLYLINE
  5
3E1F8
  8
0
 66
     1
 10
0.0
 20
0.0
 30
0.0
 70
    16
 71
     6
 72
     3
  0
VERTEX
  5
3E1F9
  8
0
 10
-0.255
 20
1.765
 30
-3.24
 70
    64
  0
VERTEX
  5
3E1FA
  8
0
 10
-0.255
 20
1.765
 30
-3.51
 70
    64
  0
VERTEX
  5
3E1FB
  8
0
 10
-0.255
 20
1.765
 30
-3.51
 70
    64
  0
VERTEX
  5
3E1FC
  8
0
 10
-0.635
 20
1.765
 30
-3.24
 70
    64
  0
VERTEX
  5
3E1FD
  8
0
 10
-0.635
 20
1.765
 30
-3.51
 70
    64
  0
VERTEX
  5
3E1FE
  8
0
 10
-0.635
 20
1.765
 30
-3.51
 70
    64
  0
VERTEX
  5
3E1FF
  8
0
 10
-0.635
 20
1.965
 30
-3.24
 70
    64
  0
VERTEX
  5
3E200
  8
0
 10
-0.635
 20
1.965
 30
-3.51
 70
    64
  0
VERTEX
  5
3E201
  8
0
 10
-0.635
 20
1.765
 30
-3.51
 70
    64
  0
VERTEX
  5
3E202
  8
0
 10
-0.255
 20
1.965
 30
-3.24
 70
    64
  0
VERTEX
  5
3E203
  8
0
 10
-0.255
 20
1.965
 30
-3.51
 70
    64
  0
VERTEX
  5
3E204
  8
0
 10
-0.255
 20
1.765
 30
-3.51
 70
    64
  0
VERTEX
  5
3E205
  8
0
 10
-0.255
 20
1.965
 30
-3.24
 70
    64
  0
VERTEX
  5
3E206
  8
0
 10
-0.255
 20
1.965
 30
-3.24
 70
    64
  0
VERTEX
  5
3E207
  8
0
 10
-0.255
 20
1.765
 30
-3.24
 70
    64
  0
VERTEX
  5
3E208
  8
0
 10
-0.635
 20
1.965
 30
-3.24
 70
    64
  0
VERTEX
  5
3E209
  8
0
 10
-0.635
 20
1.965
 30
-3.24
 70
    64
  0
VERTEX
  5
3E20A
  8
0
 10
-0.635
 20
1.765
 30
-3.24
 70
    64
  0
SEQEND
  5
3E20B
  8
0
  0
3DFACE
  5
3E277
  8
0
 10
-1.415
 20
0.125
 30
-1.0
 11
-1.415
 21
-0.125
 31
-1.0
 12
-1.415
 22
-0.125
 32
-1.6
 13
-1.415
 23
0.125
 33
-1.6
  0
3DFACE
  5
3E27D
  8
0
 10
-1.415
 20
0.125
 30
-1.48
 11
-1.415
 21
-0.125
 31
-1.48
 12
-1.415
 22
-0.125
 32
-1.31
 13
-1.415
 23
0.125
 33
-1.31
  0
POLYLINE
  5
3E4E0
  8
0
 66
     1
 10
0.0
 20
0.0
 30
0.0
 70
     1
  0
VERTEX
  5
3E91F
  8
0
 10
0.176068
 20
-0.105
 30
0.0
  0
VERTEX
  5
3E920
  8
0
 10
0.27
 20
-0.105
 30
0.0
 42
0.414214
  0
VERTEX
  5
3E921
  8
0
 10
0.32
 20
-0.055
 30
0.0
  0
VERTEX
  5
3E922
  8
0
 10
0.32
 20
0.055
 30
0.0
 42
0.414214
  0
VERTEX
  5
3E923
  8
0
 10
0.27
 20
0.105
 30
0.0
  0
VERTEX
  5
3E924
  8
0
 10
0.176068
 20
0.105
 30
0.0
 42
0.443094
  0
VERTEX
  5
3E925
  8
0
 10
-0.121655
 20
0.165
 30
0.0
  0
VERTEX
  5
3E926
  8
0
 10
-0.27
 20
0.165
 30
0.0
 42
0.414214
  0
VERTEX
  5
3E927
  8
0
 10
-0.32
 20
0.115
 30
0.0
  0
VERTEX
  5
3E928
  8
0
 10
-0.32
 20
-0.115
 30
0.0
 42
0.414214
  0
VERTEX
  5
3E929
  8
0
 10
-0.27
 20
-0.165
 30
0.0
  0
VERTEX
  5
3E92A
  8
0
 10
-0.121655
 20
-0.165
 30
0.0
 42
0.443094
  0
SEQEND
  5
3E92B
  8
0
  0
CIRCLE
  5
3E503
  8
0
 10
0.505
 20
1.905
 30
-3.36
 40
0.09
  0
POLYLINE
  5
3E5F5
  8
0
 66
     1
 10
0.0
 20
0.0
 30
0.0
 70
    16
 71
     6
 72
     3
  0
VERTEX
  5
3E5F6
  8
0
 10
1.415
 20
-1.765
 30
-3.31
 70
    64
  0
VERTEX
  5
3E5F7
  8
0
 10
1.415
 20
-1.765
 30
-3.51
 70
    64
  0
VERTEX
  5
3E5F8
  8
0
 10
1.415
 20
-1.765
 30
-3.51
 70
    64
  0
VERTEX
  5
3E5F9
  8
0
 10
-1.415
 20
-1.765
 30
-3.31
 70
    64
  0
VERTEX
  5
3E5FA
  8
0
 10
-1.415
 20
-1.765
 30
-3.51
 70
    64
  0
VERTEX
  5
3E5FB
  8
0
 10
-1.415
 20
-1.765
 30
-3.51
 70
    64
  0
VERTEX
  5
3E5FC
  8
0
 10
-1.415
 20
-0.625
 30
-3.31
 70
    64
  0
VERTEX
  5
3E5FD
  8
0
 10
-1.415
 20
-0.625
 30
-3.51
 70
    64
  0
VERTEX
  5
3E5FE
  8
0
 10
-1.415
 20
-1.765
 30
-3.51
 70
    64
  0
VERTEX
  5
3E5FF
  8
0
 10
1.415
 20
-0.625
 30
-3.31
 70
    64
  0
VERTEX
  5
3E600
  8
0
 10
1.415
 20
-0.625
 30
-3.51
 70
    64
  0
VERTEX
  5
3E601
  8
0
 10
1.415
 20
-1.765
 30
-3.51
 70
    64
  0
VERTEX
  5
3E602
  8
0
 10
1.415
 20
-0.625
 30
-3.31
 70
    64
  0
VERTEX
  5
3E603
  8
0
 10
1.415
 20
-0.625
 30
-3.31
 70
    64
  0
VERTEX
  5
3E604
  8
0
 10
1.415
 20
-1.765
 30
-3.31
 70
    64
  0
VERTEX
  5
3E605
  8
0
 10
-1.415
 20
-0.625
 30
-3.31
 70
    64
  0
VERTEX
  5
3E606
  8
0
 10
-1.415
 20
-0.625
 30
-3.31
 70
    64
  0
VERTEX
  5
3E607
  8
0
 10
-1.415
 20
-1.765
 30
-3.31
 70
    64
  0
SEQEND
  5
3E608
  8
0
  0
POLYLINE
  5
3E609
  8
0
 66
     1
 10
0.0
 20
0.0
 30
0.0
 70
    16
 71
     6
 72
     3
  0
VERTEX
  5
3E60A
  8
0
 10
1.415
 20
-1.765
 30
-0.67
 70
    64
  0
VERTEX
  5
3E60B
  8
0
 10
1.415
 20
-1.765
 30
-3.31
 70
    64
  0
VERTEX
  5
3E60C
  8
0
 10
1.415
 20
-1.765
 30
-3.31
 70
    64
  0
VERTEX
  5
3E60D
  8
0
 10
-1.415
 20
-1.765
 30
-0.67
 70
    64
  0
VERTEX
  5
3E60E
  8
0
 10
-1.415
 20
-1.765
 30
-3.31
 70
    64
  0
VERTEX
  5
3E60F
  8
0
 10
-1.415
 20
-1.765
 30
-3.31
 70
    64
  0
VERTEX
  5
3E610
  8
0
 10
-1.415
 20
1.765
 30
-0.67
 70
    64
  0
VERTEX
  5
3E611
  8
0
 10
-1.415
 20
1.765
 30
-3.31
 70
    64
  0
VERTEX
  5
3E612
  8
0
 10
-1.415
 20
-1.765
 30
-3.31
 70
    64
  0
VERTEX
  5
3E613
  8
0
 10
1.415
 20
1.765
 30
-0.67
 70
    64
  0
VERTEX
  5
3E614
  8
0
 10
1.415
 20
1.765
 30
-3.31
 70
    64
  0
VERTEX
  5
3E615
  8
0
 10
1.415
 20
-1.765
 30
-3.31
 70
    64
  0
VERTEX
  5
3E616
  8
0
 10
1.415
 20
1.765
 30
-0.67
 70
    64
  0
VERTEX
  5
3E617
  8
0
 10
1.415
 20
1.765
 30
-0.67
 70
    64
  0
VERTEX
  5
3E618
  8
0
 10
1.415
 20
-1.765
 30
-0.67
 70
    64
  0
VERTEX
  5
3E619
  8
0
 10
-1.415
 20
1.765
 30
-0.67
 70
    64
  0
VERTEX
  5
3E61A
  8
0
 10
-1.415
 20
1.765
 30
-0.67
 70
    64
  0
VERTEX
  5
3E61B
  8
0
 10
-1.415
 20
-1.765
 30
-0.67
 70
    64
  0
SEQEND
  5
3E61C
  8
0
  0
POLYLINE
  5
3E61D
  8
0
 66
     1
 10
0.0
 20
0.0
 30
0.0
 70
    16
 71
     6
 72
     3
  0
VERTEX
  5
3E61E
  8
0
 10
1.415
 20
0.695
 30
-3.31
 70
    64
  0
VERTEX
  5
3E61F
  8
0
 10
1.415
 20
0.695
 30
-3.51
 70
    64
  0
VERTEX
  5
3E620
  8
0
 10
1.415
 20
0.695
 30
-3.51
 70
    64
  0
VERTEX
  5
3E621
  8
0
 10
-1.415
 20
0.695
 30
-3.31
 70
    64
  0
VERTEX
  5
3E622
  8
0
 10
-1.415
 20
0.695
 30
-3.51
 70
    64
  0
VERTEX
  5
3E623
  8
0
 10
-1.415
 20
0.695
 30
-3.51
 70
    64
  0
VERTEX
  5
3E624
  8
0
 10
-1.415
 20
1.765
 30
-3.31
 70
    64
  0
VERTEX
  5
3E625
  8
0
 10
-1.415
 20
1.765
 30
-3.51
 70
    64
  0
VERTEX
  5
3E626
  8
0
 10
-1.415
 20
0.695
 30
-3.51
 70
    64
  0
VERTEX
  5
3E627
  8
0
 10
1.415
 20
1.765
 30
-3.31
 70
    64
  0
VERTEX
  5
3E628
  8
0
 10
1.415
 20
1.765
 30
-3.51
 70
    64
  0
VERTEX
  5
3E629
  8
0
 10
1.415
 20
0.695
 30
-3.51
 70
    64
  0
VERTEX
  5
3E62A
  8
0
 10
1.415
 20
1.765
 30
-3.31
 70
    64
  0
VERTEX
  5
3E62B
  8
0
 10
1.415
 20
1.765
 30
-3.31
 70
    64
  0
VERTEX
  5
3E62C
  8
0
 10
1.415
 20
0.695
 30
-3.31
 70
    64
  0
VERTEX
  5
3E62D
  8
0
 10
-1.415
 20
1.765
 30
-3.31
 70
    64
  0
VERTEX
  5
3E62E
  8
0
 10
-1.415
 20
1.765
 30
-3.31
 70
    64
  0
VERTEX
  5
3E62F
  8
0
 10
-1.415
 20
0.695
 30
-3.31
 70
    64
  0
SEQEND
  5
3E630
  8
0
  0
POLYLINE
  5
3E631
  8
0
 66
     1
 10
0.0
 20
0.0
 30
0.0
 70
    16
 71
     6
 72
     3
  0
VERTEX
  5
3E632
  8
0
 10
1.415
 20
-0.64
 30
0.0
 70
    64
  0
VERTEX
  5
3E633
  8
0
 10
1.415
 20
-0.64
 30
-0.67
 70
    64
  0
VERTEX
  5
3E634
  8
0
 10
1.415
 20
-0.64
 30
-0.67
 70
    64
  0
VERTEX
  5
3E635
  8
0
 10
-1.415
 20
-0.64
 30
0.0
 70
    64
  0
VERTEX
  5
3E636
  8
0
 10
-1.415
 20
-0.64
 30
-0.67
 70
    64
  0
VERTEX
  5
3E637
  8
0
 10
-1.415
 20
-0.64
 30
-0.67
 70
    64
  0
VERTEX
  5
3E638
  8
0
 10
-1.415
 20
0.64
 30
0.0
 70
    64
  0
VERTEX
  5
3E639
  8
0
 10
-1.415
 20
0.64
 30
-0.67
 70
    64
  0
VERTEX
  5
3E63A
  8
0
 10
-1.415
 20
-0.64
 30
-0.67
 70
    64
  0
VERTEX
  5
3E63B
  8
0
 10
1.415
 20
0.64
 30
0.0
 70
    64
  0
VERTEX
  5
3E63C
  8
0
 10
1.415
 20
0.64
 30
-0.67
 70
    64
  0
VERTEX
  5
3E63D
  8
0
 10
1.415
 20
-0.64
 30
-0.67
 70
    64
  0
VERTEX
  5
3E63E
  8
0
 10
1.415
 20
0.64
 30
0.0
 70
    64
  0
VERTEX
  5
3E63F
  8
0
 10
1.415
 20
0.64
 30
0.0
 70
    64
  0
VERTEX
  5
3E640
  8
0
 10
1.415
 20
-0.64
 30
0.0
 70
    64
  0
VERTEX
  5
3E641
  8
0
 10
-1.415
 20
0.64
 30
0.0
 70
    64
  0
VERTEX
  5
3E642
  8
0
 10
-1.415
 20
0.64
 30
0.0
 70
    64
  0
VERTEX
  5
3E643
  8
0
 10
-1.415
 20
-0.64
 30
0.0
 70
    64
  0
SEQEND
  5
3E644
  8
0
  0
POLYLINE
  5
3E681
  8
0
 66
     1
 10
0.0
 20
0.0
 30
0.0
 70
    16
 71
     6
 72
     3
  0
VERTEX
  5
3E682
  8
0
 10
-0.915
 20
-1.095
 30
0.0
 70
    64
  0
VERTEX
  5
3E683
  8
0
 10
-0.915
 20
-1.095
 30
-0.67
 70
    64
  0
VERTEX
  5
3E684
  8
0
 10
-0.915
 20
-1.095
 30
-0.67
 70
    64
  0
VERTEX
  5
3E685
  8
0
 10
-1.415
 20
-1.095
 30
0.0
 70
    64
  0
VERTEX
  5
3E686
  8
0
 10
-1.415
 20
-1.095
 30
-0.67
 70
    64
  0
VERTEX
  5
3E687
  8
0
 10
-1.415
 20
-1.095
 30
-0.67
 70
    64
  0
VERTEX
  5
3E688
  8
0
 10
-1.415
 20
-0.64
 30
0.0
 70
    64
  0
VERTEX
  5
3E689
  8
0
 10
-1.415
 20
-0.64
 30
-0.67
 70
    64
  0
VERTEX
  5
3E68A
  8
0
 10
-1.415
 20
-1.095
 30
-0.67
 70
    64
  0
VERTEX
  5
3E68B
  8
0
 10
-0.915
 20
-0.64
 30
0.0
 70
    64
  0
VERTEX
  5
3E68C
  8
0
 10
-0.915
 20
-0.64
 30
-0.67
 70
    64
  0
VERTEX
  5
3E68D
  8
0
 10
-0.915
 20
-1.095
 30
-0.67
 70
    64
  0
VERTEX
  5
3E68E
  8
0
 10
-0.915
 20
-0.64
 30
0.0
 70
    64
  0
VERTEX
  5
3E68F
  8
0
 10
-0.915
 20
-0.64
 30
0.0
 70
    64
  0
VERTEX
  5
3E690
  8
0
 10
-0.915
 20
-1.095
 30
0.0
 70
    64
  0
VERTEX
  5
3E691
  8
0
 10
-1.415
 20
-0.64
 30
0.0
 70
    64
  0
VERTEX
  5
3E692
  8
0
 10
-1.415
 20
-0.64
 30
0.0
 70
    64
  0
VERTEX
  5
3E693
  8
0
 10
-1.415
 20
-1.095
 30
0.0
 70
    64
  0
SEQEND
  5
3E694
  8
0
  0
POLYLINE
  5
3E695
  8
0
 66
     1
 10
0.0
 20
0.0
 30
0.0
 70
    16
 71
     6
 72
     3
  0
VERTEX
  5
3E696
  8
0
 10
-0.575
 20
-0.64
 30
-0.67
 70
    64
  0
VERTEX
  5
3E697
  8
0
 10
-0.575
 20
-0.64
 30
-0.67
 70
    64
  0
VERTEX
  5
3E698
  8
0
 10
-0.575
 20
-0.64
 30
-0.67
 70
    64
  0
VERTEX
  5
3E699
  8
0
 10
-0.915
 20
-1.095
 30
-0.67
 70
    64
  0
VERTEX
  5
3E69A
  8
0
 10
-0.915
 20
-0.64
 30
-0.67
 70
    64
  0
VERTEX
  5
3E69B
  8
0
 10
-0.915
 20
-0.64
 30
-0.67
 70
    64
  0
VERTEX
  5
3E69C
  8
0
 10
-0.915
 20
-1.095
 30
0.0
 70
    64
  0
VERTEX
  5
3E69D
  8
0
 10
-0.915
 20
-0.64
 30
0.0
 70
    64
  0
VERTEX
  5
3E69E
  8
0
 10
-0.915
 20
-0.64
 30
-0.67
 70
    64
  0
VERTEX
  5
3E69F
  8
0
 10
-0.575
 20
-0.64
 30
0.0
 70
    64
  0
VERTEX
  5
3E6A0
  8
0
 10
-0.575
 20
-0.64
 30
0.0
 70
    64
  0
VERTEX
  5
3E6A1
  8
0
 10
-0.575
 20
-0.64
 30
-0.67
 70
    64
  0
VERTEX
  5
3E6A2
  8
0
 10
-0.575
 20
-0.64
 30
0.0
 70
    64
  0
VERTEX
  5
3E6A3
  8
0
 10
-0.575
 20
-0.64
 30
0.0
 70
    64
  0
VERTEX
  5
3E6A4
  8
0
 10
-0.575
 20
-0.64
 30
-0.67
 70
    64
  0
VERTEX
  5
3E6A5
  8
0
 10
-0.915
 20
-1.095
 30
0.0
 70
    64
  0
VERTEX
  5
3E6A6
  8
0
 10
-0.915
 20
-1.095
 30
0.0
 70
    64
  0
VERTEX
  5
3E6A7
  8
0
 10
-0.915
 20
-1.095
 30
-0.67
 70
    64
  0
SEQEND
  5
3E6A8
  8
0
  0
POLYLINE
  5
3E6A9
  8
0
 66
     1
 10
0.0
 20
0.0
 30
0.0
 70
    16
 71
     6
 72
     3
  0
VERTEX
  5
3E6AA
  8
0
 10
0.575
 20
-0.64
 30
-0.67
 70
    64
  0
VERTEX
  5
3E6AB
  8
0
 10
0.575
 20
-0.64
 30
-0.67
 70
    64
  0
VERTEX
  5
3E6AC
  8
0
 10
0.575
 20
-0.64
 30
-0.67
 70
    64
  0
VERTEX
  5
3E6AD
  8
0
 10
0.915
 20
-1.095
 30
-0.67
 70
    64
  0
VERTEX
  5
3E6AE
  8
0
 10
0.915
 20
-0.64
 30
-0.67
 70
    64
  0
VERTEX
  5
3E6AF
  8
0
 10
0.915
 20
-0.64
 30
-0.67
 70
    64
  0
VERTEX
  5
3E6B0
  8
0
 10
0.915
 20
-1.095
 30
0.0
 70
    64
  0
VERTEX
  5
3E6B1
  8
0
 10
0.915
 20
-0.64
 30
0.0
 70
    64
  0
VERTEX
  5
3E6B2
  8
0
 10
0.915
 20
-0.64
 30
-0.67
 70
    64
  0
VERTEX
  5
3E6B3
  8
0
 10
0.575
 20
-0.64
 30
0.0
 70
    64
  0
VERTEX
  5
3E6B4
  8
0
 10
0.575
 20
-0.64
 30
0.0
 70
    64
  0
VERTEX
  5
3E6B5
  8
0
 10
0.575
 20
-0.64
 30
-0.67
 70
    64
  0
VERTEX
  5
3E6B6
  8
0
 10
0.575
 20
-0.64
 30
0.0
 70
    64
  0
VERTEX
  5
3E6B7
  8
0
 10
0.575
 20
-0.64
 30
0.0
 70
    64
  0
VERTEX
  5
3E6B8
  8
0
 10
0.575
 20
-0.64
 30
-0.67
 70
    64
  0
VERTEX
  5
3E6B9
  8
0
 10
0.915
 20
-1.095
 30
0.0
 70
    64
  0
VERTEX
  5
3E6BA
  8
0
 10
0.915
 20
-1.095
 30
0.0
 70
    64
  0
VERTEX
  5
3E6BB
  8
0
 10
0.915
 20
-1.095
 30
-0.67
 70
    64
  0
SEQEND
  5
3E6BC
  8
0
  0
POLYLINE
  5
3E6BD
  8
0
 66
     1
 10
0.0
 20
0.0
 30
0.0
 70
    16
 71
     6
 72
     3
  0
VERTEX
  5
3E6BE
  8
0
 10
0.915
 20
-1.095
 30
0.0
 70
    64
  0
VERTEX
  5
3E6BF
  8
0
 10
0.915
 20
-1.095
 30
-0.67
 70
    64
  0
VERTEX
  5
3E6C0
  8
0
 10
0.915
 20
-1.095
 30
-0.67
 70
    64
  0
VERTEX
  5
3E6C1
  8
0
 10
1.415
 20
-1.095
 30
0.0
 70
    64
  0
VERTEX
  5
3E6C2
  8
0
 10
1.415
 20
-1.095
 30
-0.67
 70
    64
  0
VERTEX
  5
3E6C3
  8
0
 10
1.415
 20
-1.095
 30
-0.67
 70
    64
  0
VERTEX
  5
3E6C4
  8
0
 10
1.415
 20
-0.64
 30
0.0
 70
    64
  0
VERTEX
  5
3E6C5
  8
0
 10
1.415
 20
-0.64
 30
-0.67
 70
    64
  0
VERTEX
  5
3E6C6
  8
0
 10
1.415
 20
-1.095
 30
-0.67
 70
    64
  0
VERTEX
  5
3E6C7
  8
0
 10
0.915
 20
-0.64
 30
0.0
 70
    64
  0
VERTEX
  5
3E6C8
  8
0
 10
0.915
 20
-0.64
 30
-0.67
 70
    64
  0
VERTEX
  5
3E6C9
  8
0
 10
0.915
 20
-1.095
 30
-0.67
 70
    64
  0
VERTEX
  5
3E6CA
  8
0
 10
0.915
 20
-0.64
 30
0.0
 70
    64
  0
VERTEX
  5
3E6CB
  8
0
 10
0.915
 20
-0.64
 30
0.0
 70
    64
  0
VERTEX
  5
3E6CC
  8
0
 10
0.915
 20
-1.095
 30
0.0
 70
    64
  0
VERTEX
  5
3E6CD
  8
0
 10
1.415
 20
-0.64
 30
0.0
 70
    64
  0
VERTEX
  5
3E6CE
  8
0
 10
1.415
 20
-0.64
 30
0.0
 70
    64
  0
VERTEX
  5
3E6CF
  8
0
 10
1.415
 20
-1.095
 30
0.0
 70
    64
  0
SEQEND
  5
3E6D0
  8
0
  0
3DFACE
  5
3E761
  8
0
 10
1.415
 20
0.125
 30
-1.0
 11
1.415
 21
-0.125
 31
-1.0
 12
1.415
 22
-0.125
 32
-1.6
 13
1.415
 23
0.125
 33
-1.6
  0
3DFACE
  5
3E763
  8
0
 10
1.415
 20
0.125
 30
-1.48
 11
1.415
 21
-0.125
 31
-1.48
 12
1.415
 22
-0.125
 32
-1.31
 13
1.415
 23
0.125
 33
-1.31
  0
CIRCLE
  5
3E76C
  8
0
 10
-0.96
 20
-1.26
 30
-3.51
 40
0.125
  0
POLYLINE
  5
3E775
  8
0
 66
     1
 10
0.0
 20
0.0
 30
0.0
 70
    16
 71
     6
 72
     3
  0
VERTEX
  5
3E776
  8
0
 10
0.575
 20
0.64
 30
-0.67
 70
    64
  0
VERTEX
  5
3E777
  8
0
 10
0.575
 20
0.64
 30
-0.67
 70
    64
  0
VERTEX
  5
3E778
  8
0
 10
0.575
 20
0.64
 30
-0.67
 70
    64
  0
VERTEX
  5
3E779
  8
0
 10
0.915
 20
1.095
 30
-0.67
 70
    64
  0
VERTEX
  5
3E77A
  8
0
 10
0.915
 20
0.64
 30
-0.67
 70
    64
  0
VERTEX
  5
3E77B
  8
0
 10
0.915
 20
0.64
 30
-0.67
 70
    64
  0
VERTEX
  5
3E77C
  8
0
 10
0.915
 20
1.095
 30
0.0
 70
    64
  0
VERTEX
  5
3E77D
  8
0
 10
0.915
 20
0.64
 30
0.0
 70
    64
  0
VERTEX
  5
3E77E
  8
0
 10
0.915
 20
0.64
 30
-0.67
 70
    64
  0
VERTEX
  5
3E77F
  8
0
 10
0.575
 20
0.64
 30
0.0
 70
    64
  0
VERTEX
  5
3E780
  8
0
 10
0.575
 20
0.64
 30
0.0
 70
    64
  0
VERTEX
  5
3E781
  8
0
 10
0.575
 20
0.64
 30
-0.67
 70
    64
  0
VERTEX
  5
3E782
  8
0
 10
0.575
 20
0.64
 30
0.0
 70
    64
  0
VERTEX
  5
3E783
  8
0
 10
0.575
 20
0.64
 30
0.0
 70
    64
  0
VERTEX
  5
3E784
  8
0
 10
0.575
 20
0.64
 30
-0.67
 70
    64
  0
VERTEX
  5
3E785
  8
0
 10
0.915
 20
1.095
 30
0.0
 70
    64
  0
VERTEX
  5
3E786
  8
0
 10
0.915
 20
1.095
 30
0.0
 70
    64
  0
VERTEX
  5
3E787
  8
0
 10
0.915
 20
1.095
 30
-0.67
 70
    64
  0
SEQEND
  5
3E788
  8
0
  0
POLYLINE
  5
3E789
  8
0
 66
     1
 10
0.0
 20
0.0
 30
0.0
 70
    16
 71
     6
 72
     3
  0
VERTEX
  5
3E78A
  8
0
 10
0.915
 20
1.095
 30
0.0
 70
    64
  0
VERTEX
  5
3E78B
  8
0
 10
0.915
 20
1.095
 30
-0.67
 70
    64
  0
VERTEX
  5
3E78C
  8
0
 10
0.915
 20
1.095
 30
-0.67
 70
    64
  0
VERTEX
  5
3E78D
  8
0
 10
1.415
 20
1.095
 30
0.0
 70
    64
  0
VERTEX
  5
3E78E
  8
0
 10
1.415
 20
1.095
 30
-0.67
 70
    64
  0
VERTEX
  5
3E78F
  8
0
 10
1.415
 20
1.095
 30
-0.67
 70
    64
  0
VERTEX
  5
3E790
  8
0
 10
1.415
 20
0.64
 30
0.0
 70
    64
  0
VERTEX
  5
3E791
  8
0
 10
1.415
 20
0.64
 30
-0.67
 70
    64
  0
VERTEX
  5
3E792
  8
0
 10
1.415
 20
1.095
 30
-0.67
 70
    64
  0
VERTEX
  5
3E793
  8
0
 10
0.915
 20
0.64
 30
0.0
 70
    64
  0
VERTEX
  5
3E794
  8
0
 10
0.915
 20
0.64
 30
-0.67
 70
    64
  0
VERTEX
  5
3E795
  8
0
 10
0.915
 20
1.095
 30
-0.67
 70
    64
  0
VERTEX
  5
3E796
  8
0
 10
0.915
 20
0.64
 30
0.0
 70
    64
  0
VERTEX
  5
3E797
  8
0
 10
0.915
 20
0.64
 30
0.0
 70
    64
  0
VERTEX
  5
3E798
  8
0
 10
0.915
 20
1.095
 30
0.0
 70
    64
  0
VERTEX
  5
3E799
  8
0
 10
1.415
 20
0.64
 30
0.0
 70
    64
  0
VERTEX
  5
3E79A
  8
0
 10
1.415
 20
0.64
 30
0.0
 70
    64
  0
VERTEX
  5
3E79B
  8
0
 10
1.415
 20
1.095
 30
0.0
 70
    64
  0
SEQEND
  5
3E79C
  8
0
  0
POLYLINE
  5
3E79D
  8
0
 66
     1
 10
0.0
 20
0.0
 30
0.0
 70
    16
 71
     6
 72
     3
  0
VERTEX
  5
3E79E
  8
0
 10
-0.575
 20
0.64
 30
-0.67
 70
    64
  0
VERTEX
  5
3E79F
  8
0
 10
-0.575
 20
0.64
 30
-0.67
 70
    64
  0
VERTEX
  5
3E7A0
  8
0
 10
-0.575
 20
0.64
 30
-0.67
 70
    64
  0
VERTEX
  5
3E7A1
  8
0
 10
-0.915
 20
1.095
 30
-0.67
 70
    64
  0
VERTEX
  5
3E7A2
  8
0
 10
-0.915
 20
0.64
 30
-0.67
 70
    64
  0
VERTEX
  5
3E7A3
  8
0
 10
-0.915
 20
0.64
 30
-0.67
 70
    64
  0
VERTEX
  5
3E7A4
  8
0
 10
-0.915
 20
1.095
 30
0.0
 70
    64
  0
VERTEX
  5
3E7A5
  8
0
 10
-0.915
 20
0.64
 30
0.0
 70
    64
  0
VERTEX
  5
3E7A6
  8
0
 10
-0.915
 20
0.64
 30
-0.67
 70
    64
  0
VERTEX
  5
3E7A7
  8
0
 10
-0.575
 20
0.64
 30
0.0
 70
    64
  0
VERTEX
  5
3E7A8
  8
0
 10
-0.575
 20
0.64
 30
0.0
 70
    64
  0
VERTEX
  5
3E7A9
  8
0
 10
-0.575
 20
0.64
 30
-0.67
 70
    64
  0
VERTEX
  5
3E7AA
  8
0
 10
-0.575
 20
0.64
 30
0.0
 70
    64
  0
VERTEX
  5
3E7AB
  8
0
 10
-0.575
 20
0.64
 30
0.0
 70
    64
  0
VERTEX
  5
3E7AC
  8
0
 10
-0.575
 20
0.64
 30
-0.67
 70
    64
  0
VERTEX
  5
3E7AD
  8
0
 10
-0.915
 20
1.095
 30
0.0
 70
    64
  0
VERTEX
  5
3E7AE
  8
0
 10
-0.915
 20
1.095
 30
0.0
 70
    64
  0
VERTEX
  5
3E7AF
  8
0
 10
-0.915
 20
1.095
 30
-0.67
 70
    64
  0
SEQEND
  5
3E7B0
  8
0
  0
POLYLINE
  5
3E7B1
  8
0
 66
     1
 10
0.0
 20
0.0
 30
0.0
 70
    16
 71
     6
 72
     3
  0
VERTEX
  5
3E7B2
  8
0
 10
-0.915
 20
1.095
 30
0.0
 70
    64
  0
VERTEX
  5
3E7B3
  8
0
 10
-0.915
 20
1.095
 30
-0.67
 70
    64
  0
VERTEX
  5
3E7B4
  8
0
 10
-0.915
 20
1.095
 30
-0.67
 70
    64
  0
VERTEX
  5
3E7B5
  8
0
 10
-1.415
 20
1.095
 30
0.0
 70
    64
  0
VERTEX
  5
3E7B6
  8
0
 10
-1.415
 20
1.095
 30
-0.67
 70
    64
  0
VERTEX
  5
3E7B7
  8
0
 10
-1.415
 20
1.095
 30
-0.67
 70
    64
  0
VERTEX
  5
3E7B8
  8
0
 10
-1.415
 20
0.64
 30
0.0
 70
    64
  0
VERTEX
  5
3E7B9
  8
0
 10
-1.415
 20
0.64
 30
-0.67
 70
    64
  0
VERTEX
  5
3E7BA
  8
0
 10
-1.415
 20
1.095
 30
-0.67
 70
    64
  0
VERTEX
  5
3E7BB
  8
0
 10
-0.915
 20
0.64
 30
0.0
 70
    64
  0
VERTEX
  5
3E7BC
  8
0
 10
-0.915
 20
0.64
 30
-0.67
 70
    64
  0
VERTEX
  5
3E7BD
  8
0
 10
-0.915
 20
1.095
 30
-0.67
 70
    64
  0
VERTEX
  5
3E7BE
  8
0
 10
-0.915
 20
0.64
 30
0.0
 70
    64
  0
VERTEX
  5
3E7BF
  8
0
 10
-0.915
 20
0.64
 30
0.0
 70
    64
  0
VERTEX
  5
3E7C0
  8
0
 10
-0.915
 20
1.095
 30
0.0
 70
    64
  0
VERTEX
  5
3E7C1
  8
0
 10
-1.415
 20
0.64
 30
0.0
 70
    64
  0
VERTEX
  5
3E7C2
  8
0
 10
-1.415
 20
0.64
 30
0.0
 70
    64
  0
VERTEX
  5
3E7C3
  8
0
 10
-1.415
 20
1.095
 30
0.0
 70
    64
  0
SEQEND
  5
3E7C4
  8
0
  0
POLYLINE
  5
3E7D1
  8
0
 66
     1
 10
0.0
 20
0.0
 30
-3.51
 70
     1
  0
VERTEX
  5
3E92C
  8
0
 10
-1.068253
 20
-1.3225
 30
-3.51
  0
VERTEX
  5
3E92D
  8
0
 10
-1.068253
 20
-1.1975
 30
-3.51
  0
VERTEX
  5
3E92E
  8
0
 10
-0.96
 20
-1.135
 30
-3.51
  0
VERTEX
  5
3E92F
  8
0
 10
-0.851747
 20
-1.1975
 30
-3.51
  0
VERTEX
  5
3E930
  8
0
 10
-0.851747
 20
-1.3225
 30
-3.51
  0
VERTEX
  5
3E931
  8
0
 10
-0.96
 20
-1.385
 30
-3.51
  0
SEQEND
  5
3E932
  8
0
  0
POLYLINE
  5
3E7D9
  8
0
 66
     1
 10
0.0
 20
0.0
 30
-3.51
 70
     1
  0
VERTEX
  5
3E933
  8
0
 10
1.068253
 20
-1.3225
 30
-3.51
  0
VERTEX
  5
3E934
  8
0
 10
1.068253
 20
-1.1975
 30
-3.51
  0
VERTEX
  5
3E935
  8
0
 10
0.96
 20
-1.135
 30
-3.51
  0
VERTEX
  5
3E936
  8
0
 10
0.851747
 20
-1.1975
 30
-3.51
  0
VERTEX
  5
3E937
  8
0
 10
0.851747
 20
-1.3225
 30
-3.51
  0
VERTEX
  5
3E938
  8
0
 10
0.96
 20
-1.385
 30
-3.51
  0
SEQEND
  5
3E939
  8
0
  0
CIRCLE
  5
3E7E1
  8
0
 10
0.96
 20
-1.26
 30
-3.51
 40
0.125
  0
POLYLINE
  5
3E7E3
  8
0
 66
     1
 10
0.0
 20
0.0
 30
-3.51
 70
     1
  0
VERTEX
  5
3E93A
  8
0
 10
-0.108253
 20
-1.3225
 30
-3.51
  0
VERTEX
  5
3E93B
  8
0
 10
-0.108253
 20
-1.1975
 30
-3.51
  0
VERTEX
  5
3E93C
  8
0
 10
0.0
 20
-1.135
 30
-3.51
  0
VERTEX
  5
3E93D
  8
0
 10
0.108253
 20
-1.1975
 30
-3.51
  0
VERTEX
  5
3E93E
  8
0
 10
0.108253
 20
-1.3225
 30
-3.51
  0
VERTEX
  5
3E93F
  8
0
 10
0.0
 20
-1.385
 30
-3.51
  0
SEQEND
  5
3E940
  8
0
  0
CIRCLE
  5
3E7EB
  8
0
 10
0.0
 20
-1.26
 30
-3.51
 40
0.125
  0
3DFACE
  5
3E7EC
  8
0
 10
-1.185
 20
-1.765
 30
-1.31
 11
-0.725
 21
-1.765
 31
-1.31
 12
-0.725
 22
-1.765
 32
-1.87
 13
-1.185
 23
-1.765
 33
-1.87
  0
3DFACE
  5
3E7ED
  8
0
 10
1.185
 20
-1.765
 30
-1.31
 11
0.725
 21
-1.765
 31
-1.31
 12
0.725
 22
-1.765
 32
-1.87
 13
1.185
 23
-1.765
 33
-1.87
  0
3DFACE
  5
3E7EE
  8
0
 10
-0.23
 20
-1.765
 30
-1.31
 11
0.23
 21
-1.765
 31
-1.31
 12
0.23
 22
-1.765
 32
-1.87
 13
-0.23
 23
-1.765
 33
-1.87
  0
POLYLINE
  5
3E7EF
  8
0
 66
     1
 10
0.0
 20
0.0
 30
-3.51
 70
     1
  0
VERTEX
  5
3E941
  8
0
 10
-1.068253
 20
1.3225
 30
-3.51
  0
VERTEX
  5
3E942
  8
0
 10
-1.068253
 20
1.1975
 30
-3.51
  0
VERTEX
  5
3E943
  8
0
 10
-0.96
 20
1.135
 30
-3.51
  0
VERTEX
  5
3E944
  8
0
 10
-0.851747
 20
1.1975
 30
-3.51
  0
VERTEX
  5
3E945
  8
0
 10
-0.851747
 20
1.3225
 30
-3.51
  0
VERTEX
  5
3E946
  8
0
 10
-0.96
 20
1.385
 30
-3.51
  0
SEQEND
  5
3E947
  8
0
  0
CIRCLE
  5
3E7F7
  8
0
 10
-0.96
 20
1.26
 30
-3.51
 40
0.125
  0
CIRCLE
  5
3E7F8
  8
0
 10
0.0
 20
1.26
 30
-3.51
 40
0.125
  0
POLYLINE
  5
3E7F9
  8
0
 66
     1
 10
0.0
 20
0.0
 30
-3.51
 70
     1
  0
VERTEX
  5
3E948
  8
0
 10
-0.108253
 20
1.3225
 30
-3.51
  0
VERTEX
  5
3E949
  8
0
 10
-0.108253
 20
1.1975
 30
-3.51
  0
VERTEX
  5
3E94A
  8
0
 10
0.0
 20
1.135
 30
-3.51
  0
VERTEX
  5
3E94B
  8
0
 10
0.108253
 20
1.1975
 30
-3.51
  0
VERTEX
  5
3E94C
  8
0
 10
0.108253
 20
1.3225
 30
-3.51
  0
VERTEX
  5
3E94D
  8
0
 10
0.0
 20
1.385
 30
-3.51
  0
SEQEND
  5
3E94E
  8
0
  0
CIRCLE
  5
3E801
  8
0
 10
0.96
 20
1.26
 30
-3.51
 40
0.125
  0
POLYLINE
  5
3E802
  8
0
 66
     1
 10
0.0
 20
0.0
 30
-3.51
 70
     1
  0
VERTEX
  5
3E94F
  8
0
 10
1.068253
 20
1.3225
 30
-3.51
  0
VERTEX
  5
3E950
  8
0
 10
1.068253
 20
1.1975
 30
-3.51
  0
VERTEX
  5
3E951
  8
0
 10
0.96
 20
1.135
 30
-3.51
  0
VERTEX
  5
3E952
  8
0
 10
0.851747
 20
1.1975
 30
-3.51
  0
VERTEX
  5
3E953
  8
0
 10
0.851747
 20
1.3225
 30
-3.51
  0
VERTEX
  5
3E954
  8
0
 10
0.96
 20
1.385
 30
-3.51
  0
SEQEND
  5
3E955
  8
0
  0
3DFACE
  5
3E80A
  8
0
 10
1.185
 20
1.765
 30
-1.31
 11
0.725
 21
1.765
 31
-1.31
 12
0.725
 22
1.765
 32
-1.87
 13
1.185
 23
1.765
 33
-1.87
  0
3DFACE
  5
3E80B
  8
0
 10
-0.23
 20
1.765
 30
-1.31
 11
0.23
 21
1.765
 31
-1.31
 12
0.23
 22
1.765
 32
-1.87
 13
-0.23
 23
1.765
 33
-1.87
  0
3DFACE
  5
3E80C
  8
0
 10
-1.185
 20
1.765
 30
-1.31
 11
-0.725
 21
1.765
 31
-1.31
 12
-0.725
 22
1.765
 32
-1.87
 13
-1.185
 23
1.765
 33
-1.87
  0
ENDSEC
  0
EOF
