  0
SECTION
  2
HEADER
  9
$ACADVER
  1
AC1009
  9
$INSBASE
 10
0.0
 20
0.0
 30
0.0
  9
$EXTMIN
 10
-0.000705
 20
-2.740717
 30
-0.000223
  9
$EXTMAX
 10
2.830186
 20
1.350029
 30
3.660223
  9
$LIMMIN
 10
0.0
 20
0.0
  9
$LIMMAX
 10
12.0
 20
9.0
  9
$ORTHOMODE
 70
     0
  9
$REGENMODE
 70
     1
  9
$FILLMODE
 70
     1
  9
$QTEXTMODE
 70
     0
  9
$MIRRTEXT
 70
     1
  9
$DRAGMODE
 70
     2
  9
$LTSCALE
 40
1.0
  9
$OSMODE
 70
     8
  9
$ATTMODE
 70
     0
  9
$TEXTSIZE
 40
0.12
  9
$TRACEWID
 40
0.05
  9
$TEXTSTYLE
  7
STANDARD
  9
$CLAYER
  8
0
  9
$CELTYPE
  6
BYLAYER
  9
$CECOLOR
 62
   256
  9
$DIMSCALE
 40
1.0
  9
$DIMASZ
 40
0.18
  9
$DIMEXO
 40
0.0625
  9
$DIMDLI
 40
0.38
  9
$DIMRND
 40
0.0
  9
$DIMDLE
 40
0.0
  9
$DIMEXE
 40
0.18
  9
$DIMTP
 40
0.0
  9
$DIMTM
 40
0.0
  9
$DIMTXT
 40
0.18
  9
$DIMCEN
 40
0.09
  9
$DIMTSZ
 40
0.0
  9
$DIMTOL
 70
     0
  9
$DIMLIM
 70
     0
  9
$DIMTIH
 70
     1
  9
$DIMTOH
 70
     1
  9
$DIMSE1
 70
     0
  9
$DIMSE2
 70
     0
  9
$DIMTAD
 70
     0
  9
$DIMZIN
 70
     0
  9
$DIMBLK
  1

  9
$DIMASO
 70
     1
  9
$DIMSHO
 70
     1
  9
$DIMPOST
  1

  9
$DIMAPOST
  1

  9
$DIMALT
 70
     0
  9
$DIMALTD
 70
     2
  9
$DIMALTF
 40
25.4
  9
$DIMLFAC
 40
1.0
  9
$DIMTOFL
 70
     0
  9
$DIMTVP
 40
0.0
  9
$DIMTIX
 70
     0
  9
$DIMSOXD
 70
     0
  9
$DIMSAH
 70
     0
  9
$DIMBLK1
  1

  9
$DIMBLK2
  1

  9
$DIMSTYLE
  2
STANDARD
  9
$DIMCLRD
 70
     0
  9
$DIMCLRE
 70
     0
  9
$DIMCLRT
 70
     0
  9
$DIMTFAC
 40
1.0
  9
$DIMGAP
 40
0.09
  9
$LUNITS
 70
     2
  9
$LUPREC
 70
     4
  9
$SKETCHINC
 40
0.1
  9
$FILLETRAD
 40
0.05
  9
$AUNITS
 70
     0
  9
$AUPREC
 70
     0
  9
$MENU
  1
acad
  9
$ELEVATION
 40
0.0
  9
$PELEVATION
 40
0.0
  9
$THICKNESS
 40
0.0
  9
$LIMCHECK
 70
     0
  9
$BLIPMODE
 70
     0
  9
$CHAMFERA
 40
0.0
  9
$CHAMFERB
 40
0.0
  9
$SKPOLY
 70
     0
  9
$TDCREATE
 40
2450671.955438
  9
$TDUPDATE
 40
2451166.499936
  9
$TDINDWG
 40
0.000273
  9
$TDUSRTIMER
 40
0.000273
  9
$USRTIMER
 70
     1
  9
$ANGBASE
 50
0.0
  9
$ANGDIR
 70
     0
  9
$PDMODE
 70
    96
  9
$PDSIZE
 40
0.09
  9
$PLINEWID
 40
0.0
  9
$COORDS
 70
     1
  9
$SPLFRAME
 70
     1
  9
$SPLINETYPE
 70
     6
  9
$SPLINESEGS
 70
     8
  9
$ATTDIA
 70
     0
  9
$ATTREQ
 70
     1
  9
$HANDLING
 70
     1
  9
$HANDSEED
  5
3E8EE
  9
$SURFTAB1
 70
     6
  9
$SURFTAB2
 70
     6
  9
$SURFTYPE
 70
     6
  9
$SURFU
 70
     6
  9
$SURFV
 70
     6
  9
$UCSNAME
  2

  9
$UCSORG
 10
0.0
 20
0.0
 30
0.0
  9
$UCSXDIR
 10
1.0
 20
0.0
 30
0.0
  9
$UCSYDIR
 10
0.0
 20
1.0
 30
0.0
  9
$PUCSNAME
  2

  9
$PUCSORG
 10
0.0
 20
0.0
 30
0.0
  9
$PUCSXDIR
 10
1.0
 20
0.0
 30
0.0
  9
$PUCSYDIR
 10
0.0
 20
1.0
 30
0.0
  9
$USERI1
 70
     0
  9
$USERI2
 70
     0
  9
$USERI3
 70
     0
  9
$USERI4
 70
     0
  9
$USERI5
 70
     0
  9
$USERR1
 40
0.0
  9
$USERR2
 40
0.0
  9
$USERR3
 40
0.0
  9
$USERR4
 40
0.0
  9
$USERR5
 40
0.0
  9
$WORLDVIEW
 70
     1
  9
$SHADEDGE
 70
     3
  9
$SHADEDIF
 70
    70
  9
$TILEMODE
 70
     1
  9
$MAXACTVP
 70
    16
  9
$PLIMCHECK
 70
     0
  9
$PEXTMIN
 10
1.000000E+020
 20
1.000000E+020
 30
1.000000E+020
  9
$PEXTMAX
 10
-1.000000E+020
 20
-1.000000E+020
 30
-1.000000E+020
  9
$PLIMMIN
 10
0.0
 20
0.0
  9
$PLIMMAX
 10
12.0
 20
9.0
  9
$UNITMODE
 70
     0
  9
$VISRETAIN
 70
     0
  9
$PLINEGEN
 70
     0
  9
$PSLTSCALE
 70
     1
  0
ENDSEC
  0
SECTION
  2
TABLES
  0
TABLE
  2
VPORT
 70
     2
  0
VPORT
  2
*ACTIVE
 70
     0
 10
0.0
 20
0.0
 11
1.0
 21
1.0
 12
1.414741
 22
-0.695344
 13
0.0
 23
0.0
 14
0.25
 24
0.25
 15
0.25
 25
0.25
 16
0.0
 26
0.0
 36
1.0
 17
0.0
 27
0.0
 37
0.0
 40
4.349987
 41
1.603066
 42
50.0
 43
0.0
 44
0.0
 50
0.0
 51
0.0
 71
     0
 72
 20000
 73
     1
 74
     1
 75
     0
 76
     0
 77
     0
 78
     0
  0
ENDTAB
  0
TABLE
  2
LTYPE
 70
     1
  0
LTYPE
  2
CONTINUOUS
 70
     0
  3
Solid line
 72
    65
 73
     0
 40
0.0
  0
ENDTAB
  0
TABLE
  2
LAYER
 70
     2
  0
LAYER
  2
0
 70
     0
 62
     7
  6
CONTINUOUS
  0
LAYER
  2
DIMS-MTG-HOLES
 70
     0
 62
     1
  6
CONTINUOUS
  0
ENDTAB
  0
TABLE
  2
STYLE
 70
     1
  0
STYLE
  2
STANDARD
 70
     0
 40
0.0
 41
1.0
 50
0.0
 71
     0
 42
0.12
  3
txt
  4

  0
ENDTAB
  0
TABLE
  2
VIEW
 70
     0
  0
ENDTAB
  0
TABLE
  2
UCS
 70
     0
  0
ENDTAB
  0
TABLE
  2
APPID
 70
     1
  0
APPID
  2
ACAD
 70
     0
  0
ENDTAB
  0
TABLE
  2
DIMSTYLE
 70
     1
  0
DIMSTYLE
  2
STANDARD
 70
     0
  3

  4

  5

  6

  7

 40
1.0
 41
0.18
 42
0.0625
 43
0.38
 44
0.18
 45
0.0
 46
0.0
 47
0.0
 48
0.0
140
0.18
141
0.09
142
0.0
143
25.4
144
1.0
145
0.0
146
1.0
147
0.09
 71
     0
 72
     0
 73
     1
 74
     1
 75
     0
 76
     0
 77
     0
 78
     0
170
     0
171
     2
172
     0
173
     0
174
     0
175
     0
176
     0
177
     0
178
     0
  0
ENDTAB
  0
ENDSEC
  0
SECTION
  2
BLOCKS
  0
BLOCK
  8
0
  2
$MODEL_SPACE
 70
     0
 10
0.0
 20
0.0
 30
0.0
  3
$MODEL_SPACE
  1

  0
ENDBLK
  5
3E89C
  8
0
  0
BLOCK
 67
     1
  8
0
  2
$PAPER_SPACE
 70
     0
 10
0.0
 20
0.0
 30
0.0
  3
$PAPER_SPACE
  1

  0
ENDBLK
  5
3E89A
 67
     1
  8
0
  0
ENDSEC
  0
SECTION
  2
ENTITIES
  0
POLYLINE
  5
3E1C3
  8
0
 66
     1
 10
0.0
 20
0.0
 30
0.0
 70
    16
 71
     6
 72
     3
  0
VERTEX
  5
3E1C4
  8
0
 10
1.1
 20
-2.74
 30
0.15
 70
    64
  0
VERTEX
  5
3E1C5
  8
0
 10
1.1
 20
-2.74
 30
0.0
 70
    64
  0
VERTEX
  5
3E1C6
  8
0
 10
1.1
 20
-2.74
 30
0.0
 70
    64
  0
VERTEX
  5
3E1C7
  8
0
 10
0.72
 20
-2.74
 30
0.15
 70
    64
  0
VERTEX
  5
3E1C8
  8
0
 10
0.72
 20
-2.74
 30
0.0
 70
    64
  0
VERTEX
  5
3E1C9
  8
0
 10
0.72
 20
-2.74
 30
0.0
 70
    64
  0
VERTEX
  5
3E1CA
  8
0
 10
0.72
 20
-2.46
 30
0.15
 70
    64
  0
VERTEX
  5
3E1CB
  8
0
 10
0.72
 20
-2.46
 30
0.0
 70
    64
  0
VERTEX
  5
3E1CC
  8
0
 10
0.72
 20
-2.74
 30
0.0
 70
    64
  0
VERTEX
  5
3E1CD
  8
0
 10
1.1
 20
-2.46
 30
0.15
 70
    64
  0
VERTEX
  5
3E1CE
  8
0
 10
1.1
 20
-2.46
 30
0.0
 70
    64
  0
VERTEX
  5
3E1CF
  8
0
 10
1.1
 20
-2.74
 30
0.0
 70
    64
  0
VERTEX
  5
3E1D0
  8
0
 10
1.1
 20
-2.46
 30
0.15
 70
    64
  0
VERTEX
  5
3E1D1
  8
0
 10
1.1
 20
-2.46
 30
0.15
 70
    64
  0
VERTEX
  5
3E1D2
  8
0
 10
1.1
 20
-2.74
 30
0.15
 70
    64
  0
VERTEX
  5
3E1D3
  8
0
 10
0.72
 20
-2.46
 30
0.15
 70
    64
  0
VERTEX
  5
3E1D4
  8
0
 10
0.72
 20
-2.46
 30
0.15
 70
    64
  0
VERTEX
  5
3E1D5
  8
0
 10
0.72
 20
-2.74
 30
0.15
 70
    64
  0
SEQEND
  5
3E1D6
  8
0
  0
CIRCLE
  5
3E1D8
  8
0
 10
0.91
 20
-2.6
 30
0.15
 40
0.09
  0
CIRCLE
  5
3E1D9
  8
0
 10
0.91
 20
-2.6
 30
0.0
 40
0.09
  0
LINE
  5
3E1DA
  8
DIMS-MTG-HOLES
  6
CONTINUOUS
 10
0.82
 20
-2.6
 30
0.0
 11
1.0
 21
-2.6
 31
0.0
  0
LINE
  5
3E1DB
  8
DIMS-MTG-HOLES
  6
CONTINUOUS
 10
0.91
 20
-2.69
 30
0.0
 11
0.91
 21
-2.51
 31
0.0
  0
POLYLINE
  5
3E1DC
  8
0
 66
     1
 10
0.0
 20
0.0
 30
0.0
 70
    16
 71
     6
 72
     3
  0
VERTEX
  5
3E1DD
  8
0
 10
2.11
 20
1.07
 30
0.15
 70
    64
  0
VERTEX
  5
3E1DE
  8
0
 10
2.11
 20
1.07
 30
0.0
 70
    64
  0
VERTEX
  5
3E1DF
  8
0
 10
2.11
 20
1.07
 30
0.0
 70
    64
  0
VERTEX
  5
3E1E0
  8
0
 10
1.73
 20
1.07
 30
0.15
 70
    64
  0
VERTEX
  5
3E1E1
  8
0
 10
1.73
 20
1.07
 30
0.0
 70
    64
  0
VERTEX
  5
3E1E2
  8
0
 10
1.73
 20
1.07
 30
0.0
 70
    64
  0
VERTEX
  5
3E1E3
  8
0
 10
1.73
 20
1.35
 30
0.15
 70
    64
  0
VERTEX
  5
3E1E4
  8
0
 10
1.73
 20
1.35
 30
0.0
 70
    64
  0
VERTEX
  5
3E1E5
  8
0
 10
1.73
 20
1.07
 30
0.0
 70
    64
  0
VERTEX
  5
3E1E6
  8
0
 10
2.11
 20
1.35
 30
0.15
 70
    64
  0
VERTEX
  5
3E1E7
  8
0
 10
2.11
 20
1.35
 30
0.0
 70
    64
  0
VERTEX
  5
3E1E8
  8
0
 10
2.11
 20
1.07
 30
0.0
 70
    64
  0
VERTEX
  5
3E1E9
  8
0
 10
2.11
 20
1.35
 30
0.15
 70
    64
  0
VERTEX
  5
3E1EA
  8
0
 10
2.11
 20
1.35
 30
0.15
 70
    64
  0
VERTEX
  5
3E1EB
  8
0
 10
2.11
 20
1.07
 30
0.15
 70
    64
  0
VERTEX
  5
3E1EC
  8
0
 10
1.73
 20
1.35
 30
0.15
 70
    64
  0
VERTEX
  5
3E1ED
  8
0
 10
1.73
 20
1.35
 30
0.15
 70
    64
  0
VERTEX
  5
3E1EE
  8
0
 10
1.73
 20
1.07
 30
0.15
 70
    64
  0
SEQEND
  5
3E1EF
  8
0
  0
LINE
  5
3E1F0
  8
DIMS-MTG-HOLES
  6
CONTINUOUS
 10
1.83
 20
1.21
 30
0.0
 11
2.01
 21
1.21
 31
0.0
  0
CIRCLE
  5
3E1F1
  8
0
 10
1.92
 20
1.21
 30
0.0
 40
0.09
  0
LINE
  5
3E1F2
  8
DIMS-MTG-HOLES
  6
CONTINUOUS
 10
1.92
 20
1.12
 30
0.0
 11
1.92
 21
1.3
 31
0.0
  0
POLYLINE
  5
3E1F8
  8
0
 66
     1
 10
0.0
 20
0.0
 30
0.0
 70
    16
 71
     6
 72
     3
  0
VERTEX
  5
3E1F9
  8
0
 10
1.16
 20
1.07
 30
0.27
 70
    64
  0
VERTEX
  5
3E1FA
  8
0
 10
1.16
 20
1.07
 30
0.0
 70
    64
  0
VERTEX
  5
3E1FB
  8
0
 10
1.16
 20
1.07
 30
0.0
 70
    64
  0
VERTEX
  5
3E1FC
  8
0
 10
0.78
 20
1.07
 30
0.27
 70
    64
  0
VERTEX
  5
3E1FD
  8
0
 10
0.78
 20
1.07
 30
0.0
 70
    64
  0
VERTEX
  5
3E1FE
  8
0
 10
0.78
 20
1.07
 30
0.0
 70
    64
  0
VERTEX
  5
3E1FF
  8
0
 10
0.78
 20
1.27
 30
0.27
 70
    64
  0
VERTEX
  5
3E200
  8
0
 10
0.78
 20
1.27
 30
0.0
 70
    64
  0
VERTEX
  5
3E201
  8
0
 10
0.78
 20
1.07
 30
0.0
 70
    64
  0
VERTEX
  5
3E202
  8
0
 10
1.16
 20
1.27
 30
0.27
 70
    64
  0
VERTEX
  5
3E203
  8
0
 10
1.16
 20
1.27
 30
0.0
 70
    64
  0
VERTEX
  5
3E204
  8
0
 10
1.16
 20
1.07
 30
0.0
 70
    64
  0
VERTEX
  5
3E205
  8
0
 10
1.16
 20
1.27
 30
0.27
 70
    64
  0
VERTEX
  5
3E206
  8
0
 10
1.16
 20
1.27
 30
0.27
 70
    64
  0
VERTEX
  5
3E207
  8
0
 10
1.16
 20
1.07
 30
0.27
 70
    64
  0
VERTEX
  5
3E208
  8
0
 10
0.78
 20
1.27
 30
0.27
 70
    64
  0
VERTEX
  5
3E209
  8
0
 10
0.78
 20
1.27
 30
0.27
 70
    64
  0
VERTEX
  5
3E20A
  8
0
 10
0.78
 20
1.07
 30
0.27
 70
    64
  0
SEQEND
  5
3E20B
  8
0
  0
3DFACE
  5
3E277
  8
0
 10
0.0
 20
-0.57
 30
2.51
 11
0.0
 21
-0.82
 31
2.51
 12
0.0
 22
-0.82
 32
1.91
 13
0.0
 23
-0.57
 33
1.91
  0
3DFACE
  5
3E27D
  8
0
 10
0.0
 20
-0.57
 30
2.03
 11
0.0
 21
-0.82
 31
2.03
 12
0.0
 22
-0.82
 32
2.2
 13
0.0
 23
-0.57
 33
2.2
  0
CIRCLE
  5
3E4BC
  8
0
 39
0.15
 10
1.415
 20
-0.695
 30
3.51
 40
0.7
  0
POLYLINE
  5
3E4BE
  8
0
 66
     1
 10
0.0
 20
0.0
 30
0.0
 70
    16
 71
     6
 72
     3
  0
VERTEX
  5
3E4BF
  8
0
 10
1.165
 20
-0.035
 30
3.66
 70
    64
  0
VERTEX
  5
3E4C0
  8
0
 10
1.165
 20
-0.035
 30
2.89
 70
    64
  0
VERTEX
  5
3E4C1
  8
0
 10
1.165
 20
-0.035
 30
2.89
 70
    64
  0
VERTEX
  5
3E4C2
  8
0
 10
1.165
 20
0.085
 30
3.66
 70
    64
  0
VERTEX
  5
3E4C3
  8
0
 10
1.165
 20
0.085
 30
2.89
 70
    64
  0
VERTEX
  5
3E4C4
  8
0
 10
1.165
 20
0.085
 30
2.89
 70
    64
  0
VERTEX
  5
3E4C5
  8
0
 10
1.665
 20
0.085
 30
3.66
 70
    64
  0
VERTEX
  5
3E4C6
  8
0
 10
1.665
 20
0.085
 30
2.89
 70
    64
  0
VERTEX
  5
3E4C7
  8
0
 10
1.165
 20
0.085
 30
2.89
 70
    64
  0
VERTEX
  5
3E4C8
  8
0
 10
1.665
 20
-0.035
 30
3.66
 70
    64
  0
VERTEX
  5
3E4C9
  8
0
 10
1.665
 20
-0.035
 30
2.89
 70
    64
  0
VERTEX
  5
3E4CA
  8
0
 10
1.165
 20
-0.035
 30
2.89
 70
    64
  0
VERTEX
  5
3E4CB
  8
0
 10
1.665
 20
-0.035
 30
3.66
 70
    64
  0
VERTEX
  5
3E4CC
  8
0
 10
1.665
 20
-0.035
 30
3.66
 70
    64
  0
VERTEX
  5
3E4CD
  8
0
 10
1.165
 20
-0.035
 30
3.66
 70
    64
  0
VERTEX
  5
3E4CE
  8
0
 10
1.665
 20
0.085
 30
3.66
 70
    64
  0
VERTEX
  5
3E4CF
  8
0
 10
1.665
 20
0.085
 30
3.66
 70
    64
  0
VERTEX
  5
3E4D0
  8
0
 10
1.165
 20
0.085
 30
3.66
 70
    64
  0
SEQEND
  5
3E4D1
  8
0
  0
POLYLINE
  5
3E4D2
  8
0
 66
     1
 10
0.0
 20
0.0
 30
3.66
 70
     1
  0
VERTEX
  5
3E8A9
  8
0
 10
1.591068
 20
-0.8
 30
3.66
  0
VERTEX
  5
3E8AA
  8
0
 10
1.685
 20
-0.8
 30
3.66
 42
0.414214
  0
VERTEX
  5
3E8AB
  8
0
 10
1.735
 20
-0.75
 30
3.66
  0
VERTEX
  5
3E8AC
  8
0
 10
1.735
 20
-0.64
 30
3.66
 42
0.414214
  0
VERTEX
  5
3E8AD
  8
0
 10
1.685
 20
-0.59
 30
3.66
  0
VERTEX
  5
3E8AE
  8
0
 10
1.591068
 20
-0.59
 30
3.66
 42
0.443094
  0
VERTEX
  5
3E8AF
  8
0
 10
1.293345
 20
-0.53
 30
3.66
  0
VERTEX
  5
3E8B0
  8
0
 10
1.145
 20
-0.53
 30
3.66
 42
0.414214
  0
VERTEX
  5
3E8B1
  8
0
 10
1.095
 20
-0.58
 30
3.66
  0
VERTEX
  5
3E8B2
  8
0
 10
1.095
 20
-0.81
 30
3.66
 42
0.414214
  0
VERTEX
  5
3E8B3
  8
0
 10
1.145
 20
-0.86
 30
3.66
  0
VERTEX
  5
3E8B4
  8
0
 10
1.293345
 20
-0.86
 30
3.66
 42
0.443094
  0
SEQEND
  5
3E8B5
  8
0
  0
POLYLINE
  5
3E4E0
  8
0
 66
     1
 10
0.0
 20
0.0
 30
3.51
 70
     1
  0
VERTEX
  5
3E8B6
  8
0
 10
1.591068
 20
-0.8
 30
3.51
  0
VERTEX
  5
3E8B7
  8
0
 10
1.685
 20
-0.8
 30
3.51
 42
0.414214
  0
VERTEX
  5
3E8B8
  8
0
 10
1.735
 20
-0.75
 30
3.51
  0
VERTEX
  5
3E8B9
  8
0
 10
1.735
 20
-0.64
 30
3.51
 42
0.414214
  0
VERTEX
  5
3E8BA
  8
0
 10
1.685
 20
-0.59
 30
3.51
  0
VERTEX
  5
3E8BB
  8
0
 10
1.591068
 20
-0.59
 30
3.51
 42
0.443094
  0
VERTEX
  5
3E8BC
  8
0
 10
1.293345
 20
-0.53
 30
3.51
  0
VERTEX
  5
3E8BD
  8
0
 10
1.145
 20
-0.53
 30
3.51
 42
0.414214
  0
VERTEX
  5
3E8BE
  8
0
 10
1.095
 20
-0.58
 30
3.51
  0
VERTEX
  5
3E8BF
  8
0
 10
1.095
 20
-0.81
 30
3.51
 42
0.414214
  0
VERTEX
  5
3E8C0
  8
0
 10
1.145
 20
-0.86
 30
3.51
  0
VERTEX
  5
3E8C1
  8
0
 10
1.293345
 20
-0.86
 30
3.51
 42
0.443094
  0
SEQEND
  5
3E8C2
  8
0
  0
POLYLINE
  5
3E4EF
  8
0
 66
     1
 10
0.0
 20
0.0
 30
0.0
 70
    16
 71
     6
 72
     3
  0
VERTEX
  5
3E4F0
  8
0
 10
1.165
 20
-1.475
 30
3.66
 70
    64
  0
VERTEX
  5
3E4F1
  8
0
 10
1.165
 20
-1.475
 30
2.89
 70
    64
  0
VERTEX
  5
3E4F2
  8
0
 10
1.165
 20
-1.475
 30
2.89
 70
    64
  0
VERTEX
  5
3E4F3
  8
0
 10
1.165
 20
-1.355
 30
3.66
 70
    64
  0
VERTEX
  5
3E4F4
  8
0
 10
1.165
 20
-1.355
 30
2.89
 70
    64
  0
VERTEX
  5
3E4F5
  8
0
 10
1.165
 20
-1.355
 30
2.89
 70
    64
  0
VERTEX
  5
3E4F6
  8
0
 10
1.665
 20
-1.355
 30
3.66
 70
    64
  0
VERTEX
  5
3E4F7
  8
0
 10
1.665
 20
-1.355
 30
2.89
 70
    64
  0
VERTEX
  5
3E4F8
  8
0
 10
1.165
 20
-1.355
 30
2.89
 70
    64
  0
VERTEX
  5
3E4F9
  8
0
 10
1.665
 20
-1.475
 30
3.66
 70
    64
  0
VERTEX
  5
3E4FA
  8
0
 10
1.665
 20
-1.475
 30
2.89
 70
    64
  0
VERTEX
  5
3E4FB
  8
0
 10
1.165
 20
-1.475
 30
2.89
 70
    64
  0
VERTEX
  5
3E4FC
  8
0
 10
1.665
 20
-1.475
 30
3.66
 70
    64
  0
VERTEX
  5
3E4FD
  8
0
 10
1.665
 20
-1.475
 30
3.66
 70
    64
  0
VERTEX
  5
3E4FE
  8
0
 10
1.165
 20
-1.475
 30
3.66
 70
    64
  0
VERTEX
  5
3E4FF
  8
0
 10
1.665
 20
-1.355
 30
3.66
 70
    64
  0
VERTEX
  5
3E500
  8
0
 10
1.665
 20
-1.355
 30
3.66
 70
    64
  0
VERTEX
  5
3E501
  8
0
 10
1.165
 20
-1.355
 30
3.66
 70
    64
  0
SEQEND
  5
3E502
  8
0
  0
CIRCLE
  5
3E503
  8
0
 10
1.92
 20
1.21
 30
0.15
 40
0.09
  0
POLYLINE
  5
3E5F5
  8
0
 66
     1
 10
0.0
 20
0.0
 30
0.0
 70
    16
 71
     6
 72
     3
  0
VERTEX
  5
3E5F6
  8
0
 10
2.83
 20
-2.46
 30
0.2
 70
    64
  0
VERTEX
  5
3E5F7
  8
0
 10
2.83
 20
-2.46
 30
0.0
 70
    64
  0
VERTEX
  5
3E5F8
  8
0
 10
2.83
 20
-2.46
 30
0.0
 70
    64
  0
VERTEX
  5
3E5F9
  8
0
 10
0.0
 20
-2.46
 30
0.2
 70
    64
  0
VERTEX
  5
3E5FA
  8
0
 10
0.0
 20
-2.46
 30
0.0
 70
    64
  0
VERTEX
  5
3E5FB
  8
0
 10
0.0
 20
-2.46
 30
0.0
 70
    64
  0
VERTEX
  5
3E5FC
  8
0
 10
0.0
 20
-1.32
 30
0.2
 70
    64
  0
VERTEX
  5
3E5FD
  8
0
 10
0.0
 20
-1.32
 30
0.0
 70
    64
  0
VERTEX
  5
3E5FE
  8
0
 10
0.0
 20
-2.46
 30
0.0
 70
    64
  0
VERTEX
  5
3E5FF
  8
0
 10
2.83
 20
-1.32
 30
0.2
 70
    64
  0
VERTEX
  5
3E600
  8
0
 10
2.83
 20
-1.32
 30
0.0
 70
    64
  0
VERTEX
  5
3E601
  8
0
 10
2.83
 20
-2.46
 30
0.0
 70
    64
  0
VERTEX
  5
3E602
  8
0
 10
2.83
 20
-1.32
 30
0.2
 70
    64
  0
VERTEX
  5
3E603
  8
0
 10
2.83
 20
-1.32
 30
0.2
 70
    64
  0
VERTEX
  5
3E604
  8
0
 10
2.83
 20
-2.46
 30
0.2
 70
    64
  0
VERTEX
  5
3E605
  8
0
 10
0.0
 20
-1.32
 30
0.2
 70
    64
  0
VERTEX
  5
3E606
  8
0
 10
0.0
 20
-1.32
 30
0.2
 70
    64
  0
VERTEX
  5
3E607
  8
0
 10
0.0
 20
-2.46
 30
0.2
 70
    64
  0
SEQEND
  5
3E608
  8
0
  0
POLYLINE
  5
3E609
  8
0
 66
     1
 10
0.0
 20
0.0
 30
0.0
 70
    16
 71
     6
 72
     3
  0
VERTEX
  5
3E60A
  8
0
 10
2.83
 20
-2.46
 30
2.84
 70
    64
  0
VERTEX
  5
3E60B
  8
0
 10
2.83
 20
-2.46
 30
0.2
 70
    64
  0
VERTEX
  5
3E60C
  8
0
 10
2.83
 20
-2.46
 30
0.2
 70
    64
  0
VERTEX
  5
3E60D
  8
0
 10
0.0
 20
-2.46
 30
2.84
 70
    64
  0
VERTEX
  5
3E60E
  8
0
 10
0.0
 20
-2.46
 30
0.2
 70
    64
  0
VERTEX
  5
3E60F
  8
0
 10
0.0
 20
-2.46
 30
0.2
 70
    64
  0
VERTEX
  5
3E610
  8
0
 10
0.0
 20
1.07
 30
2.84
 70
    64
  0
VERTEX
  5
3E611
  8
0
 10
0.0
 20
1.07
 30
0.2
 70
    64
  0
VERTEX
  5
3E612
  8
0
 10
0.0
 20
-2.46
 30
0.2
 70
    64
  0
VERTEX
  5
3E613
  8
0
 10
2.83
 20
1.07
 30
2.84
 70
    64
  0
VERTEX
  5
3E614
  8
0
 10
2.83
 20
1.07
 30
0.2
 70
    64
  0
VERTEX
  5
3E615
  8
0
 10
2.83
 20
-2.46
 30
0.2
 70
    64
  0
VERTEX
  5
3E616
  8
0
 10
2.83
 20
1.07
 30
2.84
 70
    64
  0
VERTEX
  5
3E617
  8
0
 10
2.83
 20
1.07
 30
2.84
 70
    64
  0
VERTEX
  5
3E618
  8
0
 10
2.83
 20
-2.46
 30
2.84
 70
    64
  0
VERTEX
  5
3E619
  8
0
 10
0.0
 20
1.07
 30
2.84
 70
    64
  0
VERTEX
  5
3E61A
  8
0
 10
0.0
 20
1.07
 30
2.84
 70
    64
  0
VERTEX
  5
3E61B
  8
0
 10
0.0
 20
-2.46
 30
2.84
 70
    64
  0
SEQEND
  5
3E61C
  8
0
  0
POLYLINE
  5
3E61D
  8
0
 66
     1
 10
0.0
 20
0.0
 30
0.0
 70
    16
 71
     6
 72
     3
  0
VERTEX
  5
3E61E
  8
0
 10
2.83
 20
0.0
 30
0.2
 70
    64
  0
VERTEX
  5
3E61F
  8
0
 10
2.83
 20
0.0
 30
0.0
 70
    64
  0
VERTEX
  5
3E620
  8
0
 10
2.83
 20
0.0
 30
0.0
 70
    64
  0
VERTEX
  5
3E621
  8
0
 10
0.0
 20
0.0
 30
0.2
 70
    64
  0
VERTEX
  5
3E622
  8
0
 10
0.0
 20
0.0
 30
0.0
 70
    64
  0
VERTEX
  5
3E623
  8
0
 10
0.0
 20
0.0
 30
0.0
 70
    64
  0
VERTEX
  5
3E624
  8
0
 10
0.0
 20
1.07
 30
0.2
 70
    64
  0
VERTEX
  5
3E625
  8
0
 10
0.0
 20
1.07
 30
0.0
 70
    64
  0
VERTEX
  5
3E626
  8
0
 10
0.0
 20
0.0
 30
0.0
 70
    64
  0
VERTEX
  5
3E627
  8
0
 10
2.83
 20
1.07
 30
0.2
 70
    64
  0
VERTEX
  5
3E628
  8
0
 10
2.83
 20
1.07
 30
0.0
 70
    64
  0
VERTEX
  5
3E629
  8
0
 10
2.83
 20
0.0
 30
0.0
 70
    64
  0
VERTEX
  5
3E62A
  8
0
 10
2.83
 20
1.07
 30
0.2
 70
    64
  0
VERTEX
  5
3E62B
  8
0
 10
2.83
 20
1.07
 30
0.2
 70
    64
  0
VERTEX
  5
3E62C
  8
0
 10
2.83
 20
0.0
 30
0.2
 70
    64
  0
VERTEX
  5
3E62D
  8
0
 10
0.0
 20
1.07
 30
0.2
 70
    64
  0
VERTEX
  5
3E62E
  8
0
 10
0.0
 20
1.07
 30
0.2
 70
    64
  0
VERTEX
  5
3E62F
  8
0
 10
0.0
 20
0.0
 30
0.2
 70
    64
  0
SEQEND
  5
3E630
  8
0
  0
POLYLINE
  5
3E631
  8
0
 66
     1
 10
0.0
 20
0.0
 30
0.0
 70
    16
 71
     6
 72
     3
  0
VERTEX
  5
3E632
  8
0
 10
2.83
 20
-1.335
 30
3.51
 70
    64
  0
VERTEX
  5
3E633
  8
0
 10
2.83
 20
-1.335
 30
2.84
 70
    64
  0
VERTEX
  5
3E634
  8
0
 10
2.83
 20
-1.335
 30
2.84
 70
    64
  0
VERTEX
  5
3E635
  8
0
 10
0.0
 20
-1.335
 30
3.51
 70
    64
  0
VERTEX
  5
3E636
  8
0
 10
0.0
 20
-1.335
 30
2.84
 70
    64
  0
VERTEX
  5
3E637
  8
0
 10
0.0
 20
-1.335
 30
2.84
 70
    64
  0
VERTEX
  5
3E638
  8
0
 10
0.0
 20
-0.055
 30
3.51
 70
    64
  0
VERTEX
  5
3E639
  8
0
 10
0.0
 20
-0.055
 30
2.84
 70
    64
  0
VERTEX
  5
3E63A
  8
0
 10
0.0
 20
-1.335
 30
2.84
 70
    64
  0
VERTEX
  5
3E63B
  8
0
 10
2.83
 20
-0.055
 30
3.51
 70
    64
  0
VERTEX
  5
3E63C
  8
0
 10
2.83
 20
-0.055
 30
2.84
 70
    64
  0
VERTEX
  5
3E63D
  8
0
 10
2.83
 20
-1.335
 30
2.84
 70
    64
  0
VERTEX
  5
3E63E
  8
0
 10
2.83
 20
-0.055
 30
3.51
 70
    64
  0
VERTEX
  5
3E63F
  8
0
 10
2.83
 20
-0.055
 30
3.51
 70
    64
  0
VERTEX
  5
3E640
  8
0
 10
2.83
 20
-1.335
 30
3.51
 70
    64
  0
VERTEX
  5
3E641
  8
0
 10
0.0
 20
-0.055
 30
3.51
 70
    64
  0
VERTEX
  5
3E642
  8
0
 10
0.0
 20
-0.055
 30
3.51
 70
    64
  0
VERTEX
  5
3E643
  8
0
 10
0.0
 20
-1.335
 30
3.51
 70
    64
  0
SEQEND
  5
3E644
  8
0
  0
POLYLINE
  5
3E681
  8
0
 66
     1
 10
0.0
 20
0.0
 30
0.0
 70
    16
 71
     6
 72
     3
  0
VERTEX
  5
3E682
  8
0
 10
0.5
 20
-1.79
 30
3.51
 70
    64
  0
VERTEX
  5
3E683
  8
0
 10
0.5
 20
-1.79
 30
2.84
 70
    64
  0
VERTEX
  5
3E684
  8
0
 10
0.5
 20
-1.79
 30
2.84
 70
    64
  0
VERTEX
  5
3E685
  8
0
 10
0.0
 20
-1.79
 30
3.51
 70
    64
  0
VERTEX
  5
3E686
  8
0
 10
0.0
 20
-1.79
 30
2.84
 70
    64
  0
VERTEX
  5
3E687
  8
0
 10
0.0
 20
-1.79
 30
2.84
 70
    64
  0
VERTEX
  5
3E688
  8
0
 10
0.0
 20
-1.335
 30
3.51
 70
    64
  0
VERTEX
  5
3E689
  8
0
 10
0.0
 20
-1.335
 30
2.84
 70
    64
  0
VERTEX
  5
3E68A
  8
0
 10
0.0
 20
-1.79
 30
2.84
 70
    64
  0
VERTEX
  5
3E68B
  8
0
 10
0.5
 20
-1.335
 30
3.51
 70
    64
  0
VERTEX
  5
3E68C
  8
0
 10
0.5
 20
-1.335
 30
2.84
 70
    64
  0
VERTEX
  5
3E68D
  8
0
 10
0.5
 20
-1.79
 30
2.84
 70
    64
  0
VERTEX
  5
3E68E
  8
0
 10
0.5
 20
-1.335
 30
3.51
 70
    64
  0
VERTEX
  5
3E68F
  8
0
 10
0.5
 20
-1.335
 30
3.51
 70
    64
  0
VERTEX
  5
3E690
  8
0
 10
0.5
 20
-1.79
 30
3.51
 70
    64
  0
VERTEX
  5
3E691
  8
0
 10
0.0
 20
-1.335
 30
3.51
 70
    64
  0
VERTEX
  5
3E692
  8
0
 10
0.0
 20
-1.335
 30
3.51
 70
    64
  0
VERTEX
  5
3E693
  8
0
 10
0.0
 20
-1.79
 30
3.51
 70
    64
  0
SEQEND
  5
3E694
  8
0
  0
POLYLINE
  5
3E695
  8
0
 66
     1
 10
0.0
 20
0.0
 30
0.0
 70
    16
 71
     6
 72
     3
  0
VERTEX
  5
3E696
  8
0
 10
0.84
 20
-1.335
 30
2.84
 70
    64
  0
VERTEX
  5
3E697
  8
0
 10
0.84
 20
-1.335
 30
2.84
 70
    64
  0
VERTEX
  5
3E698
  8
0
 10
0.84
 20
-1.335
 30
2.84
 70
    64
  0
VERTEX
  5
3E699
  8
0
 10
0.5
 20
-1.79
 30
2.84
 70
    64
  0
VERTEX
  5
3E69A
  8
0
 10
0.5
 20
-1.335
 30
2.84
 70
    64
  0
VERTEX
  5
3E69B
  8
0
 10
0.5
 20
-1.335
 30
2.84
 70
    64
  0
VERTEX
  5
3E69C
  8
0
 10
0.5
 20
-1.79
 30
3.51
 70
    64
  0
VERTEX
  5
3E69D
  8
0
 10
0.5
 20
-1.335
 30
3.51
 70
    64
  0
VERTEX
  5
3E69E
  8
0
 10
0.5
 20
-1.335
 30
2.84
 70
    64
  0
VERTEX
  5
3E69F
  8
0
 10
0.84
 20
-1.335
 30
3.51
 70
    64
  0
VERTEX
  5
3E6A0
  8
0
 10
0.84
 20
-1.335
 30
3.51
 70
    64
  0
VERTEX
  5
3E6A1
  8
0
 10
0.84
 20
-1.335
 30
2.84
 70
    64
  0
VERTEX
  5
3E6A2
  8
0
 10
0.84
 20
-1.335
 30
3.51
 70
    64
  0
VERTEX
  5
3E6A3
  8
0
 10
0.84
 20
-1.335
 30
3.51
 70
    64
  0
VERTEX
  5
3E6A4
  8
0
 10
0.84
 20
-1.335
 30
2.84
 70
    64
  0
VERTEX
  5
3E6A5
  8
0
 10
0.5
 20
-1.79
 30
3.51
 70
    64
  0
VERTEX
  5
3E6A6
  8
0
 10
0.5
 20
-1.79
 30
3.51
 70
    64
  0
VERTEX
  5
3E6A7
  8
0
 10
0.5
 20
-1.79
 30
2.84
 70
    64
  0
SEQEND
  5
3E6A8
  8
0
  0
POLYLINE
  5
3E6A9
  8
0
 66
     1
 10
0.0
 20
0.0
 30
0.0
 70
    16
 71
     6
 72
     3
  0
VERTEX
  5
3E6AA
  8
0
 10
1.99
 20
-1.335
 30
2.84
 70
    64
  0
VERTEX
  5
3E6AB
  8
0
 10
1.99
 20
-1.335
 30
2.84
 70
    64
  0
VERTEX
  5
3E6AC
  8
0
 10
1.99
 20
-1.335
 30
2.84
 70
    64
  0
VERTEX
  5
3E6AD
  8
0
 10
2.33
 20
-1.79
 30
2.84
 70
    64
  0
VERTEX
  5
3E6AE
  8
0
 10
2.33
 20
-1.335
 30
2.84
 70
    64
  0
VERTEX
  5
3E6AF
  8
0
 10
2.33
 20
-1.335
 30
2.84
 70
    64
  0
VERTEX
  5
3E6B0
  8
0
 10
2.33
 20
-1.79
 30
3.51
 70
    64
  0
VERTEX
  5
3E6B1
  8
0
 10
2.33
 20
-1.335
 30
3.51
 70
    64
  0
VERTEX
  5
3E6B2
  8
0
 10
2.33
 20
-1.335
 30
2.84
 70
    64
  0
VERTEX
  5
3E6B3
  8
0
 10
1.99
 20
-1.335
 30
3.51
 70
    64
  0
VERTEX
  5
3E6B4
  8
0
 10
1.99
 20
-1.335
 30
3.51
 70
    64
  0
VERTEX
  5
3E6B5
  8
0
 10
1.99
 20
-1.335
 30
2.84
 70
    64
  0
VERTEX
  5
3E6B6
  8
0
 10
1.99
 20
-1.335
 30
3.51
 70
    64
  0
VERTEX
  5
3E6B7
  8
0
 10
1.99
 20
-1.335
 30
3.51
 70
    64
  0
VERTEX
  5
3E6B8
  8
0
 10
1.99
 20
-1.335
 30
2.84
 70
    64
  0
VERTEX
  5
3E6B9
  8
0
 10
2.33
 20
-1.79
 30
3.51
 70
    64
  0
VERTEX
  5
3E6BA
  8
0
 10
2.33
 20
-1.79
 30
3.51
 70
    64
  0
VERTEX
  5
3E6BB
  8
0
 10
2.33
 20
-1.79
 30
2.84
 70
    64
  0
SEQEND
  5
3E6BC
  8
0
  0
POLYLINE
  5
3E6BD
  8
0
 66
     1
 10
0.0
 20
0.0
 30
0.0
 70
    16
 71
     6
 72
     3
  0
VERTEX
  5
3E6BE
  8
0
 10
2.33
 20
-1.79
 30
3.51
 70
    64
  0
VERTEX
  5
3E6BF
  8
0
 10
2.33
 20
-1.79
 30
2.84
 70
    64
  0
VERTEX
  5
3E6C0
  8
0
 10
2.33
 20
-1.79
 30
2.84
 70
    64
  0
VERTEX
  5
3E6C1
  8
0
 10
2.83
 20
-1.79
 30
3.51
 70
    64
  0
VERTEX
  5
3E6C2
  8
0
 10
2.83
 20
-1.79
 30
2.84
 70
    64
  0
VERTEX
  5
3E6C3
  8
0
 10
2.83
 20
-1.79
 30
2.84
 70
    64
  0
VERTEX
  5
3E6C4
  8
0
 10
2.83
 20
-1.335
 30
3.51
 70
    64
  0
VERTEX
  5
3E6C5
  8
0
 10
2.83
 20
-1.335
 30
2.84
 70
    64
  0
VERTEX
  5
3E6C6
  8
0
 10
2.83
 20
-1.79
 30
2.84
 70
    64
  0
VERTEX
  5
3E6C7
  8
0
 10
2.33
 20
-1.335
 30
3.51
 70
    64
  0
VERTEX
  5
3E6C8
  8
0
 10
2.33
 20
-1.335
 30
2.84
 70
    64
  0
VERTEX
  5
3E6C9
  8
0
 10
2.33
 20
-1.79
 30
2.84
 70
    64
  0
VERTEX
  5
3E6CA
  8
0
 10
2.33
 20
-1.335
 30
3.51
 70
    64
  0
VERTEX
  5
3E6CB
  8
0
 10
2.33
 20
-1.335
 30
3.51
 70
    64
  0
VERTEX
  5
3E6CC
  8
0
 10
2.33
 20
-1.79
 30
3.51
 70
    64
  0
VERTEX
  5
3E6CD
  8
0
 10
2.83
 20
-1.335
 30
3.51
 70
    64
  0
VERTEX
  5
3E6CE
  8
0
 10
2.83
 20
-1.335
 30
3.51
 70
    64
  0
VERTEX
  5
3E6CF
  8
0
 10
2.83
 20
-1.79
 30
3.51
 70
    64
  0
SEQEND
  5
3E6D0
  8
0
  0
3DFACE
  5
3E761
  8
0
 10
2.83
 20
-0.57
 30
2.51
 11
2.83
 21
-0.82
 31
2.51
 12
2.83
 22
-0.82
 32
1.91
 13
2.83
 23
-0.57
 33
1.91
  0
3DFACE
  5
3E763
  8
0
 10
2.83
 20
-0.57
 30
2.03
 11
2.83
 21
-0.82
 31
2.03
 12
2.83
 22
-0.82
 32
2.2
 13
2.83
 23
-0.57
 33
2.2
  0
CIRCLE
  5
3E76C
  8
0
 10
0.455
 20
-1.955
 30
2.84
 40
0.125
  0
POLYLINE
  5
3E775
  8
0
 66
     1
 10
0.0
 20
0.0
 30
0.0
 70
    16
 71
     6
 72
     3
  0
VERTEX
  5
3E776
  8
0
 10
1.99
 20
-0.055
 30
2.84
 70
    64
  0
VERTEX
  5
3E777
  8
0
 10
1.99
 20
-0.055
 30
2.84
 70
    64
  0
VERTEX
  5
3E778
  8
0
 10
1.99
 20
-0.055
 30
2.84
 70
    64
  0
VERTEX
  5
3E779
  8
0
 10
2.33
 20
0.4
 30
2.84
 70
    64
  0
VERTEX
  5
3E77A
  8
0
 10
2.33
 20
-0.055
 30
2.84
 70
    64
  0
VERTEX
  5
3E77B
  8
0
 10
2.33
 20
-0.055
 30
2.84
 70
    64
  0
VERTEX
  5
3E77C
  8
0
 10
2.33
 20
0.4
 30
3.51
 70
    64
  0
VERTEX
  5
3E77D
  8
0
 10
2.33
 20
-0.055
 30
3.51
 70
    64
  0
VERTEX
  5
3E77E
  8
0
 10
2.33
 20
-0.055
 30
2.84
 70
    64
  0
VERTEX
  5
3E77F
  8
0
 10
1.99
 20
-0.055
 30
3.51
 70
    64
  0
VERTEX
  5
3E780
  8
0
 10
1.99
 20
-0.055
 30
3.51
 70
    64
  0
VERTEX
  5
3E781
  8
0
 10
1.99
 20
-0.055
 30
2.84
 70
    64
  0
VERTEX
  5
3E782
  8
0
 10
1.99
 20
-0.055
 30
3.51
 70
    64
  0
VERTEX
  5
3E783
  8
0
 10
1.99
 20
-0.055
 30
3.51
 70
    64
  0
VERTEX
  5
3E784
  8
0
 10
1.99
 20
-0.055
 30
2.84
 70
    64
  0
VERTEX
  5
3E785
  8
0
 10
2.33
 20
0.4
 30
3.51
 70
    64
  0
VERTEX
  5
3E786
  8
0
 10
2.33
 20
0.4
 30
3.51
 70
    64
  0
VERTEX
  5
3E787
  8
0
 10
2.33
 20
0.4
 30
2.84
 70
    64
  0
SEQEND
  5
3E788
  8
0
  0
POLYLINE
  5
3E789
  8
0
 66
     1
 10
0.0
 20
0.0
 30
0.0
 70
    16
 71
     6
 72
     3
  0
VERTEX
  5
3E78A
  8
0
 10
2.33
 20
0.4
 30
3.51
 70
    64
  0
VERTEX
  5
3E78B
  8
0
 10
2.33
 20
0.4
 30
2.84
 70
    64
  0
VERTEX
  5
3E78C
  8
0
 10
2.33
 20
0.4
 30
2.84
 70
    64
  0
VERTEX
  5
3E78D
  8
0
 10
2.83
 20
0.4
 30
3.51
 70
    64
  0
VERTEX
  5
3E78E
  8
0
 10
2.83
 20
0.4
 30
2.84
 70
    64
  0
VERTEX
  5
3E78F
  8
0
 10
2.83
 20
0.4
 30
2.84
 70
    64
  0
VERTEX
  5
3E790
  8
0
 10
2.83
 20
-0.055
 30
3.51
 70
    64
  0
VERTEX
  5
3E791
  8
0
 10
2.83
 20
-0.055
 30
2.84
 70
    64
  0
VERTEX
  5
3E792
  8
0
 10
2.83
 20
0.4
 30
2.84
 70
    64
  0
VERTEX
  5
3E793
  8
0
 10
2.33
 20
-0.055
 30
3.51
 70
    64
  0
VERTEX
  5
3E794
  8
0
 10
2.33
 20
-0.055
 30
2.84
 70
    64
  0
VERTEX
  5
3E795
  8
0
 10
2.33
 20
0.4
 30
2.84
 70
    64
  0
VERTEX
  5
3E796
  8
0
 10
2.33
 20
-0.055
 30
3.51
 70
    64
  0
VERTEX
  5
3E797
  8
0
 10
2.33
 20
-0.055
 30
3.51
 70
    64
  0
VERTEX
  5
3E798
  8
0
 10
2.33
 20
0.4
 30
3.51
 70
    64
  0
VERTEX
  5
3E799
  8
0
 10
2.83
 20
-0.055
 30
3.51
 70
    64
  0
VERTEX
  5
3E79A
  8
0
 10
2.83
 20
-0.055
 30
3.51
 70
    64
  0
VERTEX
  5
3E79B
  8
0
 10
2.83
 20
0.4
 30
3.51
 70
    64
  0
SEQEND
  5
3E79C
  8
0
  0
POLYLINE
  5
3E79D
  8
0
 66
     1
 10
0.0
 20
0.0
 30
0.0
 70
    16
 71
     6
 72
     3
  0
VERTEX
  5
3E79E
  8
0
 10
0.84
 20
-0.055
 30
2.84
 70
    64
  0
VERTEX
  5
3E79F
  8
0
 10
0.84
 20
-0.055
 30
2.84
 70
    64
  0
VERTEX
  5
3E7A0
  8
0
 10
0.84
 20
-0.055
 30
2.84
 70
    64
  0
VERTEX
  5
3E7A1
  8
0
 10
0.5
 20
0.4
 30
2.84
 70
    64
  0
VERTEX
  5
3E7A2
  8
0
 10
0.5
 20
-0.055
 30
2.84
 70
    64
  0
VERTEX
  5
3E7A3
  8
0
 10
0.5
 20
-0.055
 30
2.84
 70
    64
  0
VERTEX
  5
3E7A4
  8
0
 10
0.5
 20
0.4
 30
3.51
 70
    64
  0
VERTEX
  5
3E7A5
  8
0
 10
0.5
 20
-0.055
 30
3.51
 70
    64
  0
VERTEX
  5
3E7A6
  8
0
 10
0.5
 20
-0.055
 30
2.84
 70
    64
  0
VERTEX
  5
3E7A7
  8
0
 10
0.84
 20
-0.055
 30
3.51
 70
    64
  0
VERTEX
  5
3E7A8
  8
0
 10
0.84
 20
-0.055
 30
3.51
 70
    64
  0
VERTEX
  5
3E7A9
  8
0
 10
0.84
 20
-0.055
 30
2.84
 70
    64
  0
VERTEX
  5
3E7AA
  8
0
 10
0.84
 20
-0.055
 30
3.51
 70
    64
  0
VERTEX
  5
3E7AB
  8
0
 10
0.84
 20
-0.055
 30
3.51
 70
    64
  0
VERTEX
  5
3E7AC
  8
0
 10
0.84
 20
-0.055
 30
2.84
 70
    64
  0
VERTEX
  5
3E7AD
  8
0
 10
0.5
 20
0.4
 30
3.51
 70
    64
  0
VERTEX
  5
3E7AE
  8
0
 10
0.5
 20
0.4
 30
3.51
 70
    64
  0
VERTEX
  5
3E7AF
  8
0
 10
0.5
 20
0.4
 30
2.84
 70
    64
  0
SEQEND
  5
3E7B0
  8
0
  0
POLYLINE
  5
3E7B1
  8
0
 66
     1
 10
0.0
 20
0.0
 30
0.0
 70
    16
 71
     6
 72
     3
  0
VERTEX
  5
3E7B2
  8
0
 10
0.5
 20
0.4
 30
3.51
 70
    64
  0
VERTEX
  5
3E7B3
  8
0
 10
0.5
 20
0.4
 30
2.84
 70
    64
  0
VERTEX
  5
3E7B4
  8
0
 10
0.5
 20
0.4
 30
2.84
 70
    64
  0
VERTEX
  5
3E7B5
  8
0
 10
0.0
 20
0.4
 30
3.51
 70
    64
  0
VERTEX
  5
3E7B6
  8
0
 10
0.0
 20
0.4
 30
2.84
 70
    64
  0
VERTEX
  5
3E7B7
  8
0
 10
0.0
 20
0.4
 30
2.84
 70
    64
  0
VERTEX
  5
3E7B8
  8
0
 10
0.0
 20
-0.055
 30
3.51
 70
    64
  0
VERTEX
  5
3E7B9
  8
0
 10
0.0
 20
-0.055
 30
2.84
 70
    64
  0
VERTEX
  5
3E7BA
  8
0
 10
0.0
 20
0.4
 30
2.84
 70
    64
  0
VERTEX
  5
3E7BB
  8
0
 10
0.5
 20
-0.055
 30
3.51
 70
    64
  0
VERTEX
  5
3E7BC
  8
0
 10
0.5
 20
-0.055
 30
2.84
 70
    64
  0
VERTEX
  5
3E7BD
  8
0
 10
0.5
 20
0.4
 30
2.84
 70
    64
  0
VERTEX
  5
3E7BE
  8
0
 10
0.5
 20
-0.055
 30
3.51
 70
    64
  0
VERTEX
  5
3E7BF
  8
0
 10
0.5
 20
-0.055
 30
3.51
 70
    64
  0
VERTEX
  5
3E7C0
  8
0
 10
0.5
 20
0.4
 30
3.51
 70
    64
  0
VERTEX
  5
3E7C1
  8
0
 10
0.0
 20
-0.055
 30
3.51
 70
    64
  0
VERTEX
  5
3E7C2
  8
0
 10
0.0
 20
-0.055
 30
3.51
 70
    64
  0
VERTEX
  5
3E7C3
  8
0
 10
0.0
 20
0.4
 30
3.51
 70
    64
  0
SEQEND
  5
3E7C4
  8
0
  0
POLYLINE
  5
3E7D1
  8
0
 66
     1
 10
0.0
 20
0.0
 30
2.84
 70
     1
  0
VERTEX
  5
3E8C3
  8
0
 10
0.346747
 20
-2.0175
 30
2.84
  0
VERTEX
  5
3E8C4
  8
0
 10
0.346747
 20
-1.8925
 30
2.84
  0
VERTEX
  5
3E8C5
  8
0
 10
0.455
 20
-1.83
 30
2.84
  0
VERTEX
  5
3E8C6
  8
0
 10
0.563253
 20
-1.8925
 30
2.84
  0
VERTEX
  5
3E8C7
  8
0
 10
0.563253
 20
-2.0175
 30
2.84
  0
VERTEX
  5
3E8C8
  8
0
 10
0.455
 20
-2.08
 30
2.84
  0
SEQEND
  5
3E8C9
  8
0
  0
POLYLINE
  5
3E7D9
  8
0
 66
     1
 10
0.0
 20
0.0
 30
2.84
 70
     1
  0
VERTEX
  5
3E8CA
  8
0
 10
2.483253
 20
-2.0175
 30
2.84
  0
VERTEX
  5
3E8CB
  8
0
 10
2.483253
 20
-1.8925
 30
2.84
  0
VERTEX
  5
3E8CC
  8
0
 10
2.375
 20
-1.83
 30
2.84
  0
VERTEX
  5
3E8CD
  8
0
 10
2.266747
 20
-1.8925
 30
2.84
  0
VERTEX
  5
3E8CE
  8
0
 10
2.266747
 20
-2.0175
 30
2.84
  0
VERTEX
  5
3E8CF
  8
0
 10
2.375
 20
-2.08
 30
2.84
  0
SEQEND
  5
3E8D0
  8
0
  0
CIRCLE
  5
3E7E1
  8
0
 10
2.375
 20
-1.955
 30
2.84
 40
0.125
  0
POLYLINE
  5
3E7E3
  8
0
 66
     1
 10
0.0
 20
0.0
 30
2.84
 70
     1
  0
VERTEX
  5
3E8D1
  8
0
 10
1.306747
 20
-2.0175
 30
2.84
  0
VERTEX
  5
3E8D2
  8
0
 10
1.306747
 20
-1.8925
 30
2.84
  0
VERTEX
  5
3E8D3
  8
0
 10
1.415
 20
-1.83
 30
2.84
  0
VERTEX
  5
3E8D4
  8
0
 10
1.523253
 20
-1.8925
 30
2.84
  0
VERTEX
  5
3E8D5
  8
0
 10
1.523253
 20
-2.0175
 30
2.84
  0
VERTEX
  5
3E8D6
  8
0
 10
1.415
 20
-2.08
 30
2.84
  0
SEQEND
  5
3E8D7
  8
0
  0
CIRCLE
  5
3E7EB
  8
0
 10
1.415
 20
-1.955
 30
2.84
 40
0.125
  0
3DFACE
  5
3E7EC
  8
0
 10
0.23
 20
-2.46
 30
1.66
 11
0.69
 21
-2.46
 31
1.66
 12
0.69
 22
-2.46
 32
1.1
 13
0.23
 23
-2.46
 33
1.1
  0
3DFACE
  5
3E7ED
  8
0
 10
2.6
 20
-2.46
 30
1.66
 11
2.14
 21
-2.46
 31
1.66
 12
2.14
 22
-2.46
 32
1.1
 13
2.6
 23
-2.46
 33
1.1
  0
3DFACE
  5
3E7EE
  8
0
 10
1.185
 20
-2.46
 30
1.66
 11
1.645
 21
-2.46
 31
1.66
 12
1.645
 22
-2.46
 32
1.1
 13
1.185
 23
-2.46
 33
1.1
  0
POLYLINE
  5
3E7EF
  8
0
 66
     1
 10
0.0
 20
0.0
 30
2.84
 70
     1
  0
VERTEX
  5
3E8D8
  8
0
 10
0.346747
 20
0.6275
 30
2.84
  0
VERTEX
  5
3E8D9
  8
0
 10
0.346747
 20
0.5025
 30
2.84
  0
VERTEX
  5
3E8DA
  8
0
 10
0.455
 20
0.44
 30
2.84
  0
VERTEX
  5
3E8DB
  8
0
 10
0.563253
 20
0.5025
 30
2.84
  0
VERTEX
  5
3E8DC
  8
0
 10
0.563253
 20
0.6275
 30
2.84
  0
VERTEX
  5
3E8DD
  8
0
 10
0.455
 20
0.69
 30
2.84
  0
SEQEND
  5
3E8DE
  8
0
  0
CIRCLE
  5
3E7F7
  8
0
 10
0.455
 20
0.565
 30
2.84
 40
0.125
  0
CIRCLE
  5
3E7F8
  8
0
 10
1.415
 20
0.565
 30
2.84
 40
0.125
  0
POLYLINE
  5
3E7F9
  8
0
 66
     1
 10
0.0
 20
0.0
 30
2.84
 70
     1
  0
VERTEX
  5
3E8DF
  8
0
 10
1.306747
 20
0.6275
 30
2.84
  0
VERTEX
  5
3E8E0
  8
0
 10
1.306747
 20
0.5025
 30
2.84
  0
VERTEX
  5
3E8E1
  8
0
 10
1.415
 20
0.44
 30
2.84
  0
VERTEX
  5
3E8E2
  8
0
 10
1.523253
 20
0.5025
 30
2.84
  0
VERTEX
  5
3E8E3
  8
0
 10
1.523253
 20
0.6275
 30
2.84
  0
VERTEX
  5
3E8E4
  8
0
 10
1.415
 20
0.69
 30
2.84
  0
SEQEND
  5
3E8E5
  8
0
  0
CIRCLE
  5
3E801
  8
0
 10
2.375
 20
0.565
 30
2.84
 40
0.125
  0
POLYLINE
  5
3E802
  8
0
 66
     1
 10
0.0
 20
0.0
 30
2.84
 70
     1
  0
VERTEX
  5
3E8E6
  8
0
 10
2.483253
 20
0.6275
 30
2.84
  0
VERTEX
  5
3E8E7
  8
0
 10
2.483253
 20
0.5025
 30
2.84
  0
VERTEX
  5
3E8E8
  8
0
 10
2.375
 20
0.44
 30
2.84
  0
VERTEX
  5
3E8E9
  8
0
 10
2.266747
 20
0.5025
 30
2.84
  0
VERTEX
  5
3E8EA
  8
0
 10
2.266747
 20
0.6275
 30
2.84
  0
VERTEX
  5
3E8EB
  8
0
 10
2.375
 20
0.69
 30
2.84
  0
SEQEND
  5
3E8EC
  8
0
  0
3DFACE
  5
3E80A
  8
0
 10
2.6
 20
1.07
 30
1.66
 11
2.14
 21
1.07
 31
1.66
 12
2.14
 22
1.07
 32
1.1
 13
2.6
 23
1.07
 33
1.1
  0
3DFACE
  5
3E80B
  8
0
 10
1.185
 20
1.07
 30
1.66
 11
1.645
 21
1.07
 31
1.66
 12
1.645
 22
1.07
 32
1.1
 13
1.185
 23
1.07
 33
1.1
  0
3DFACE
  5
3E80C
  8
0
 10
0.23
 20
1.07
 30
1.66
 11
0.69
 21
1.07
 31
1.66
 12
0.69
 22
1.07
 32
1.1
 13
0.23
 23
1.07
 33
1.1
  0
ENDSEC
  0
EOF
