  0
SECTION
  2
HEADER
  9
$ACADVER
  1
AC1009
  9
$INSBASE
 10
0.0
 20
0.0
 30
0.0
  9
$EXTMIN
 10
-0.045735
 20
-2.440698
 30
-0.000186
  9
$EXTMAX
 10
2.165351
 20
0.950244
 30
3.050186
  9
$LIMMIN
 10
0.0
 20
0.0
  9
$LIMMAX
 10
12.0
 20
9.0
  9
$ORTHOMODE
 70
     1
  9
$REGENMODE
 70
     1
  9
$FILLMODE
 70
     1
  9
$QTEXTMODE
 70
     0
  9
$MIRRTEXT
 70
     1
  9
$DRAGMODE
 70
     2
  9
$LTSCALE
 40
1.0
  9
$OSMODE
 70
     8
  9
$ATTMODE
 70
     0
  9
$TEXTSIZE
 40
0.12
  9
$TRACEWID
 40
0.05
  9
$TEXTSTYLE
  7
STANDARD
  9
$CLAYER
  8
0
  9
$CELTYPE
  6
BYLAYER
  9
$CECOLOR
 62
   256
  9
$DIMSCALE
 40
1.0
  9
$DIMASZ
 40
0.18
  9
$DIMEXO
 40
0.0625
  9
$DIMDLI
 40
0.38
  9
$DIMRND
 40
0.0
  9
$DIMDLE
 40
0.0
  9
$DIMEXE
 40
0.18
  9
$DIMTP
 40
0.0
  9
$DIMTM
 40
0.0
  9
$DIMTXT
 40
0.18
  9
$DIMCEN
 40
0.09
  9
$DIMTSZ
 40
0.0
  9
$DIMTOL
 70
     0
  9
$DIMLIM
 70
     0
  9
$DIMTIH
 70
     1
  9
$DIMTOH
 70
     1
  9
$DIMSE1
 70
     0
  9
$DIMSE2
 70
     0
  9
$DIMTAD
 70
     0
  9
$DIMZIN
 70
     0
  9
$DIMBLK
  1

  9
$DIMASO
 70
     1
  9
$DIMSHO
 70
     1
  9
$DIMPOST
  1

  9
$DIMAPOST
  1

  9
$DIMALT
 70
     0
  9
$DIMALTD
 70
     2
  9
$DIMALTF
 40
25.4
  9
$DIMLFAC
 40
1.0
  9
$DIMTOFL
 70
     0
  9
$DIMTVP
 40
0.0
  9
$DIMTIX
 70
     0
  9
$DIMSOXD
 70
     0
  9
$DIMSAH
 70
     0
  9
$DIMBLK1
  1

  9
$DIMBLK2
  1

  9
$DIMSTYLE
  2
STANDARD
  9
$DIMCLRD
 70
     0
  9
$DIMCLRE
 70
     0
  9
$DIMCLRT
 70
     0
  9
$DIMTFAC
 40
1.0
  9
$DIMGAP
 40
0.09
  9
$LUNITS
 70
     2
  9
$LUPREC
 70
     4
  9
$SKETCHINC
 40
0.1
  9
$FILLETRAD
 40
0.05
  9
$AUNITS
 70
     0
  9
$AUPREC
 70
     0
  9
$MENU
  1
acad
  9
$ELEVATION
 40
0.0
  9
$PELEVATION
 40
0.0
  9
$THICKNESS
 40
0.0
  9
$LIMCHECK
 70
     0
  9
$BLIPMODE
 70
     0
  9
$CHAMFERA
 40
0.0
  9
$CHAMFERB
 40
0.0
  9
$SKPOLY
 70
     0
  9
$TDCREATE
 40
2450671.917666
  9
$TDUPDATE
 40
2451166.499709
  9
$TDINDWG
 40
0.001117
  9
$TDUSRTIMER
 40
0.001117
  9
$USRTIMER
 70
     1
  9
$ANGBASE
 50
0.0
  9
$ANGDIR
 70
     0
  9
$PDMODE
 70
    96
  9
$PDSIZE
 40
0.09
  9
$PLINEWID
 40
0.0
  9
$COORDS
 70
     1
  9
$SPLFRAME
 70
     1
  9
$SPLINETYPE
 70
     6
  9
$SPLINESEGS
 70
     8
  9
$ATTDIA
 70
     0
  9
$ATTREQ
 70
     1
  9
$HANDLING
 70
     1
  9
$HANDSEED
  5
3E6E2
  9
$SURFTAB1
 70
     6
  9
$SURFTAB2
 70
     6
  9
$SURFTYPE
 70
     6
  9
$SURFU
 70
     6
  9
$SURFV
 70
     6
  9
$UCSNAME
  2

  9
$UCSORG
 10
0.0
 20
0.0
 30
0.0
  9
$UCSXDIR
 10
1.0
 20
0.0
 30
0.0
  9
$UCSYDIR
 10
0.0
 20
1.0
 30
0.0
  9
$PUCSNAME
  2

  9
$PUCSORG
 10
0.0
 20
0.0
 30
0.0
  9
$PUCSXDIR
 10
1.0
 20
0.0
 30
0.0
  9
$PUCSYDIR
 10
0.0
 20
1.0
 30
0.0
  9
$USERI1
 70
     0
  9
$USERI2
 70
     0
  9
$USERI3
 70
     0
  9
$USERI4
 70
     0
  9
$USERI5
 70
     0
  9
$USERR1
 40
0.0
  9
$USERR2
 40
0.0
  9
$USERR3
 40
0.0
  9
$USERR4
 40
0.0
  9
$USERR5
 40
0.0
  9
$WORLDVIEW
 70
     1
  9
$SHADEDGE
 70
     3
  9
$SHADEDIF
 70
    70
  9
$TILEMODE
 70
     1
  9
$MAXACTVP
 70
    16
  9
$PLIMCHECK
 70
     0
  9
$PEXTMIN
 10
1.000000E+020
 20
1.000000E+020
 30
1.000000E+020
  9
$PEXTMAX
 10
-1.000000E+020
 20
-1.000000E+020
 30
-1.000000E+020
  9
$PLIMMIN
 10
0.0
 20
0.0
  9
$PLIMMAX
 10
12.0
 20
9.0
  9
$UNITMODE
 70
     0
  9
$VISRETAIN
 70
     0
  9
$PLINEGEN
 70
     0
  9
$PSLTSCALE
 70
     1
  0
ENDSEC
  0
SECTION
  2
TABLES
  0
TABLE
  2
VPORT
 70
     2
  0
VPORT
  2
*ACTIVE
 70
     0
 10
0.0
 20
0.0
 11
1.0
 21
1.0
 12
1.059808
 22
-0.745227
 13
0.0
 23
0.0
 14
0.25
 24
0.25
 15
0.25
 25
0.25
 16
0.0
 26
0.0
 36
1.0
 17
0.0
 27
0.0
 37
0.0
 40
3.605835
 41
1.603066
 42
50.0
 43
0.0
 44
0.0
 50
0.0
 51
0.0
 71
     0
 72
 20000
 73
     1
 74
     1
 75
     0
 76
     0
 77
     0
 78
     0
  0
ENDTAB
  0
TABLE
  2
LTYPE
 70
     1
  0
LTYPE
  2
CONTINUOUS
 70
     0
  3
Solid line
 72
    65
 73
     0
 40
0.0
  0
ENDTAB
  0
TABLE
  2
LAYER
 70
     2
  0
LAYER
  2
0
 70
     0
 62
     7
  6
CONTINUOUS
  0
LAYER
  2
DIMS-MTG-HOLES
 70
     0
 62
     1
  6
CONTINUOUS
  0
ENDTAB
  0
TABLE
  2
STYLE
 70
     1
  0
STYLE
  2
STANDARD
 70
     0
 40
0.0
 41
1.0
 50
0.0
 71
     0
 42
0.12
  3
txt
  4

  0
ENDTAB
  0
TABLE
  2
VIEW
 70
     0
  0
ENDTAB
  0
TABLE
  2
UCS
 70
     0
  0
ENDTAB
  0
TABLE
  2
APPID
 70
     1
  0
APPID
  2
ACAD
 70
     0
  0
ENDTAB
  0
TABLE
  2
DIMSTYLE
 70
     1
  0
DIMSTYLE
  2
STANDARD
 70
     0
  3

  4

  5

  6

  7

 40
1.0
 41
0.18
 42
0.0625
 43
0.38
 44
0.18
 45
0.0
 46
0.0
 47
0.0
 48
0.0
140
0.18
141
0.09
142
0.0
143
25.4
144
1.0
145
0.0
146
1.0
147
0.09
 71
     0
 72
     0
 73
     1
 74
     1
 75
     0
 76
     0
 77
     0
 78
     0
170
     0
171
     2
172
     0
173
     0
174
     0
175
     0
176
     0
177
     0
178
     0
  0
ENDTAB
  0
ENDSEC
  0
SECTION
  2
BLOCKS
  0
BLOCK
  8
0
  2
$MODEL_SPACE
 70
     0
 10
0.0
 20
0.0
 30
0.0
  3
$MODEL_SPACE
  1

  0
ENDBLK
  5
3E666
  8
0
  0
BLOCK
 67
     1
  8
0
  2
$PAPER_SPACE
 70
     0
 10
0.0
 20
0.0
 30
0.0
  3
$PAPER_SPACE
  1

  0
ENDBLK
  5
3E664
 67
     1
  8
0
  0
ENDSEC
  0
SECTION
  2
ENTITIES
  0
POLYLINE
  5
3E1C3
  8
0
 66
     1
 10
0.0
 20
0.0
 30
0.0
 70
    16
 71
     6
 72
     3
  0
VERTEX
  5
3E1C4
  8
0
 10
0.85
 20
-2.44
 30
0.15
 70
    64
  0
VERTEX
  5
3E1C5
  8
0
 10
0.85
 20
-2.44
 30
0.0
 70
    64
  0
VERTEX
  5
3E1C6
  8
0
 10
0.85
 20
-2.44
 30
0.0
 70
    64
  0
VERTEX
  5
3E1C7
  8
0
 10
0.47
 20
-2.44
 30
0.15
 70
    64
  0
VERTEX
  5
3E1C8
  8
0
 10
0.47
 20
-2.44
 30
0.0
 70
    64
  0
VERTEX
  5
3E1C9
  8
0
 10
0.47
 20
-2.44
 30
0.0
 70
    64
  0
VERTEX
  5
3E1CA
  8
0
 10
0.47
 20
-2.16
 30
0.15
 70
    64
  0
VERTEX
  5
3E1CB
  8
0
 10
0.47
 20
-2.16
 30
0.0
 70
    64
  0
VERTEX
  5
3E1CC
  8
0
 10
0.47
 20
-2.44
 30
0.0
 70
    64
  0
VERTEX
  5
3E1CD
  8
0
 10
0.85
 20
-2.16
 30
0.15
 70
    64
  0
VERTEX
  5
3E1CE
  8
0
 10
0.85
 20
-2.16
 30
0.0
 70
    64
  0
VERTEX
  5
3E1CF
  8
0
 10
0.85
 20
-2.44
 30
0.0
 70
    64
  0
VERTEX
  5
3E1D0
  8
0
 10
0.85
 20
-2.16
 30
0.15
 70
    64
  0
VERTEX
  5
3E1D1
  8
0
 10
0.85
 20
-2.16
 30
0.15
 70
    64
  0
VERTEX
  5
3E1D2
  8
0
 10
0.85
 20
-2.44
 30
0.15
 70
    64
  0
VERTEX
  5
3E1D3
  8
0
 10
0.47
 20
-2.16
 30
0.15
 70
    64
  0
VERTEX
  5
3E1D4
  8
0
 10
0.47
 20
-2.16
 30
0.15
 70
    64
  0
VERTEX
  5
3E1D5
  8
0
 10
0.47
 20
-2.44
 30
0.15
 70
    64
  0
SEQEND
  5
3E1D6
  8
0
  0
CIRCLE
  5
3E1D8
  8
0
 10
0.66
 20
-2.3
 30
0.15
 40
0.09
  0
CIRCLE
  5
3E1D9
  8
0
 10
0.66
 20
-2.3
 30
0.0
 40
0.09
  0
LINE
  5
3E1DA
  8
DIMS-MTG-HOLES
  6
CONTINUOUS
 10
0.57
 20
-2.3
 30
0.0
 11
0.75
 21
-2.3
 31
0.0
  0
LINE
  5
3E1DB
  8
DIMS-MTG-HOLES
  6
CONTINUOUS
 10
0.66
 20
-2.39
 30
0.0
 11
0.66
 21
-2.21
 31
0.0
  0
POLYLINE
  5
3E1DC
  8
0
 66
     1
 10
0.0
 20
0.0
 30
0.0
 70
    16
 71
     6
 72
     3
  0
VERTEX
  5
3E1DD
  8
0
 10
1.65
 20
0.67
 30
0.15
 70
    64
  0
VERTEX
  5
3E1DE
  8
0
 10
1.65
 20
0.67
 30
0.0
 70
    64
  0
VERTEX
  5
3E1DF
  8
0
 10
1.65
 20
0.67
 30
0.0
 70
    64
  0
VERTEX
  5
3E1E0
  8
0
 10
1.27
 20
0.67
 30
0.15
 70
    64
  0
VERTEX
  5
3E1E1
  8
0
 10
1.27
 20
0.67
 30
0.0
 70
    64
  0
VERTEX
  5
3E1E2
  8
0
 10
1.27
 20
0.67
 30
0.0
 70
    64
  0
VERTEX
  5
3E1E3
  8
0
 10
1.27
 20
0.95
 30
0.15
 70
    64
  0
VERTEX
  5
3E1E4
  8
0
 10
1.27
 20
0.95
 30
0.0
 70
    64
  0
VERTEX
  5
3E1E5
  8
0
 10
1.27
 20
0.67
 30
0.0
 70
    64
  0
VERTEX
  5
3E1E6
  8
0
 10
1.65
 20
0.95
 30
0.15
 70
    64
  0
VERTEX
  5
3E1E7
  8
0
 10
1.65
 20
0.95
 30
0.0
 70
    64
  0
VERTEX
  5
3E1E8
  8
0
 10
1.65
 20
0.67
 30
0.0
 70
    64
  0
VERTEX
  5
3E1E9
  8
0
 10
1.65
 20
0.95
 30
0.15
 70
    64
  0
VERTEX
  5
3E1EA
  8
0
 10
1.65
 20
0.95
 30
0.15
 70
    64
  0
VERTEX
  5
3E1EB
  8
0
 10
1.65
 20
0.67
 30
0.15
 70
    64
  0
VERTEX
  5
3E1EC
  8
0
 10
1.27
 20
0.95
 30
0.15
 70
    64
  0
VERTEX
  5
3E1ED
  8
0
 10
1.27
 20
0.95
 30
0.15
 70
    64
  0
VERTEX
  5
3E1EE
  8
0
 10
1.27
 20
0.67
 30
0.15
 70
    64
  0
SEQEND
  5
3E1EF
  8
0
  0
LINE
  5
3E1F0
  8
DIMS-MTG-HOLES
  6
CONTINUOUS
 10
1.37
 20
0.81
 30
0.0
 11
1.55
 21
0.81
 31
0.0
  0
CIRCLE
  5
3E1F1
  8
0
 10
1.46
 20
0.81
 30
0.0
 40
0.09
  0
LINE
  5
3E1F2
  8
DIMS-MTG-HOLES
  6
CONTINUOUS
 10
1.46
 20
0.72
 30
0.0
 11
1.46
 21
0.9
 31
0.0
  0
POLYLINE
  5
3E1F8
  8
0
 66
     1
 10
0.0
 20
0.0
 30
0.0
 70
    16
 71
     6
 72
     3
  0
VERTEX
  5
3E1F9
  8
0
 10
0.9
 20
0.67
 30
0.27
 70
    64
  0
VERTEX
  5
3E1FA
  8
0
 10
0.9
 20
0.67
 30
0.0
 70
    64
  0
VERTEX
  5
3E1FB
  8
0
 10
0.9
 20
0.67
 30
0.0
 70
    64
  0
VERTEX
  5
3E1FC
  8
0
 10
0.52
 20
0.67
 30
0.27
 70
    64
  0
VERTEX
  5
3E1FD
  8
0
 10
0.52
 20
0.67
 30
0.0
 70
    64
  0
VERTEX
  5
3E1FE
  8
0
 10
0.52
 20
0.67
 30
0.0
 70
    64
  0
VERTEX
  5
3E1FF
  8
0
 10
0.52
 20
0.87
 30
0.27
 70
    64
  0
VERTEX
  5
3E200
  8
0
 10
0.52
 20
0.87
 30
0.0
 70
    64
  0
VERTEX
  5
3E201
  8
0
 10
0.52
 20
0.67
 30
0.0
 70
    64
  0
VERTEX
  5
3E202
  8
0
 10
0.9
 20
0.87
 30
0.27
 70
    64
  0
VERTEX
  5
3E203
  8
0
 10
0.9
 20
0.87
 30
0.0
 70
    64
  0
VERTEX
  5
3E204
  8
0
 10
0.9
 20
0.67
 30
0.0
 70
    64
  0
VERTEX
  5
3E205
  8
0
 10
0.9
 20
0.87
 30
0.27
 70
    64
  0
VERTEX
  5
3E206
  8
0
 10
0.9
 20
0.87
 30
0.27
 70
    64
  0
VERTEX
  5
3E207
  8
0
 10
0.9
 20
0.67
 30
0.27
 70
    64
  0
VERTEX
  5
3E208
  8
0
 10
0.52
 20
0.87
 30
0.27
 70
    64
  0
VERTEX
  5
3E209
  8
0
 10
0.52
 20
0.87
 30
0.27
 70
    64
  0
VERTEX
  5
3E20A
  8
0
 10
0.52
 20
0.67
 30
0.27
 70
    64
  0
SEQEND
  5
3E20B
  8
0
  0
3DFACE
  5
3E277
  8
0
 10
0.0
 20
-0.62
 30
1.45
 11
0.0
 21
-0.87
 31
1.45
 12
0.0
 22
-0.87
 32
0.85
 13
0.0
 23
-0.62
 33
0.85
  0
3DFACE
  5
3E27D
  8
0
 10
0.0
 20
-0.62
 30
0.97
 11
0.0
 21
-0.87
 31
0.97
 12
0.0
 22
-0.87
 32
1.14
 13
0.0
 23
-0.62
 33
1.14
  0
POINT
  5
3E27F
  8
DIMS-MTG-HOLES
 10
0.0
 20
-0.745
 30
1.055
  0
POLYLINE
  5
3E371
  8
0
 66
     1
 10
0.0
 20
0.0
 30
0.0
 70
    16
 71
     6
 72
     3
  0
VERTEX
  5
3E372
  8
0
 10
2.12
 20
-2.16
 30
0.2
 70
    64
  0
VERTEX
  5
3E373
  8
0
 10
2.12
 20
-2.16
 30
0.0
 70
    64
  0
VERTEX
  5
3E374
  8
0
 10
2.12
 20
-2.16
 30
0.0
 70
    64
  0
VERTEX
  5
3E375
  8
0
 10
0.0
 20
-2.16
 30
0.2
 70
    64
  0
VERTEX
  5
3E376
  8
0
 10
0.0
 20
-2.16
 30
0.0
 70
    64
  0
VERTEX
  5
3E377
  8
0
 10
0.0
 20
-2.16
 30
0.0
 70
    64
  0
VERTEX
  5
3E378
  8
0
 10
0.0
 20
-1.39
 30
0.2
 70
    64
  0
VERTEX
  5
3E379
  8
0
 10
0.0
 20
-1.39
 30
0.0
 70
    64
  0
VERTEX
  5
3E37A
  8
0
 10
0.0
 20
-2.16
 30
0.0
 70
    64
  0
VERTEX
  5
3E37B
  8
0
 10
2.12
 20
-1.39
 30
0.2
 70
    64
  0
VERTEX
  5
3E37C
  8
0
 10
2.12
 20
-1.39
 30
0.0
 70
    64
  0
VERTEX
  5
3E37D
  8
0
 10
2.12
 20
-2.16
 30
0.0
 70
    64
  0
VERTEX
  5
3E37E
  8
0
 10
2.12
 20
-1.39
 30
0.2
 70
    64
  0
VERTEX
  5
3E37F
  8
0
 10
2.12
 20
-1.39
 30
0.2
 70
    64
  0
VERTEX
  5
3E380
  8
0
 10
2.12
 20
-2.16
 30
0.2
 70
    64
  0
VERTEX
  5
3E381
  8
0
 10
0.0
 20
-1.39
 30
0.2
 70
    64
  0
VERTEX
  5
3E382
  8
0
 10
0.0
 20
-1.39
 30
0.2
 70
    64
  0
VERTEX
  5
3E383
  8
0
 10
0.0
 20
-2.16
 30
0.2
 70
    64
  0
SEQEND
  5
3E384
  8
0
  0
POLYLINE
  5
3E385
  8
0
 66
     1
 10
0.0
 20
0.0
 30
0.0
 70
    16
 71
     6
 72
     3
  0
VERTEX
  5
3E386
  8
0
 10
2.12
 20
-2.16
 30
2.15
 70
    64
  0
VERTEX
  5
3E387
  8
0
 10
2.12
 20
-2.16
 30
0.2
 70
    64
  0
VERTEX
  5
3E388
  8
0
 10
2.12
 20
-2.16
 30
0.2
 70
    64
  0
VERTEX
  5
3E389
  8
0
 10
0.0
 20
-2.16
 30
2.15
 70
    64
  0
VERTEX
  5
3E38A
  8
0
 10
0.0
 20
-2.16
 30
0.2
 70
    64
  0
VERTEX
  5
3E38B
  8
0
 10
0.0
 20
-2.16
 30
0.2
 70
    64
  0
VERTEX
  5
3E38C
  8
0
 10
0.0
 20
0.67
 30
2.15
 70
    64
  0
VERTEX
  5
3E38D
  8
0
 10
0.0
 20
0.67
 30
0.2
 70
    64
  0
VERTEX
  5
3E38E
  8
0
 10
0.0
 20
-2.16
 30
0.2
 70
    64
  0
VERTEX
  5
3E38F
  8
0
 10
2.12
 20
0.67
 30
2.15
 70
    64
  0
VERTEX
  5
3E390
  8
0
 10
2.12
 20
0.67
 30
0.2
 70
    64
  0
VERTEX
  5
3E391
  8
0
 10
2.12
 20
-2.16
 30
0.2
 70
    64
  0
VERTEX
  5
3E392
  8
0
 10
2.12
 20
0.67
 30
2.15
 70
    64
  0
VERTEX
  5
3E393
  8
0
 10
2.12
 20
0.67
 30
2.15
 70
    64
  0
VERTEX
  5
3E394
  8
0
 10
2.12
 20
-2.16
 30
2.15
 70
    64
  0
VERTEX
  5
3E395
  8
0
 10
0.0
 20
0.67
 30
2.15
 70
    64
  0
VERTEX
  5
3E396
  8
0
 10
0.0
 20
0.67
 30
2.15
 70
    64
  0
VERTEX
  5
3E397
  8
0
 10
0.0
 20
-2.16
 30
2.15
 70
    64
  0
SEQEND
  5
3E398
  8
0
  0
POLYLINE
  5
3E399
  8
0
 66
     1
 10
0.0
 20
0.0
 30
0.0
 70
    16
 71
     6
 72
     3
  0
VERTEX
  5
3E39A
  8
0
 10
2.12
 20
0.0
 30
0.2
 70
    64
  0
VERTEX
  5
3E39B
  8
0
 10
2.12
 20
0.0
 30
0.0
 70
    64
  0
VERTEX
  5
3E39C
  8
0
 10
2.12
 20
0.0
 30
0.0
 70
    64
  0
VERTEX
  5
3E39D
  8
0
 10
0.0
 20
0.0
 30
0.2
 70
    64
  0
VERTEX
  5
3E39E
  8
0
 10
0.0
 20
0.0
 30
0.0
 70
    64
  0
VERTEX
  5
3E39F
  8
0
 10
0.0
 20
0.0
 30
0.0
 70
    64
  0
VERTEX
  5
3E3A0
  8
0
 10
0.0
 20
0.67
 30
0.2
 70
    64
  0
VERTEX
  5
3E3A1
  8
0
 10
0.0
 20
0.67
 30
0.0
 70
    64
  0
VERTEX
  5
3E3A2
  8
0
 10
0.0
 20
0.0
 30
0.0
 70
    64
  0
VERTEX
  5
3E3A3
  8
0
 10
2.12
 20
0.67
 30
0.2
 70
    64
  0
VERTEX
  5
3E3A4
  8
0
 10
2.12
 20
0.67
 30
0.0
 70
    64
  0
VERTEX
  5
3E3A5
  8
0
 10
2.12
 20
0.0
 30
0.0
 70
    64
  0
VERTEX
  5
3E3A6
  8
0
 10
2.12
 20
0.67
 30
0.2
 70
    64
  0
VERTEX
  5
3E3A7
  8
0
 10
2.12
 20
0.67
 30
0.2
 70
    64
  0
VERTEX
  5
3E3A8
  8
0
 10
2.12
 20
0.0
 30
0.2
 70
    64
  0
VERTEX
  5
3E3A9
  8
0
 10
0.0
 20
0.67
 30
0.2
 70
    64
  0
VERTEX
  5
3E3AA
  8
0
 10
0.0
 20
0.67
 30
0.2
 70
    64
  0
VERTEX
  5
3E3AB
  8
0
 10
0.0
 20
0.0
 30
0.2
 70
    64
  0
SEQEND
  5
3E3AC
  8
0
  0
POLYLINE
  5
3E3AD
  8
0
 66
     1
 10
0.0
 20
0.0
 30
0.0
 70
    16
 71
     6
 72
     3
  0
VERTEX
  5
3E3AE
  8
0
 10
2.12
 20
-1.385
 30
2.9
 70
    64
  0
VERTEX
  5
3E3AF
  8
0
 10
2.12
 20
-1.385
 30
2.15
 70
    64
  0
VERTEX
  5
3E3B0
  8
0
 10
2.12
 20
-1.385
 30
2.15
 70
    64
  0
VERTEX
  5
3E3B1
  8
0
 10
0.0
 20
-1.385
 30
2.9
 70
    64
  0
VERTEX
  5
3E3B2
  8
0
 10
0.0
 20
-1.385
 30
2.15
 70
    64
  0
VERTEX
  5
3E3B3
  8
0
 10
0.0
 20
-1.385
 30
2.15
 70
    64
  0
VERTEX
  5
3E3B4
  8
0
 10
0.0
 20
-0.105
 30
2.9
 70
    64
  0
VERTEX
  5
3E3B5
  8
0
 10
0.0
 20
-0.105
 30
2.15
 70
    64
  0
VERTEX
  5
3E3B6
  8
0
 10
0.0
 20
-1.385
 30
2.15
 70
    64
  0
VERTEX
  5
3E3B7
  8
0
 10
2.12
 20
-0.105
 30
2.9
 70
    64
  0
VERTEX
  5
3E3B8
  8
0
 10
2.12
 20
-0.105
 30
2.15
 70
    64
  0
VERTEX
  5
3E3B9
  8
0
 10
2.12
 20
-1.385
 30
2.15
 70
    64
  0
VERTEX
  5
3E3BA
  8
0
 10
2.12
 20
-0.105
 30
2.9
 70
    64
  0
VERTEX
  5
3E3BB
  8
0
 10
2.12
 20
-0.105
 30
2.9
 70
    64
  0
VERTEX
  5
3E3BC
  8
0
 10
2.12
 20
-1.385
 30
2.9
 70
    64
  0
VERTEX
  5
3E3BD
  8
0
 10
0.0
 20
-0.105
 30
2.9
 70
    64
  0
VERTEX
  5
3E3BE
  8
0
 10
0.0
 20
-0.105
 30
2.9
 70
    64
  0
VERTEX
  5
3E3BF
  8
0
 10
0.0
 20
-1.385
 30
2.9
 70
    64
  0
SEQEND
  5
3E3C0
  8
0
  0
POLYLINE
  5
3E3C1
  8
0
 66
     1
 10
0.0
 20
0.0
 30
0.0
 70
    16
 71
     6
 72
     3
  0
VERTEX
  5
3E3C2
  8
0
 10
0.46
 20
-1.485
 30
2.9
 70
    64
  0
VERTEX
  5
3E3C3
  8
0
 10
0.46
 20
-1.485
 30
2.15
 70
    64
  0
VERTEX
  5
3E3C4
  8
0
 10
0.46
 20
-1.485
 30
2.15
 70
    64
  0
VERTEX
  5
3E3C5
  8
0
 10
0.0
 20
-1.485
 30
2.9
 70
    64
  0
VERTEX
  5
3E3C6
  8
0
 10
0.0
 20
-1.485
 30
2.15
 70
    64
  0
VERTEX
  5
3E3C7
  8
0
 10
0.0
 20
-1.485
 30
2.15
 70
    64
  0
VERTEX
  5
3E3C8
  8
0
 10
0.0
 20
-1.385
 30
2.9
 70
    64
  0
VERTEX
  5
3E3C9
  8
0
 10
0.0
 20
-1.385
 30
2.15
 70
    64
  0
VERTEX
  5
3E3CA
  8
0
 10
0.0
 20
-1.485
 30
2.15
 70
    64
  0
VERTEX
  5
3E3CB
  8
0
 10
0.46
 20
-1.385
 30
2.9
 70
    64
  0
VERTEX
  5
3E3CC
  8
0
 10
0.46
 20
-1.385
 30
2.15
 70
    64
  0
VERTEX
  5
3E3CD
  8
0
 10
0.46
 20
-1.485
 30
2.15
 70
    64
  0
VERTEX
  5
3E3CE
  8
0
 10
0.46
 20
-1.385
 30
2.9
 70
    64
  0
VERTEX
  5
3E3CF
  8
0
 10
0.46
 20
-1.385
 30
2.9
 70
    64
  0
VERTEX
  5
3E3D0
  8
0
 10
0.46
 20
-1.485
 30
2.9
 70
    64
  0
VERTEX
  5
3E3D1
  8
0
 10
0.0
 20
-1.385
 30
2.9
 70
    64
  0
VERTEX
  5
3E3D2
  8
0
 10
0.0
 20
-1.385
 30
2.9
 70
    64
  0
VERTEX
  5
3E3D3
  8
0
 10
0.0
 20
-1.485
 30
2.9
 70
    64
  0
SEQEND
  5
3E3D4
  8
0
  0
POLYLINE
  5
3E3E9
  8
0
 66
     1
 10
0.0
 20
0.0
 30
0.0
 70
    16
 71
     6
 72
     3
  0
VERTEX
  5
3E3EA
  8
0
 10
0.46
 20
-1.485
 30
2.15
 70
    64
  0
VERTEX
  5
3E3EB
  8
0
 10
0.46
 20
-1.485
 30
2.15
 70
    64
  0
VERTEX
  5
3E3EC
  8
0
 10
0.46
 20
-1.485
 30
2.15
 70
    64
  0
VERTEX
  5
3E3ED
  8
0
 10
0.0
 20
-1.82
 30
2.15
 70
    64
  0
VERTEX
  5
3E3EE
  8
0
 10
0.0
 20
-1.485
 30
2.15
 70
    64
  0
VERTEX
  5
3E3EF
  8
0
 10
0.0
 20
-1.485
 30
2.15
 70
    64
  0
VERTEX
  5
3E3F0
  8
0
 10
0.0
 20
-1.82
 30
2.9
 70
    64
  0
VERTEX
  5
3E3F1
  8
0
 10
0.0
 20
-1.485
 30
2.9
 70
    64
  0
VERTEX
  5
3E3F2
  8
0
 10
0.0
 20
-1.485
 30
2.15
 70
    64
  0
VERTEX
  5
3E3F3
  8
0
 10
0.46
 20
-1.485
 30
2.9
 70
    64
  0
VERTEX
  5
3E3F4
  8
0
 10
0.46
 20
-1.485
 30
2.9
 70
    64
  0
VERTEX
  5
3E3F5
  8
0
 10
0.46
 20
-1.485
 30
2.15
 70
    64
  0
VERTEX
  5
3E3F6
  8
0
 10
0.46
 20
-1.485
 30
2.9
 70
    64
  0
VERTEX
  5
3E3F7
  8
0
 10
0.46
 20
-1.485
 30
2.9
 70
    64
  0
VERTEX
  5
3E3F8
  8
0
 10
0.46
 20
-1.485
 30
2.15
 70
    64
  0
VERTEX
  5
3E3F9
  8
0
 10
0.0
 20
-1.82
 30
2.9
 70
    64
  0
VERTEX
  5
3E3FA
  8
0
 10
0.0
 20
-1.82
 30
2.9
 70
    64
  0
VERTEX
  5
3E3FB
  8
0
 10
0.0
 20
-1.82
 30
2.15
 70
    64
  0
SEQEND
  5
3E3FC
  8
0
  0
POLYLINE
  5
3E3FD
  8
0
 66
     1
 10
0.0
 20
0.0
 30
0.0
 70
    16
 71
     6
 72
     3
  0
VERTEX
  5
3E3FE
  8
0
 10
1.66
 20
-1.485
 30
2.9
 70
    64
  0
VERTEX
  5
3E3FF
  8
0
 10
1.66
 20
-1.485
 30
2.15
 70
    64
  0
VERTEX
  5
3E400
  8
0
 10
1.66
 20
-1.485
 30
2.15
 70
    64
  0
VERTEX
  5
3E401
  8
0
 10
2.12
 20
-1.485
 30
2.9
 70
    64
  0
VERTEX
  5
3E402
  8
0
 10
2.12
 20
-1.485
 30
2.15
 70
    64
  0
VERTEX
  5
3E403
  8
0
 10
2.12
 20
-1.485
 30
2.15
 70
    64
  0
VERTEX
  5
3E404
  8
0
 10
2.12
 20
-1.385
 30
2.9
 70
    64
  0
VERTEX
  5
3E405
  8
0
 10
2.12
 20
-1.385
 30
2.15
 70
    64
  0
VERTEX
  5
3E406
  8
0
 10
2.12
 20
-1.485
 30
2.15
 70
    64
  0
VERTEX
  5
3E407
  8
0
 10
1.66
 20
-1.385
 30
2.9
 70
    64
  0
VERTEX
  5
3E408
  8
0
 10
1.66
 20
-1.385
 30
2.15
 70
    64
  0
VERTEX
  5
3E409
  8
0
 10
1.66
 20
-1.485
 30
2.15
 70
    64
  0
VERTEX
  5
3E40A
  8
0
 10
1.66
 20
-1.385
 30
2.9
 70
    64
  0
VERTEX
  5
3E40B
  8
0
 10
1.66
 20
-1.385
 30
2.9
 70
    64
  0
VERTEX
  5
3E40C
  8
0
 10
1.66
 20
-1.485
 30
2.9
 70
    64
  0
VERTEX
  5
3E40D
  8
0
 10
2.12
 20
-1.385
 30
2.9
 70
    64
  0
VERTEX
  5
3E40E
  8
0
 10
2.12
 20
-1.385
 30
2.9
 70
    64
  0
VERTEX
  5
3E40F
  8
0
 10
2.12
 20
-1.485
 30
2.9
 70
    64
  0
SEQEND
  5
3E410
  8
0
  0
POLYLINE
  5
3E411
  8
0
 66
     1
 10
0.0
 20
0.0
 30
0.0
 70
    16
 71
     6
 72
     3
  0
VERTEX
  5
3E412
  8
0
 10
1.66
 20
-1.485
 30
2.15
 70
    64
  0
VERTEX
  5
3E413
  8
0
 10
1.66
 20
-1.485
 30
2.15
 70
    64
  0
VERTEX
  5
3E414
  8
0
 10
1.66
 20
-1.485
 30
2.15
 70
    64
  0
VERTEX
  5
3E415
  8
0
 10
2.12
 20
-1.82
 30
2.15
 70
    64
  0
VERTEX
  5
3E416
  8
0
 10
2.12
 20
-1.485
 30
2.15
 70
    64
  0
VERTEX
  5
3E417
  8
0
 10
2.12
 20
-1.485
 30
2.15
 70
    64
  0
VERTEX
  5
3E418
  8
0
 10
2.12
 20
-1.82
 30
2.9
 70
    64
  0
VERTEX
  5
3E419
  8
0
 10
2.12
 20
-1.485
 30
2.9
 70
    64
  0
VERTEX
  5
3E41A
  8
0
 10
2.12
 20
-1.485
 30
2.15
 70
    64
  0
VERTEX
  5
3E41B
  8
0
 10
1.66
 20
-1.485
 30
2.9
 70
    64
  0
VERTEX
  5
3E41C
  8
0
 10
1.66
 20
-1.485
 30
2.9
 70
    64
  0
VERTEX
  5
3E41D
  8
0
 10
1.66
 20
-1.485
 30
2.15
 70
    64
  0
VERTEX
  5
3E41E
  8
0
 10
1.66
 20
-1.485
 30
2.9
 70
    64
  0
VERTEX
  5
3E41F
  8
0
 10
1.66
 20
-1.485
 30
2.9
 70
    64
  0
VERTEX
  5
3E420
  8
0
 10
1.66
 20
-1.485
 30
2.15
 70
    64
  0
VERTEX
  5
3E421
  8
0
 10
2.12
 20
-1.82
 30
2.9
 70
    64
  0
VERTEX
  5
3E422
  8
0
 10
2.12
 20
-1.82
 30
2.9
 70
    64
  0
VERTEX
  5
3E423
  8
0
 10
2.12
 20
-1.82
 30
2.15
 70
    64
  0
SEQEND
  5
3E424
  8
0
  0
POLYLINE
  5
3E425
  8
0
 66
     1
 10
0.0
 20
0.0
 30
0.0
 70
    16
 71
     6
 72
     3
  0
VERTEX
  5
3E426
  8
0
 10
0.46
 20
-0.005
 30
2.9
 70
    64
  0
VERTEX
  5
3E427
  8
0
 10
0.46
 20
-0.005
 30
2.15
 70
    64
  0
VERTEX
  5
3E428
  8
0
 10
0.46
 20
-0.005
 30
2.15
 70
    64
  0
VERTEX
  5
3E429
  8
0
 10
0.0
 20
-0.005
 30
2.9
 70
    64
  0
VERTEX
  5
3E42A
  8
0
 10
0.0
 20
-0.005
 30
2.15
 70
    64
  0
VERTEX
  5
3E42B
  8
0
 10
0.0
 20
-0.005
 30
2.15
 70
    64
  0
VERTEX
  5
3E42C
  8
0
 10
0.0
 20
-0.105
 30
2.9
 70
    64
  0
VERTEX
  5
3E42D
  8
0
 10
0.0
 20
-0.105
 30
2.15
 70
    64
  0
VERTEX
  5
3E42E
  8
0
 10
0.0
 20
-0.005
 30
2.15
 70
    64
  0
VERTEX
  5
3E42F
  8
0
 10
0.46
 20
-0.105
 30
2.9
 70
    64
  0
VERTEX
  5
3E430
  8
0
 10
0.46
 20
-0.105
 30
2.15
 70
    64
  0
VERTEX
  5
3E431
  8
0
 10
0.46
 20
-0.005
 30
2.15
 70
    64
  0
VERTEX
  5
3E432
  8
0
 10
0.46
 20
-0.105
 30
2.9
 70
    64
  0
VERTEX
  5
3E433
  8
0
 10
0.46
 20
-0.105
 30
2.9
 70
    64
  0
VERTEX
  5
3E434
  8
0
 10
0.46
 20
-0.005
 30
2.9
 70
    64
  0
VERTEX
  5
3E435
  8
0
 10
0.0
 20
-0.105
 30
2.9
 70
    64
  0
VERTEX
  5
3E436
  8
0
 10
0.0
 20
-0.105
 30
2.9
 70
    64
  0
VERTEX
  5
3E437
  8
0
 10
0.0
 20
-0.005
 30
2.9
 70
    64
  0
SEQEND
  5
3E438
  8
0
  0
POLYLINE
  5
3E439
  8
0
 66
     1
 10
0.0
 20
0.0
 30
0.0
 70
    16
 71
     6
 72
     3
  0
VERTEX
  5
3E43A
  8
0
 10
0.46
 20
-0.005
 30
2.15
 70
    64
  0
VERTEX
  5
3E43B
  8
0
 10
0.46
 20
-0.005
 30
2.15
 70
    64
  0
VERTEX
  5
3E43C
  8
0
 10
0.46
 20
-0.005
 30
2.15
 70
    64
  0
VERTEX
  5
3E43D
  8
0
 10
0.0
 20
0.33
 30
2.15
 70
    64
  0
VERTEX
  5
3E43E
  8
0
 10
0.0
 20
-0.005
 30
2.15
 70
    64
  0
VERTEX
  5
3E43F
  8
0
 10
0.0
 20
-0.005
 30
2.15
 70
    64
  0
VERTEX
  5
3E440
  8
0
 10
0.0
 20
0.33
 30
2.9
 70
    64
  0
VERTEX
  5
3E441
  8
0
 10
0.0
 20
-0.005
 30
2.9
 70
    64
  0
VERTEX
  5
3E442
  8
0
 10
0.0
 20
-0.005
 30
2.15
 70
    64
  0
VERTEX
  5
3E443
  8
0
 10
0.46
 20
-0.005
 30
2.9
 70
    64
  0
VERTEX
  5
3E444
  8
0
 10
0.46
 20
-0.005
 30
2.9
 70
    64
  0
VERTEX
  5
3E445
  8
0
 10
0.46
 20
-0.005
 30
2.15
 70
    64
  0
VERTEX
  5
3E446
  8
0
 10
0.46
 20
-0.005
 30
2.9
 70
    64
  0
VERTEX
  5
3E447
  8
0
 10
0.46
 20
-0.005
 30
2.9
 70
    64
  0
VERTEX
  5
3E448
  8
0
 10
0.46
 20
-0.005
 30
2.15
 70
    64
  0
VERTEX
  5
3E449
  8
0
 10
0.0
 20
0.33
 30
2.9
 70
    64
  0
VERTEX
  5
3E44A
  8
0
 10
0.0
 20
0.33
 30
2.9
 70
    64
  0
VERTEX
  5
3E44B
  8
0
 10
0.0
 20
0.33
 30
2.15
 70
    64
  0
SEQEND
  5
3E44C
  8
0
  0
POLYLINE
  5
3E44D
  8
0
 66
     1
 10
0.0
 20
0.0
 30
0.0
 70
    16
 71
     6
 72
     3
  0
VERTEX
  5
3E44E
  8
0
 10
1.66
 20
-0.005
 30
2.9
 70
    64
  0
VERTEX
  5
3E44F
  8
0
 10
1.66
 20
-0.005
 30
2.15
 70
    64
  0
VERTEX
  5
3E450
  8
0
 10
1.66
 20
-0.005
 30
2.15
 70
    64
  0
VERTEX
  5
3E451
  8
0
 10
2.12
 20
-0.005
 30
2.9
 70
    64
  0
VERTEX
  5
3E452
  8
0
 10
2.12
 20
-0.005
 30
2.15
 70
    64
  0
VERTEX
  5
3E453
  8
0
 10
2.12
 20
-0.005
 30
2.15
 70
    64
  0
VERTEX
  5
3E454
  8
0
 10
2.12
 20
-0.105
 30
2.9
 70
    64
  0
VERTEX
  5
3E455
  8
0
 10
2.12
 20
-0.105
 30
2.15
 70
    64
  0
VERTEX
  5
3E456
  8
0
 10
2.12
 20
-0.005
 30
2.15
 70
    64
  0
VERTEX
  5
3E457
  8
0
 10
1.66
 20
-0.105
 30
2.9
 70
    64
  0
VERTEX
  5
3E458
  8
0
 10
1.66
 20
-0.105
 30
2.15
 70
    64
  0
VERTEX
  5
3E459
  8
0
 10
1.66
 20
-0.005
 30
2.15
 70
    64
  0
VERTEX
  5
3E45A
  8
0
 10
1.66
 20
-0.105
 30
2.9
 70
    64
  0
VERTEX
  5
3E45B
  8
0
 10
1.66
 20
-0.105
 30
2.9
 70
    64
  0
VERTEX
  5
3E45C
  8
0
 10
1.66
 20
-0.005
 30
2.9
 70
    64
  0
VERTEX
  5
3E45D
  8
0
 10
2.12
 20
-0.105
 30
2.9
 70
    64
  0
VERTEX
  5
3E45E
  8
0
 10
2.12
 20
-0.105
 30
2.9
 70
    64
  0
VERTEX
  5
3E45F
  8
0
 10
2.12
 20
-0.005
 30
2.9
 70
    64
  0
SEQEND
  5
3E460
  8
0
  0
POLYLINE
  5
3E461
  8
0
 66
     1
 10
0.0
 20
0.0
 30
0.0
 70
    16
 71
     6
 72
     3
  0
VERTEX
  5
3E462
  8
0
 10
1.66
 20
-0.005
 30
2.15
 70
    64
  0
VERTEX
  5
3E463
  8
0
 10
1.66
 20
-0.005
 30
2.15
 70
    64
  0
VERTEX
  5
3E464
  8
0
 10
1.66
 20
-0.005
 30
2.15
 70
    64
  0
VERTEX
  5
3E465
  8
0
 10
2.12
 20
0.33
 30
2.15
 70
    64
  0
VERTEX
  5
3E466
  8
0
 10
2.12
 20
-0.005
 30
2.15
 70
    64
  0
VERTEX
  5
3E467
  8
0
 10
2.12
 20
-0.005
 30
2.15
 70
    64
  0
VERTEX
  5
3E468
  8
0
 10
2.12
 20
0.33
 30
2.9
 70
    64
  0
VERTEX
  5
3E469
  8
0
 10
2.12
 20
-0.005
 30
2.9
 70
    64
  0
VERTEX
  5
3E46A
  8
0
 10
2.12
 20
-0.005
 30
2.15
 70
    64
  0
VERTEX
  5
3E46B
  8
0
 10
1.66
 20
-0.005
 30
2.9
 70
    64
  0
VERTEX
  5
3E46C
  8
0
 10
1.66
 20
-0.005
 30
2.9
 70
    64
  0
VERTEX
  5
3E46D
  8
0
 10
1.66
 20
-0.005
 30
2.15
 70
    64
  0
VERTEX
  5
3E46E
  8
0
 10
1.66
 20
-0.005
 30
2.9
 70
    64
  0
VERTEX
  5
3E46F
  8
0
 10
1.66
 20
-0.005
 30
2.9
 70
    64
  0
VERTEX
  5
3E470
  8
0
 10
1.66
 20
-0.005
 30
2.15
 70
    64
  0
VERTEX
  5
3E471
  8
0
 10
2.12
 20
0.33
 30
2.9
 70
    64
  0
VERTEX
  5
3E472
  8
0
 10
2.12
 20
0.33
 30
2.9
 70
    64
  0
VERTEX
  5
3E473
  8
0
 10
2.12
 20
0.33
 30
2.15
 70
    64
  0
SEQEND
  5
3E474
  8
0
  0
CIRCLE
  5
3E4BC
  8
0
 39
0.15
 10
1.06
 20
-0.745
 30
2.9
 40
0.7
  0
POLYLINE
  5
3E4BE
  8
0
 66
     1
 10
0.0
 20
0.0
 30
0.0
 70
    16
 71
     6
 72
     3
  0
VERTEX
  5
3E4BF
  8
0
 10
0.81
 20
-0.085
 30
3.05
 70
    64
  0
VERTEX
  5
3E4C0
  8
0
 10
0.81
 20
-0.085
 30
2.28
 70
    64
  0
VERTEX
  5
3E4C1
  8
0
 10
0.81
 20
-0.085
 30
2.28
 70
    64
  0
VERTEX
  5
3E4C2
  8
0
 10
0.81
 20
0.035
 30
3.05
 70
    64
  0
VERTEX
  5
3E4C3
  8
0
 10
0.81
 20
0.035
 30
2.28
 70
    64
  0
VERTEX
  5
3E4C4
  8
0
 10
0.81
 20
0.035
 30
2.28
 70
    64
  0
VERTEX
  5
3E4C5
  8
0
 10
1.31
 20
0.035
 30
3.05
 70
    64
  0
VERTEX
  5
3E4C6
  8
0
 10
1.31
 20
0.035
 30
2.28
 70
    64
  0
VERTEX
  5
3E4C7
  8
0
 10
0.81
 20
0.035
 30
2.28
 70
    64
  0
VERTEX
  5
3E4C8
  8
0
 10
1.31
 20
-0.085
 30
3.05
 70
    64
  0
VERTEX
  5
3E4C9
  8
0
 10
1.31
 20
-0.085
 30
2.28
 70
    64
  0
VERTEX
  5
3E4CA
  8
0
 10
0.81
 20
-0.085
 30
2.28
 70
    64
  0
VERTEX
  5
3E4CB
  8
0
 10
1.31
 20
-0.085
 30
3.05
 70
    64
  0
VERTEX
  5
3E4CC
  8
0
 10
1.31
 20
-0.085
 30
3.05
 70
    64
  0
VERTEX
  5
3E4CD
  8
0
 10
0.81
 20
-0.085
 30
3.05
 70
    64
  0
VERTEX
  5
3E4CE
  8
0
 10
1.31
 20
0.035
 30
3.05
 70
    64
  0
VERTEX
  5
3E4CF
  8
0
 10
1.31
 20
0.035
 30
3.05
 70
    64
  0
VERTEX
  5
3E4D0
  8
0
 10
0.81
 20
0.035
 30
3.05
 70
    64
  0
SEQEND
  5
3E4D1
  8
0
  0
POLYLINE
  5
3E4D2
  8
0
 66
     1
 10
0.0
 20
0.0
 30
3.05
 70
     1
  0
VERTEX
  5
3E673
  8
0
 10
1.236068
 20
-0.85
 30
3.05
  0
VERTEX
  5
3E674
  8
0
 10
1.33
 20
-0.85
 30
3.05
 42
0.414214
  0
VERTEX
  5
3E675
  8
0
 10
1.38
 20
-0.8
 30
3.05
  0
VERTEX
  5
3E676
  8
0
 10
1.38
 20
-0.69
 30
3.05
 42
0.414214
  0
VERTEX
  5
3E677
  8
0
 10
1.33
 20
-0.64
 30
3.05
  0
VERTEX
  5
3E678
  8
0
 10
1.236068
 20
-0.64
 30
3.05
 42
0.443094
  0
VERTEX
  5
3E679
  8
0
 10
0.938345
 20
-0.58
 30
3.05
  0
VERTEX
  5
3E67A
  8
0
 10
0.79
 20
-0.58
 30
3.05
 42
0.414214
  0
VERTEX
  5
3E67B
  8
0
 10
0.74
 20
-0.63
 30
3.05
  0
VERTEX
  5
3E67C
  8
0
 10
0.74
 20
-0.86
 30
3.05
 42
0.414214
  0
VERTEX
  5
3E67D
  8
0
 10
0.79
 20
-0.91
 30
3.05
  0
VERTEX
  5
3E67E
  8
0
 10
0.938345
 20
-0.91
 30
3.05
 42
0.443094
  0
SEQEND
  5
3E67F
  8
0
  0
POLYLINE
  5
3E4E0
  8
0
 66
     1
 10
0.0
 20
0.0
 30
2.9
 70
     1
  0
VERTEX
  5
3E680
  8
0
 10
1.236068
 20
-0.85
 30
2.9
  0
VERTEX
  5
3E681
  8
0
 10
1.33
 20
-0.85
 30
2.9
 42
0.414214
  0
VERTEX
  5
3E682
  8
0
 10
1.38
 20
-0.8
 30
2.9
  0
VERTEX
  5
3E683
  8
0
 10
1.38
 20
-0.69
 30
2.9
 42
0.414214
  0
VERTEX
  5
3E684
  8
0
 10
1.33
 20
-0.64
 30
2.9
  0
VERTEX
  5
3E685
  8
0
 10
1.236068
 20
-0.64
 30
2.9
 42
0.443094
  0
VERTEX
  5
3E686
  8
0
 10
0.938345
 20
-0.58
 30
2.9
  0
VERTEX
  5
3E687
  8
0
 10
0.79
 20
-0.58
 30
2.9
 42
0.414214
  0
VERTEX
  5
3E688
  8
0
 10
0.74
 20
-0.63
 30
2.9
  0
VERTEX
  5
3E689
  8
0
 10
0.74
 20
-0.86
 30
2.9
 42
0.414214
  0
VERTEX
  5
3E68A
  8
0
 10
0.79
 20
-0.91
 30
2.9
  0
VERTEX
  5
3E68B
  8
0
 10
0.938345
 20
-0.91
 30
2.9
 42
0.443094
  0
SEQEND
  5
3E68C
  8
0
  0
POINT
  5
3E4EE
  8
DIMS-MTG-HOLES
 10
1.06
 20
-0.745
 30
3.05
  0
POLYLINE
  5
3E4EF
  8
0
 66
     1
 10
0.0
 20
0.0
 30
0.0
 70
    16
 71
     6
 72
     3
  0
VERTEX
  5
3E4F0
  8
0
 10
0.81
 20
-1.525
 30
3.05
 70
    64
  0
VERTEX
  5
3E4F1
  8
0
 10
0.81
 20
-1.525
 30
2.28
 70
    64
  0
VERTEX
  5
3E4F2
  8
0
 10
0.81
 20
-1.525
 30
2.28
 70
    64
  0
VERTEX
  5
3E4F3
  8
0
 10
0.81
 20
-1.405
 30
3.05
 70
    64
  0
VERTEX
  5
3E4F4
  8
0
 10
0.81
 20
-1.405
 30
2.28
 70
    64
  0
VERTEX
  5
3E4F5
  8
0
 10
0.81
 20
-1.405
 30
2.28
 70
    64
  0
VERTEX
  5
3E4F6
  8
0
 10
1.31
 20
-1.405
 30
3.05
 70
    64
  0
VERTEX
  5
3E4F7
  8
0
 10
1.31
 20
-1.405
 30
2.28
 70
    64
  0
VERTEX
  5
3E4F8
  8
0
 10
0.81
 20
-1.405
 30
2.28
 70
    64
  0
VERTEX
  5
3E4F9
  8
0
 10
1.31
 20
-1.525
 30
3.05
 70
    64
  0
VERTEX
  5
3E4FA
  8
0
 10
1.31
 20
-1.525
 30
2.28
 70
    64
  0
VERTEX
  5
3E4FB
  8
0
 10
0.81
 20
-1.525
 30
2.28
 70
    64
  0
VERTEX
  5
3E4FC
  8
0
 10
1.31
 20
-1.525
 30
3.05
 70
    64
  0
VERTEX
  5
3E4FD
  8
0
 10
1.31
 20
-1.525
 30
3.05
 70
    64
  0
VERTEX
  5
3E4FE
  8
0
 10
0.81
 20
-1.525
 30
3.05
 70
    64
  0
VERTEX
  5
3E4FF
  8
0
 10
1.31
 20
-1.405
 30
3.05
 70
    64
  0
VERTEX
  5
3E500
  8
0
 10
1.31
 20
-1.405
 30
3.05
 70
    64
  0
VERTEX
  5
3E501
  8
0
 10
0.81
 20
-1.405
 30
3.05
 70
    64
  0
SEQEND
  5
3E502
  8
0
  0
CIRCLE
  5
3E503
  8
0
 10
1.46
 20
0.81
 30
0.15
 40
0.09
  0
3DFACE
  5
3E505
  8
0
 10
2.12
 20
-0.62
 30
1.45
 11
2.12
 21
-0.87
 31
1.45
 12
2.12
 22
-0.87
 32
0.85
 13
2.12
 23
-0.62
 33
0.85
  0
3DFACE
  5
3E506
  8
0
 10
2.12
 20
-0.62
 30
0.97
 11
2.12
 21
-0.87
 31
0.97
 12
2.12
 22
-0.87
 32
1.14
 13
2.12
 23
-0.62
 33
1.14
  0
POINT
  5
3E507
  8
DIMS-MTG-HOLES
 10
2.12
 20
-0.745
 30
1.055
  0
POINT
  5
3E508
  8
DIMS-MTG-HOLES
 10
0.0
 20
0.0
 30
0.0
  0
CIRCLE
  5
3E509
  8
0
 10
0.355
 20
-1.795
 30
2.15
 40
0.125
  0
POLYLINE
  5
3E541
  8
0
 66
     1
 10
0.0
 20
0.0
 30
2.15
  0
VERTEX
  5
3E68D
  8
0
 10
0.37
 20
-1.670903
 30
2.15
  0
VERTEX
  5
3E68E
  8
0
 10
0.37
 20
-1.78
 30
2.15
  0
VERTEX
  5
3E68F
  8
0
 10
0.4
 20
-1.78
 30
2.15
  0
VERTEX
  5
3E690
  8
0
 10
0.4
 20
-1.81
 30
2.15
  0
VERTEX
  5
3E691
  8
0
 10
0.37
 20
-1.81
 30
2.15
  0
VERTEX
  5
3E692
  8
0
 10
0.37
 20
-1.919097
 30
2.15
  0
SEQEND
  5
3E693
  8
0
  0
POLYLINE
  5
3E549
  8
0
 66
     1
 10
0.0
 20
0.0
 30
2.15
  0
VERTEX
  5
3E694
  8
0
 10
0.34
 20
-1.670903
 30
2.15
  0
VERTEX
  5
3E695
  8
0
 10
0.34
 20
-1.78
 30
2.15
  0
VERTEX
  5
3E696
  8
0
 10
0.295
 20
-1.78
 30
2.15
  0
VERTEX
  5
3E697
  8
0
 10
0.295
 20
-1.81
 30
2.15
  0
VERTEX
  5
3E698
  8
0
 10
0.34
 20
-1.81
 30
2.15
  0
VERTEX
  5
3E699
  8
0
 10
0.34
 20
-1.919097
 30
2.15
  0
SEQEND
  5
3E69A
  8
0
  0
POLYLINE
  5
3E551
  8
0
 66
     1
 10
0.0
 20
0.0
 30
2.15
  0
VERTEX
  5
3E69B
  8
0
 10
1.78
 20
-1.670903
 30
2.15
  0
VERTEX
  5
3E69C
  8
0
 10
1.78
 20
-1.78
 30
2.15
  0
VERTEX
  5
3E69D
  8
0
 10
1.825
 20
-1.78
 30
2.15
  0
VERTEX
  5
3E69E
  8
0
 10
1.825
 20
-1.81
 30
2.15
  0
VERTEX
  5
3E69F
  8
0
 10
1.78
 20
-1.81
 30
2.15
  0
VERTEX
  5
3E6A0
  8
0
 10
1.78
 20
-1.919097
 30
2.15
  0
SEQEND
  5
3E6A1
  8
0
  0
CIRCLE
  5
3E559
  8
0
 10
1.765
 20
-1.795
 30
2.15
 40
0.125
  0
POLYLINE
  5
3E55A
  8
0
 66
     1
 10
0.0
 20
0.0
 30
2.15
  0
VERTEX
  5
3E6A2
  8
0
 10
1.75
 20
-1.670903
 30
2.15
  0
VERTEX
  5
3E6A3
  8
0
 10
1.75
 20
-1.78
 30
2.15
  0
VERTEX
  5
3E6A4
  8
0
 10
1.72
 20
-1.78
 30
2.15
  0
VERTEX
  5
3E6A5
  8
0
 10
1.72
 20
-1.81
 30
2.15
  0
VERTEX
  5
3E6A6
  8
0
 10
1.75
 20
-1.81
 30
2.15
  0
VERTEX
  5
3E6A7
  8
0
 10
1.75
 20
-1.919097
 30
2.15
  0
SEQEND
  5
3E6A8
  8
0
  0
POLYLINE
  5
3E563
  8
0
 66
     1
 10
0.0
 20
0.0
 30
2.15
  0
VERTEX
  5
3E6A9
  8
0
 10
1.045
 20
-1.670903
 30
2.15
  0
VERTEX
  5
3E6AA
  8
0
 10
1.045
 20
-1.78
 30
2.15
  0
VERTEX
  5
3E6AB
  8
0
 10
1.0
 20
-1.78
 30
2.15
  0
VERTEX
  5
3E6AC
  8
0
 10
1.0
 20
-1.81
 30
2.15
  0
VERTEX
  5
3E6AD
  8
0
 10
1.045
 20
-1.81
 30
2.15
  0
VERTEX
  5
3E6AE
  8
0
 10
1.045
 20
-1.919097
 30
2.15
  0
SEQEND
  5
3E6AF
  8
0
  0
CIRCLE
  5
3E56B
  8
0
 10
1.06
 20
-1.795
 30
2.15
 40
0.125
  0
POLYLINE
  5
3E56C
  8
0
 66
     1
 10
0.0
 20
0.0
 30
2.15
  0
VERTEX
  5
3E6B0
  8
0
 10
1.075
 20
-1.670903
 30
2.15
  0
VERTEX
  5
3E6B1
  8
0
 10
1.075
 20
-1.78
 30
2.15
  0
VERTEX
  5
3E6B2
  8
0
 10
1.105
 20
-1.78
 30
2.15
  0
VERTEX
  5
3E6B3
  8
0
 10
1.105
 20
-1.81
 30
2.15
  0
VERTEX
  5
3E6B4
  8
0
 10
1.075
 20
-1.81
 30
2.15
  0
VERTEX
  5
3E6B5
  8
0
 10
1.075
 20
-1.919097
 30
2.15
  0
SEQEND
  5
3E6B6
  8
0
  0
3DFACE
  5
3E574
  8
0
 10
0.2
 20
-2.16
 30
1.28
 11
0.52
 21
-2.16
 31
1.28
 12
0.52
 22
-2.16
 32
0.84
 13
0.2
 23
-2.16
 33
0.84
  0
3DFACE
  5
3E575
  8
0
 10
1.92
 20
-2.16
 30
1.28
 11
1.6
 21
-2.16
 31
1.28
 12
1.6
 22
-2.16
 32
0.84
 13
1.92
 23
-2.16
 33
0.84
  0
3DFACE
  5
3E576
  8
0
 10
0.9
 20
-2.16
 30
1.28
 11
1.22
 21
-2.16
 31
1.28
 12
1.22
 22
-2.16
 32
0.84
 13
0.9
 23
-2.16
 33
0.84
  0
3DFACE
  5
3E577
  8
0
 10
1.92
 20
0.67
 30
1.28
 11
1.6
 21
0.67
 31
1.28
 12
1.6
 22
0.67
 32
0.84
 13
1.92
 23
0.67
 33
0.84
  0
3DFACE
  5
3E578
  8
0
 10
0.9
 20
0.67
 30
1.28
 11
1.22
 21
0.67
 31
1.28
 12
1.22
 22
0.67
 32
0.84
 13
0.9
 23
0.67
 33
0.84
  0
3DFACE
  5
3E579
  8
0
 10
0.2
 20
0.67
 30
1.28
 11
0.52
 21
0.67
 31
1.28
 12
0.52
 22
0.67
 32
0.84
 13
0.2
 23
0.67
 33
0.84
  0
POLYLINE
  5
3E57A
  8
0
 66
     1
 10
0.0
 20
0.0
 30
2.15
  0
VERTEX
  5
3E6B7
  8
0
 10
0.34
 20
0.180903
 30
2.15
  0
VERTEX
  5
3E6B8
  8
0
 10
0.34
 20
0.29
 30
2.15
  0
VERTEX
  5
3E6B9
  8
0
 10
0.295
 20
0.29
 30
2.15
  0
VERTEX
  5
3E6BA
  8
0
 10
0.295
 20
0.32
 30
2.15
  0
VERTEX
  5
3E6BB
  8
0
 10
0.34
 20
0.32
 30
2.15
  0
VERTEX
  5
3E6BC
  8
0
 10
0.34
 20
0.429097
 30
2.15
  0
SEQEND
  5
3E6BD
  8
0
  0
CIRCLE
  5
3E582
  8
0
 10
0.355
 20
0.305
 30
2.15
 40
0.125
  0
POLYLINE
  5
3E583
  8
0
 66
     1
 10
0.0
 20
0.0
 30
2.15
  0
VERTEX
  5
3E6BE
  8
0
 10
0.37
 20
0.180903
 30
2.15
  0
VERTEX
  5
3E6BF
  8
0
 10
0.37
 20
0.29
 30
2.15
  0
VERTEX
  5
3E6C0
  8
0
 10
0.4
 20
0.29
 30
2.15
  0
VERTEX
  5
3E6C1
  8
0
 10
0.4
 20
0.32
 30
2.15
  0
VERTEX
  5
3E6C2
  8
0
 10
0.37
 20
0.32
 30
2.15
  0
VERTEX
  5
3E6C3
  8
0
 10
0.37
 20
0.429097
 30
2.15
  0
SEQEND
  5
3E6C4
  8
0
  0
CIRCLE
  5
3E58B
  8
0
 10
1.06
 20
0.305
 30
2.15
 40
0.125
  0
POLYLINE
  5
3E58C
  8
0
 66
     1
 10
0.0
 20
0.0
 30
2.15
  0
VERTEX
  5
3E6C5
  8
0
 10
1.045
 20
0.180903
 30
2.15
  0
VERTEX
  5
3E6C6
  8
0
 10
1.045
 20
0.29
 30
2.15
  0
VERTEX
  5
3E6C7
  8
0
 10
1.0
 20
0.29
 30
2.15
  0
VERTEX
  5
3E6C8
  8
0
 10
1.0
 20
0.32
 30
2.15
  0
VERTEX
  5
3E6C9
  8
0
 10
1.045
 20
0.32
 30
2.15
  0
VERTEX
  5
3E6CA
  8
0
 10
1.045
 20
0.429097
 30
2.15
  0
SEQEND
  5
3E6CB
  8
0
  0
POLYLINE
  5
3E594
  8
0
 66
     1
 10
0.0
 20
0.0
 30
2.15
  0
VERTEX
  5
3E6CC
  8
0
 10
1.075
 20
0.180903
 30
2.15
  0
VERTEX
  5
3E6CD
  8
0
 10
1.075
 20
0.29
 30
2.15
  0
VERTEX
  5
3E6CE
  8
0
 10
1.105
 20
0.29
 30
2.15
  0
VERTEX
  5
3E6CF
  8
0
 10
1.105
 20
0.32
 30
2.15
  0
VERTEX
  5
3E6D0
  8
0
 10
1.075
 20
0.32
 30
2.15
  0
VERTEX
  5
3E6D1
  8
0
 10
1.075
 20
0.429097
 30
2.15
  0
SEQEND
  5
3E6D2
  8
0
  0
POLYLINE
  5
3E59C
  8
0
 66
     1
 10
0.0
 20
0.0
 30
2.15
  0
VERTEX
  5
3E6D3
  8
0
 10
1.75
 20
0.180903
 30
2.15
  0
VERTEX
  5
3E6D4
  8
0
 10
1.75
 20
0.29
 30
2.15
  0
VERTEX
  5
3E6D5
  8
0
 10
1.72
 20
0.29
 30
2.15
  0
VERTEX
  5
3E6D6
  8
0
 10
1.72
 20
0.32
 30
2.15
  0
VERTEX
  5
3E6D7
  8
0
 10
1.75
 20
0.32
 30
2.15
  0
VERTEX
  5
3E6D8
  8
0
 10
1.75
 20
0.429097
 30
2.15
  0
SEQEND
  5
3E6D9
  8
0
  0
CIRCLE
  5
3E5A4
  8
0
 10
1.765
 20
0.305
 30
2.15
 40
0.125
  0
POLYLINE
  5
3E5A5
  8
0
 66
     1
 10
0.0
 20
0.0
 30
2.15
  0
VERTEX
  5
3E6DA
  8
0
 10
1.78
 20
0.180903
 30
2.15
  0
VERTEX
  5
3E6DB
  8
0
 10
1.78
 20
0.29
 30
2.15
  0
VERTEX
  5
3E6DC
  8
0
 10
1.825
 20
0.29
 30
2.15
  0
VERTEX
  5
3E6DD
  8
0
 10
1.825
 20
0.32
 30
2.15
  0
VERTEX
  5
3E6DE
  8
0
 10
1.78
 20
0.32
 30
2.15
  0
VERTEX
  5
3E6DF
  8
0
 10
1.78
 20
0.429097
 30
2.15
  0
SEQEND
  5
3E6E0
  8
0
  0
ENDSEC
  0
EOF
