  0
SECTION
  2
HEADER
  9
$ACADVER
  1
AC1009
  9
$INSBASE
 10
0.0
 20
0.0
 30
0.0
  9
$EXTMIN
 10
-0.880427
 20
-1.540643
 30
-2.370145
  9
$EXTMAX
 10
0.880515
 20
1.5007
 30
0.000145
  9
$LIMMIN
 10
0.0
 20
0.0
  9
$LIMMAX
 10
12.0
 20
9.0
  9
$ORTHOMODE
 70
     1
  9
$REGENMODE
 70
     1
  9
$FILLMODE
 70
     1
  9
$QTEXTMODE
 70
     0
  9
$MIRRTEXT
 70
     1
  9
$DRAGMODE
 70
     2
  9
$LTSCALE
 40
1.0
  9
$OSMODE
 70
     8
  9
$ATTMODE
 70
     0
  9
$TEXTSIZE
 40
0.12
  9
$TRACEWID
 40
0.05
  9
$TEXTSTYLE
  7
STANDARD
  9
$CLAYER
  8
0
  9
$CELTYPE
  6
BYLAYER
  9
$CECOLOR
 62
   256
  9
$DIMSCALE
 40
1.0
  9
$DIMASZ
 40
0.18
  9
$DIMEXO
 40
0.0625
  9
$DIMDLI
 40
0.38
  9
$DIMRND
 40
0.0
  9
$DIMDLE
 40
0.0
  9
$DIMEXE
 40
0.18
  9
$DIMTP
 40
0.0
  9
$DIMTM
 40
0.0
  9
$DIMTXT
 40
0.18
  9
$DIMCEN
 40
0.09
  9
$DIMTSZ
 40
0.0
  9
$DIMTOL
 70
     0
  9
$DIMLIM
 70
     0
  9
$DIMTIH
 70
     1
  9
$DIMTOH
 70
     1
  9
$DIMSE1
 70
     0
  9
$DIMSE2
 70
     0
  9
$DIMTAD
 70
     0
  9
$DIMZIN
 70
     0
  9
$DIMBLK
  1

  9
$DIMASO
 70
     1
  9
$DIMSHO
 70
     1
  9
$DIMPOST
  1

  9
$DIMAPOST
  1

  9
$DIMALT
 70
     0
  9
$DIMALTD
 70
     2
  9
$DIMALTF
 40
25.4
  9
$DIMLFAC
 40
1.0
  9
$DIMTOFL
 70
     0
  9
$DIMTVP
 40
0.0
  9
$DIMTIX
 70
     0
  9
$DIMSOXD
 70
     0
  9
$DIMSAH
 70
     0
  9
$DIMBLK1
  1

  9
$DIMBLK2
  1

  9
$DIMSTYLE
  2
STANDARD
  9
$DIMCLRD
 70
     0
  9
$DIMCLRE
 70
     0
  9
$DIMCLRT
 70
     0
  9
$DIMTFAC
 40
1.0
  9
$DIMGAP
 40
0.09
  9
$LUNITS
 70
     2
  9
$LUPREC
 70
     4
  9
$SKETCHINC
 40
0.1
  9
$FILLETRAD
 40
0.05
  9
$AUNITS
 70
     0
  9
$AUPREC
 70
     0
  9
$MENU
  1
acad
  9
$ELEVATION
 40
0.0
  9
$PELEVATION
 40
0.0
  9
$THICKNESS
 40
0.0
  9
$LIMCHECK
 70
     0
  9
$BLIPMODE
 70
     0
  9
$CHAMFERA
 40
0.0
  9
$CHAMFERB
 40
0.0
  9
$SKPOLY
 70
     0
  9
$TDCREATE
 40
2450671.056358
  9
$TDUPDATE
 40
2451166.499636
  9
$TDINDWG
 40
0.00125
  9
$TDUSRTIMER
 40
0.00125
  9
$USRTIMER
 70
     1
  9
$ANGBASE
 50
0.0
  9
$ANGDIR
 70
     0
  9
$PDMODE
 70
    96
  9
$PDSIZE
 40
0.09
  9
$PLINEWID
 40
0.0
  9
$COORDS
 70
     1
  9
$SPLFRAME
 70
     1
  9
$SPLINETYPE
 70
     6
  9
$SPLINESEGS
 70
     8
  9
$ATTDIA
 70
     0
  9
$ATTREQ
 70
     1
  9
$HANDLING
 70
     1
  9
$HANDSEED
  5
3E4F4
  9
$SURFTAB1
 70
     6
  9
$SURFTAB2
 70
     6
  9
$SURFTYPE
 70
     6
  9
$SURFU
 70
     6
  9
$SURFV
 70
     6
  9
$UCSNAME
  2

  9
$UCSORG
 10
0.0
 20
0.0
 30
0.0
  9
$UCSXDIR
 10
1.0
 20
0.0
 30
0.0
  9
$UCSYDIR
 10
0.0
 20
1.0
 30
0.0
  9
$PUCSNAME
  2

  9
$PUCSORG
 10
0.0
 20
0.0
 30
0.0
  9
$PUCSXDIR
 10
1.0
 20
0.0
 30
0.0
  9
$PUCSYDIR
 10
0.0
 20
1.0
 30
0.0
  9
$USERI1
 70
     0
  9
$USERI2
 70
     0
  9
$USERI3
 70
     0
  9
$USERI4
 70
     0
  9
$USERI5
 70
     0
  9
$USERR1
 40
0.0
  9
$USERR2
 40
0.0
  9
$USERR3
 40
0.0
  9
$USERR4
 40
0.0
  9
$USERR5
 40
0.0
  9
$WORLDVIEW
 70
     1
  9
$SHADEDGE
 70
     3
  9
$SHADEDIF
 70
    70
  9
$TILEMODE
 70
     1
  9
$MAXACTVP
 70
    16
  9
$PLIMCHECK
 70
     0
  9
$PEXTMIN
 10
1.000000E+020
 20
1.000000E+020
 30
1.000000E+020
  9
$PEXTMAX
 10
-1.000000E+020
 20
-1.000000E+020
 30
-1.000000E+020
  9
$PLIMMIN
 10
0.0
 20
0.0
  9
$PLIMMAX
 10
12.0
 20
9.0
  9
$UNITMODE
 70
     0
  9
$VISRETAIN
 70
     0
  9
$PLINEGEN
 70
     0
  9
$PSLTSCALE
 70
     1
  0
ENDSEC
  0
SECTION
  2
TABLES
  0
TABLE
  2
VPORT
 70
     2
  0
VPORT
  2
*ACTIVE
 70
     0
 10
0.0
 20
0.0
 11
1.0
 21
1.0
 12
0.000044
 22
-0.019972
 13
0.0
 23
0.0
 14
0.25
 24
0.25
 15
0.25
 25
0.25
 16
0.0
 26
0.0
 36
1.0
 17
0.0
 27
0.0
 37
0.0
 40
3.234082
 41
1.603066
 42
50.0
 43
0.0
 44
0.0
 50
0.0
 51
0.0
 71
     0
 72
 20000
 73
     1
 74
     1
 75
     0
 76
     0
 77
     0
 78
     0
  0
ENDTAB
  0
TABLE
  2
LTYPE
 70
     1
  0
LTYPE
  2
CONTINUOUS
 70
     0
  3
Solid line
 72
    65
 73
     0
 40
0.0
  0
ENDTAB
  0
TABLE
  2
LAYER
 70
     2
  0
LAYER
  2
0
 70
     0
 62
     7
  6
CONTINUOUS
  0
LAYER
  2
DIMS-MTG-HOLES
 70
     0
 62
     1
  6
CONTINUOUS
  0
ENDTAB
  0
TABLE
  2
STYLE
 70
     1
  0
STYLE
  2
STANDARD
 70
     0
 40
0.0
 41
1.0
 50
0.0
 71
     0
 42
0.12
  3
txt
  4

  0
ENDTAB
  0
TABLE
  2
VIEW
 70
     0
  0
ENDTAB
  0
TABLE
  2
UCS
 70
     0
  0
ENDTAB
  0
TABLE
  2
APPID
 70
     1
  0
APPID
  2
ACAD
 70
     0
  0
ENDTAB
  0
TABLE
  2
DIMSTYLE
 70
     1
  0
DIMSTYLE
  2
STANDARD
 70
     0
  3

  4

  5

  6

  7

 40
1.0
 41
0.18
 42
0.0625
 43
0.38
 44
0.18
 45
0.0
 46
0.0
 47
0.0
 48
0.0
140
0.18
141
0.09
142
0.0
143
25.4
144
1.0
145
0.0
146
1.0
147
0.09
 71
     0
 72
     0
 73
     1
 74
     1
 75
     0
 76
     0
 77
     0
 78
     0
170
     0
171
     2
172
     0
173
     0
174
     0
175
     0
176
     0
177
     0
178
     0
  0
ENDTAB
  0
ENDSEC
  0
SECTION
  2
BLOCKS
  0
BLOCK
  8
0
  2
$MODEL_SPACE
 70
     0
 10
0.0
 20
0.0
 30
0.0
  3
$MODEL_SPACE
  1

  0
ENDBLK
  5
3E485
  8
0
  0
BLOCK
 67
     1
  8
0
  2
$PAPER_SPACE
 70
     0
 10
0.0
 20
0.0
 30
0.0
  3
$PAPER_SPACE
  1

  0
ENDBLK
  5
3E483
 67
     1
  8
0
  0
ENDSEC
  0
SECTION
  2
ENTITIES
  0
POLYLINE
  5
3E10F
  8
0
 66
     1
 10
0.0
 20
0.0
 30
0.0
 70
    16
 71
     6
 72
     3
  0
VERTEX
  5
3E110
  8
0
 10
0.88
 20
-1.26
 30
-2.17
 70
    64
  0
VERTEX
  5
3E111
  8
0
 10
0.88
 20
-1.26
 30
-2.37
 70
    64
  0
VERTEX
  5
3E112
  8
0
 10
0.88
 20
-1.26
 30
-2.37
 70
    64
  0
VERTEX
  5
3E113
  8
0
 10
-0.88
 20
-1.26
 30
-2.17
 70
    64
  0
VERTEX
  5
3E114
  8
0
 10
-0.88
 20
-1.26
 30
-2.37
 70
    64
  0
VERTEX
  5
3E115
  8
0
 10
-0.88
 20
-1.26
 30
-2.37
 70
    64
  0
VERTEX
  5
3E116
  8
0
 10
-0.88
 20
-0.65
 30
-2.17
 70
    64
  0
VERTEX
  5
3E117
  8
0
 10
-0.88
 20
-0.65
 30
-2.37
 70
    64
  0
VERTEX
  5
3E118
  8
0
 10
-0.88
 20
-1.26
 30
-2.37
 70
    64
  0
VERTEX
  5
3E119
  8
0
 10
0.88
 20
-0.65
 30
-2.17
 70
    64
  0
VERTEX
  5
3E11A
  8
0
 10
0.88
 20
-0.65
 30
-2.37
 70
    64
  0
VERTEX
  5
3E11B
  8
0
 10
0.88
 20
-1.26
 30
-2.37
 70
    64
  0
VERTEX
  5
3E11C
  8
0
 10
0.88
 20
-0.65
 30
-2.17
 70
    64
  0
VERTEX
  5
3E11D
  8
0
 10
0.88
 20
-0.65
 30
-2.17
 70
    64
  0
VERTEX
  5
3E11E
  8
0
 10
0.88
 20
-1.26
 30
-2.17
 70
    64
  0
VERTEX
  5
3E11F
  8
0
 10
-0.88
 20
-0.65
 30
-2.17
 70
    64
  0
VERTEX
  5
3E120
  8
0
 10
-0.88
 20
-0.65
 30
-2.17
 70
    64
  0
VERTEX
  5
3E121
  8
0
 10
-0.88
 20
-1.26
 30
-2.17
 70
    64
  0
SEQEND
  5
3E122
  8
0
  0
POLYLINE
  5
3E123
  8
0
 66
     1
 10
0.0
 20
0.0
 30
0.0
 70
    16
 71
     6
 72
     3
  0
VERTEX
  5
3E124
  8
0
 10
0.88
 20
-1.26
 30
-0.7
 70
    64
  0
VERTEX
  5
3E125
  8
0
 10
0.88
 20
-1.26
 30
-2.17
 70
    64
  0
VERTEX
  5
3E126
  8
0
 10
0.88
 20
-1.26
 30
-2.17
 70
    64
  0
VERTEX
  5
3E127
  8
0
 10
-0.88
 20
-1.26
 30
-0.7
 70
    64
  0
VERTEX
  5
3E128
  8
0
 10
-0.88
 20
-1.26
 30
-2.17
 70
    64
  0
VERTEX
  5
3E129
  8
0
 10
-0.88
 20
-1.26
 30
-2.17
 70
    64
  0
VERTEX
  5
3E12A
  8
0
 10
-0.88
 20
1.22
 30
-0.7
 70
    64
  0
VERTEX
  5
3E12B
  8
0
 10
-0.88
 20
1.22
 30
-2.17
 70
    64
  0
VERTEX
  5
3E12C
  8
0
 10
-0.88
 20
-1.26
 30
-2.17
 70
    64
  0
VERTEX
  5
3E12D
  8
0
 10
0.88
 20
1.22
 30
-0.7
 70
    64
  0
VERTEX
  5
3E12E
  8
0
 10
0.88
 20
1.22
 30
-2.17
 70
    64
  0
VERTEX
  5
3E12F
  8
0
 10
0.88
 20
-1.26
 30
-2.17
 70
    64
  0
VERTEX
  5
3E130
  8
0
 10
0.88
 20
1.22
 30
-0.7
 70
    64
  0
VERTEX
  5
3E131
  8
0
 10
0.88
 20
1.22
 30
-0.7
 70
    64
  0
VERTEX
  5
3E132
  8
0
 10
0.88
 20
-1.26
 30
-0.7
 70
    64
  0
VERTEX
  5
3E133
  8
0
 10
-0.88
 20
1.22
 30
-0.7
 70
    64
  0
VERTEX
  5
3E134
  8
0
 10
-0.88
 20
1.22
 30
-0.7
 70
    64
  0
VERTEX
  5
3E135
  8
0
 10
-0.88
 20
-1.26
 30
-0.7
 70
    64
  0
SEQEND
  5
3E136
  8
0
  0
POLYLINE
  5
3E137
  8
0
 66
     1
 10
0.0
 20
0.0
 30
0.0
 70
    16
 71
     6
 72
     3
  0
VERTEX
  5
3E138
  8
0
 10
0.88
 20
0.69
 30
-2.17
 70
    64
  0
VERTEX
  5
3E139
  8
0
 10
0.88
 20
0.69
 30
-2.37
 70
    64
  0
VERTEX
  5
3E13A
  8
0
 10
0.88
 20
0.69
 30
-2.37
 70
    64
  0
VERTEX
  5
3E13B
  8
0
 10
-0.88
 20
0.69
 30
-2.17
 70
    64
  0
VERTEX
  5
3E13C
  8
0
 10
-0.88
 20
0.69
 30
-2.37
 70
    64
  0
VERTEX
  5
3E13D
  8
0
 10
-0.88
 20
0.69
 30
-2.37
 70
    64
  0
VERTEX
  5
3E13E
  8
0
 10
-0.88
 20
1.22
 30
-2.17
 70
    64
  0
VERTEX
  5
3E13F
  8
0
 10
-0.88
 20
1.22
 30
-2.37
 70
    64
  0
VERTEX
  5
3E140
  8
0
 10
-0.88
 20
0.69
 30
-2.37
 70
    64
  0
VERTEX
  5
3E141
  8
0
 10
0.88
 20
1.22
 30
-2.17
 70
    64
  0
VERTEX
  5
3E142
  8
0
 10
0.88
 20
1.22
 30
-2.37
 70
    64
  0
VERTEX
  5
3E143
  8
0
 10
0.88
 20
0.69
 30
-2.37
 70
    64
  0
VERTEX
  5
3E144
  8
0
 10
0.88
 20
1.22
 30
-2.17
 70
    64
  0
VERTEX
  5
3E145
  8
0
 10
0.88
 20
1.22
 30
-2.17
 70
    64
  0
VERTEX
  5
3E146
  8
0
 10
0.88
 20
0.69
 30
-2.17
 70
    64
  0
VERTEX
  5
3E147
  8
0
 10
-0.88
 20
1.22
 30
-2.17
 70
    64
  0
VERTEX
  5
3E148
  8
0
 10
-0.88
 20
1.22
 30
-2.17
 70
    64
  0
VERTEX
  5
3E149
  8
0
 10
-0.88
 20
0.69
 30
-2.17
 70
    64
  0
SEQEND
  5
3E14A
  8
0
  0
POLYLINE
  5
3E14B
  8
0
 66
     1
 10
0.0
 20
0.0
 30
0.0
 70
    16
 71
     6
 72
     3
  0
VERTEX
  5
3E14C
  8
0
 10
0.88
 20
-0.66
 30
0.0
 70
    64
  0
VERTEX
  5
3E14D
  8
0
 10
0.88
 20
-0.66
 30
-0.7
 70
    64
  0
VERTEX
  5
3E14E
  8
0
 10
0.88
 20
-0.66
 30
-0.7
 70
    64
  0
VERTEX
  5
3E14F
  8
0
 10
-0.88
 20
-0.66
 30
0.0
 70
    64
  0
VERTEX
  5
3E150
  8
0
 10
-0.88
 20
-0.66
 30
-0.7
 70
    64
  0
VERTEX
  5
3E151
  8
0
 10
-0.88
 20
-0.66
 30
-0.7
 70
    64
  0
VERTEX
  5
3E152
  8
0
 10
-0.88
 20
0.62
 30
0.0
 70
    64
  0
VERTEX
  5
3E153
  8
0
 10
-0.88
 20
0.62
 30
-0.7
 70
    64
  0
VERTEX
  5
3E154
  8
0
 10
-0.88
 20
-0.66
 30
-0.7
 70
    64
  0
VERTEX
  5
3E155
  8
0
 10
0.88
 20
0.62
 30
0.0
 70
    64
  0
VERTEX
  5
3E156
  8
0
 10
0.88
 20
0.62
 30
-0.7
 70
    64
  0
VERTEX
  5
3E157
  8
0
 10
0.88
 20
-0.66
 30
-0.7
 70
    64
  0
VERTEX
  5
3E158
  8
0
 10
0.88
 20
0.62
 30
0.0
 70
    64
  0
VERTEX
  5
3E159
  8
0
 10
0.88
 20
0.62
 30
0.0
 70
    64
  0
VERTEX
  5
3E15A
  8
0
 10
0.88
 20
-0.66
 30
0.0
 70
    64
  0
VERTEX
  5
3E15B
  8
0
 10
-0.88
 20
0.62
 30
0.0
 70
    64
  0
VERTEX
  5
3E15C
  8
0
 10
-0.88
 20
0.62
 30
0.0
 70
    64
  0
VERTEX
  5
3E15D
  8
0
 10
-0.88
 20
-0.66
 30
0.0
 70
    64
  0
SEQEND
  5
3E15E
  8
0
  0
POLYLINE
  5
3E15F
  8
0
 66
     1
 10
0.0
 20
0.0
 30
0.0
 70
    16
 71
     6
 72
     3
  0
VERTEX
  5
3E160
  8
0
 10
-0.58
 20
-0.84
 30
0.0
 70
    64
  0
VERTEX
  5
3E161
  8
0
 10
-0.58
 20
-0.84
 30
-0.42
 70
    64
  0
VERTEX
  5
3E162
  8
0
 10
-0.58
 20
-0.84
 30
-0.42
 70
    64
  0
VERTEX
  5
3E163
  8
0
 10
-0.88
 20
-0.84
 30
0.0
 70
    64
  0
VERTEX
  5
3E164
  8
0
 10
-0.88
 20
-0.84
 30
-0.42
 70
    64
  0
VERTEX
  5
3E165
  8
0
 10
-0.88
 20
-0.84
 30
-0.42
 70
    64
  0
VERTEX
  5
3E166
  8
0
 10
-0.88
 20
-0.66
 30
0.0
 70
    64
  0
VERTEX
  5
3E167
  8
0
 10
-0.88
 20
-0.66
 30
-0.42
 70
    64
  0
VERTEX
  5
3E168
  8
0
 10
-0.88
 20
-0.84
 30
-0.42
 70
    64
  0
VERTEX
  5
3E169
  8
0
 10
-0.58
 20
-0.66
 30
0.0
 70
    64
  0
VERTEX
  5
3E16A
  8
0
 10
-0.58
 20
-0.66
 30
-0.42
 70
    64
  0
VERTEX
  5
3E16B
  8
0
 10
-0.58
 20
-0.84
 30
-0.42
 70
    64
  0
VERTEX
  5
3E16C
  8
0
 10
-0.58
 20
-0.66
 30
0.0
 70
    64
  0
VERTEX
  5
3E16D
  8
0
 10
-0.58
 20
-0.66
 30
0.0
 70
    64
  0
VERTEX
  5
3E16E
  8
0
 10
-0.58
 20
-0.84
 30
0.0
 70
    64
  0
VERTEX
  5
3E16F
  8
0
 10
-0.88
 20
-0.66
 30
0.0
 70
    64
  0
VERTEX
  5
3E170
  8
0
 10
-0.88
 20
-0.66
 30
0.0
 70
    64
  0
VERTEX
  5
3E171
  8
0
 10
-0.88
 20
-0.84
 30
0.0
 70
    64
  0
SEQEND
  5
3E172
  8
0
  0
POLYLINE
  5
3E173
  8
0
 66
     1
 10
0.0
 20
0.0
 30
0.0
 70
    16
 71
     6
 72
     3
  0
VERTEX
  5
3E174
  8
0
 10
0.58
 20
-0.84
 30
0.0
 70
    64
  0
VERTEX
  5
3E175
  8
0
 10
0.58
 20
-0.84
 30
-0.42
 70
    64
  0
VERTEX
  5
3E176
  8
0
 10
0.58
 20
-0.84
 30
-0.42
 70
    64
  0
VERTEX
  5
3E177
  8
0
 10
0.88
 20
-0.84
 30
0.0
 70
    64
  0
VERTEX
  5
3E178
  8
0
 10
0.88
 20
-0.84
 30
-0.42
 70
    64
  0
VERTEX
  5
3E179
  8
0
 10
0.88
 20
-0.84
 30
-0.42
 70
    64
  0
VERTEX
  5
3E17A
  8
0
 10
0.88
 20
-0.66
 30
0.0
 70
    64
  0
VERTEX
  5
3E17B
  8
0
 10
0.88
 20
-0.66
 30
-0.42
 70
    64
  0
VERTEX
  5
3E17C
  8
0
 10
0.88
 20
-0.84
 30
-0.42
 70
    64
  0
VERTEX
  5
3E17D
  8
0
 10
0.58
 20
-0.66
 30
0.0
 70
    64
  0
VERTEX
  5
3E17E
  8
0
 10
0.58
 20
-0.66
 30
-0.42
 70
    64
  0
VERTEX
  5
3E17F
  8
0
 10
0.58
 20
-0.84
 30
-0.42
 70
    64
  0
VERTEX
  5
3E180
  8
0
 10
0.58
 20
-0.66
 30
0.0
 70
    64
  0
VERTEX
  5
3E181
  8
0
 10
0.58
 20
-0.66
 30
0.0
 70
    64
  0
VERTEX
  5
3E182
  8
0
 10
0.58
 20
-0.84
 30
0.0
 70
    64
  0
VERTEX
  5
3E183
  8
0
 10
0.88
 20
-0.66
 30
0.0
 70
    64
  0
VERTEX
  5
3E184
  8
0
 10
0.88
 20
-0.66
 30
0.0
 70
    64
  0
VERTEX
  5
3E185
  8
0
 10
0.88
 20
-0.84
 30
0.0
 70
    64
  0
SEQEND
  5
3E186
  8
0
  0
POLYLINE
  5
3E187
  8
0
 66
     1
 10
0.0
 20
0.0
 30
0.0
 70
    16
 71
     6
 72
     3
  0
VERTEX
  5
3E188
  8
0
 10
-0.58
 20
0.8
 30
0.0
 70
    64
  0
VERTEX
  5
3E189
  8
0
 10
-0.58
 20
0.8
 30
-0.42
 70
    64
  0
VERTEX
  5
3E18A
  8
0
 10
-0.58
 20
0.8
 30
-0.42
 70
    64
  0
VERTEX
  5
3E18B
  8
0
 10
-0.88
 20
0.8
 30
0.0
 70
    64
  0
VERTEX
  5
3E18C
  8
0
 10
-0.88
 20
0.8
 30
-0.42
 70
    64
  0
VERTEX
  5
3E18D
  8
0
 10
-0.88
 20
0.8
 30
-0.42
 70
    64
  0
VERTEX
  5
3E18E
  8
0
 10
-0.88
 20
0.62
 30
0.0
 70
    64
  0
VERTEX
  5
3E18F
  8
0
 10
-0.88
 20
0.62
 30
-0.42
 70
    64
  0
VERTEX
  5
3E190
  8
0
 10
-0.88
 20
0.8
 30
-0.42
 70
    64
  0
VERTEX
  5
3E191
  8
0
 10
-0.58
 20
0.62
 30
0.0
 70
    64
  0
VERTEX
  5
3E192
  8
0
 10
-0.58
 20
0.62
 30
-0.42
 70
    64
  0
VERTEX
  5
3E193
  8
0
 10
-0.58
 20
0.8
 30
-0.42
 70
    64
  0
VERTEX
  5
3E194
  8
0
 10
-0.58
 20
0.62
 30
0.0
 70
    64
  0
VERTEX
  5
3E195
  8
0
 10
-0.58
 20
0.62
 30
0.0
 70
    64
  0
VERTEX
  5
3E196
  8
0
 10
-0.58
 20
0.8
 30
0.0
 70
    64
  0
VERTEX
  5
3E197
  8
0
 10
-0.88
 20
0.62
 30
0.0
 70
    64
  0
VERTEX
  5
3E198
  8
0
 10
-0.88
 20
0.62
 30
0.0
 70
    64
  0
VERTEX
  5
3E199
  8
0
 10
-0.88
 20
0.8
 30
0.0
 70
    64
  0
SEQEND
  5
3E19A
  8
0
  0
POLYLINE
  5
3E19B
  8
0
 66
     1
 10
0.0
 20
0.0
 30
0.0
 70
    16
 71
     6
 72
     3
  0
VERTEX
  5
3E19C
  8
0
 10
0.58
 20
0.8
 30
0.0
 70
    64
  0
VERTEX
  5
3E19D
  8
0
 10
0.58
 20
0.8
 30
-0.42
 70
    64
  0
VERTEX
  5
3E19E
  8
0
 10
0.58
 20
0.8
 30
-0.42
 70
    64
  0
VERTEX
  5
3E19F
  8
0
 10
0.88
 20
0.8
 30
0.0
 70
    64
  0
VERTEX
  5
3E1A0
  8
0
 10
0.88
 20
0.8
 30
-0.42
 70
    64
  0
VERTEX
  5
3E1A1
  8
0
 10
0.88
 20
0.8
 30
-0.42
 70
    64
  0
VERTEX
  5
3E1A2
  8
0
 10
0.88
 20
0.62
 30
0.0
 70
    64
  0
VERTEX
  5
3E1A3
  8
0
 10
0.88
 20
0.62
 30
-0.42
 70
    64
  0
VERTEX
  5
3E1A4
  8
0
 10
0.88
 20
0.8
 30
-0.42
 70
    64
  0
VERTEX
  5
3E1A5
  8
0
 10
0.58
 20
0.62
 30
0.0
 70
    64
  0
VERTEX
  5
3E1A6
  8
0
 10
0.58
 20
0.62
 30
-0.42
 70
    64
  0
VERTEX
  5
3E1A7
  8
0
 10
0.58
 20
0.8
 30
-0.42
 70
    64
  0
VERTEX
  5
3E1A8
  8
0
 10
0.58
 20
0.62
 30
0.0
 70
    64
  0
VERTEX
  5
3E1A9
  8
0
 10
0.58
 20
0.62
 30
0.0
 70
    64
  0
VERTEX
  5
3E1AA
  8
0
 10
0.58
 20
0.8
 30
0.0
 70
    64
  0
VERTEX
  5
3E1AB
  8
0
 10
0.88
 20
0.62
 30
0.0
 70
    64
  0
VERTEX
  5
3E1AC
  8
0
 10
0.88
 20
0.62
 30
0.0
 70
    64
  0
VERTEX
  5
3E1AD
  8
0
 10
0.88
 20
0.8
 30
0.0
 70
    64
  0
SEQEND
  5
3E1AE
  8
0
  0
POLYLINE
  5
3E1C3
  8
0
 66
     1
 10
0.0
 20
0.0
 30
0.0
 70
    16
 71
     6
 72
     3
  0
VERTEX
  5
3E1C4
  8
0
 10
-0.12
 20
-1.54
 30
-2.22
 70
    64
  0
VERTEX
  5
3E1C5
  8
0
 10
-0.12
 20
-1.54
 30
-2.37
 70
    64
  0
VERTEX
  5
3E1C6
  8
0
 10
-0.12
 20
-1.54
 30
-2.37
 70
    64
  0
VERTEX
  5
3E1C7
  8
0
 10
-0.5
 20
-1.54
 30
-2.22
 70
    64
  0
VERTEX
  5
3E1C8
  8
0
 10
-0.5
 20
-1.54
 30
-2.37
 70
    64
  0
VERTEX
  5
3E1C9
  8
0
 10
-0.5
 20
-1.54
 30
-2.37
 70
    64
  0
VERTEX
  5
3E1CA
  8
0
 10
-0.5
 20
-1.26
 30
-2.22
 70
    64
  0
VERTEX
  5
3E1CB
  8
0
 10
-0.5
 20
-1.26
 30
-2.37
 70
    64
  0
VERTEX
  5
3E1CC
  8
0
 10
-0.5
 20
-1.54
 30
-2.37
 70
    64
  0
VERTEX
  5
3E1CD
  8
0
 10
-0.12
 20
-1.26
 30
-2.22
 70
    64
  0
VERTEX
  5
3E1CE
  8
0
 10
-0.12
 20
-1.26
 30
-2.37
 70
    64
  0
VERTEX
  5
3E1CF
  8
0
 10
-0.12
 20
-1.54
 30
-2.37
 70
    64
  0
VERTEX
  5
3E1D0
  8
0
 10
-0.12
 20
-1.26
 30
-2.22
 70
    64
  0
VERTEX
  5
3E1D1
  8
0
 10
-0.12
 20
-1.26
 30
-2.22
 70
    64
  0
VERTEX
  5
3E1D2
  8
0
 10
-0.12
 20
-1.54
 30
-2.22
 70
    64
  0
VERTEX
  5
3E1D3
  8
0
 10
-0.5
 20
-1.26
 30
-2.22
 70
    64
  0
VERTEX
  5
3E1D4
  8
0
 10
-0.5
 20
-1.26
 30
-2.22
 70
    64
  0
VERTEX
  5
3E1D5
  8
0
 10
-0.5
 20
-1.54
 30
-2.22
 70
    64
  0
SEQEND
  5
3E1D6
  8
0
  0
CIRCLE
  5
3E1D8
  8
0
 10
-0.31
 20
-1.4
 30
-2.22
 40
0.09
  0
CIRCLE
  5
3E1D9
  8
0
 10
-0.31
 20
-1.4
 30
-2.37
 40
0.09
  0
LINE
  5
3E1DA
  8
DIMS-MTG-HOLES
  6
CONTINUOUS
 10
-0.4
 20
-1.4
 30
-2.37
 11
-0.22
 21
-1.4
 31
-2.37
  0
LINE
  5
3E1DB
  8
DIMS-MTG-HOLES
  6
CONTINUOUS
 10
-0.31
 20
-1.49
 30
-2.37
 11
-0.31
 21
-1.31
 31
-2.37
  0
POLYLINE
  5
3E1DC
  8
0
 66
     1
 10
0.0
 20
0.0
 30
0.0
 70
    16
 71
     6
 72
     3
  0
VERTEX
  5
3E1DD
  8
0
 10
0.48
 20
1.22
 30
-2.22
 70
    64
  0
VERTEX
  5
3E1DE
  8
0
 10
0.48
 20
1.22
 30
-2.37
 70
    64
  0
VERTEX
  5
3E1DF
  8
0
 10
0.48
 20
1.22
 30
-2.37
 70
    64
  0
VERTEX
  5
3E1E0
  8
0
 10
0.1
 20
1.22
 30
-2.22
 70
    64
  0
VERTEX
  5
3E1E1
  8
0
 10
0.1
 20
1.22
 30
-2.37
 70
    64
  0
VERTEX
  5
3E1E2
  8
0
 10
0.1
 20
1.22
 30
-2.37
 70
    64
  0
VERTEX
  5
3E1E3
  8
0
 10
0.1
 20
1.5
 30
-2.22
 70
    64
  0
VERTEX
  5
3E1E4
  8
0
 10
0.1
 20
1.5
 30
-2.37
 70
    64
  0
VERTEX
  5
3E1E5
  8
0
 10
0.1
 20
1.22
 30
-2.37
 70
    64
  0
VERTEX
  5
3E1E6
  8
0
 10
0.48
 20
1.5
 30
-2.22
 70
    64
  0
VERTEX
  5
3E1E7
  8
0
 10
0.48
 20
1.5
 30
-2.37
 70
    64
  0
VERTEX
  5
3E1E8
  8
0
 10
0.48
 20
1.22
 30
-2.37
 70
    64
  0
VERTEX
  5
3E1E9
  8
0
 10
0.48
 20
1.5
 30
-2.22
 70
    64
  0
VERTEX
  5
3E1EA
  8
0
 10
0.48
 20
1.5
 30
-2.22
 70
    64
  0
VERTEX
  5
3E1EB
  8
0
 10
0.48
 20
1.22
 30
-2.22
 70
    64
  0
VERTEX
  5
3E1EC
  8
0
 10
0.1
 20
1.5
 30
-2.22
 70
    64
  0
VERTEX
  5
3E1ED
  8
0
 10
0.1
 20
1.5
 30
-2.22
 70
    64
  0
VERTEX
  5
3E1EE
  8
0
 10
0.1
 20
1.22
 30
-2.22
 70
    64
  0
SEQEND
  5
3E1EF
  8
0
  0
LINE
  5
3E1F0
  8
DIMS-MTG-HOLES
  6
CONTINUOUS
 10
0.2
 20
1.36
 30
-2.37
 11
0.38
 21
1.36
 31
-2.37
  0
CIRCLE
  5
3E1F1
  8
0
 10
0.29
 20
1.36
 30
-2.37
 40
0.09
  0
LINE
  5
3E1F2
  8
DIMS-MTG-HOLES
  6
CONTINUOUS
 10
0.29
 20
1.27
 30
-2.37
 11
0.29
 21
1.45
 31
-2.37
  0
CIRCLE
  5
3E1F3
  8
0
 10
0.29
 20
1.36
 30
-2.22
 40
0.09
  0
CIRCLE
  5
3E1F4
  8
0
 10
-0.71
 20
-0.73
 30
0.0
 40
0.05
  0
CIRCLE
  5
3E1F5
  8
0
 10
-0.71
 20
0.69
 30
0.0
 40
0.05
  0
CIRCLE
  5
3E1F6
  8
0
 10
0.71
 20
-0.73
 30
0.0
 40
0.05
  0
CIRCLE
  5
3E1F7
  8
0
 10
0.71
 20
0.69
 30
0.0
 40
0.05
  0
POLYLINE
  5
3E1F8
  8
0
 66
     1
 10
0.0
 20
0.0
 30
0.0
 70
    16
 71
     6
 72
     3
  0
VERTEX
  5
3E1F9
  8
0
 10
-0.1
 20
1.22
 30
-2.1
 70
    64
  0
VERTEX
  5
3E1FA
  8
0
 10
-0.1
 20
1.22
 30
-2.37
 70
    64
  0
VERTEX
  5
3E1FB
  8
0
 10
-0.1
 20
1.22
 30
-2.37
 70
    64
  0
VERTEX
  5
3E1FC
  8
0
 10
-0.48
 20
1.22
 30
-2.1
 70
    64
  0
VERTEX
  5
3E1FD
  8
0
 10
-0.48
 20
1.22
 30
-2.37
 70
    64
  0
VERTEX
  5
3E1FE
  8
0
 10
-0.48
 20
1.22
 30
-2.37
 70
    64
  0
VERTEX
  5
3E1FF
  8
0
 10
-0.48
 20
1.42
 30
-2.1
 70
    64
  0
VERTEX
  5
3E200
  8
0
 10
-0.48
 20
1.42
 30
-2.37
 70
    64
  0
VERTEX
  5
3E201
  8
0
 10
-0.48
 20
1.22
 30
-2.37
 70
    64
  0
VERTEX
  5
3E202
  8
0
 10
-0.1
 20
1.42
 30
-2.1
 70
    64
  0
VERTEX
  5
3E203
  8
0
 10
-0.1
 20
1.42
 30
-2.37
 70
    64
  0
VERTEX
  5
3E204
  8
0
 10
-0.1
 20
1.22
 30
-2.37
 70
    64
  0
VERTEX
  5
3E205
  8
0
 10
-0.1
 20
1.42
 30
-2.1
 70
    64
  0
VERTEX
  5
3E206
  8
0
 10
-0.1
 20
1.42
 30
-2.1
 70
    64
  0
VERTEX
  5
3E207
  8
0
 10
-0.1
 20
1.22
 30
-2.1
 70
    64
  0
VERTEX
  5
3E208
  8
0
 10
-0.48
 20
1.42
 30
-2.1
 70
    64
  0
VERTEX
  5
3E209
  8
0
 10
-0.48
 20
1.42
 30
-2.1
 70
    64
  0
VERTEX
  5
3E20A
  8
0
 10
-0.48
 20
1.22
 30
-2.1
 70
    64
  0
SEQEND
  5
3E20B
  8
0
  0
POLYLINE
  5
3E268
  8
0
 66
     1
 10
0.0
 20
0.0
 30
0.0
 70
     1
  0
VERTEX
  5
3E492
  8
0
 10
0.176068
 20
-0.105
 30
0.0
  0
VERTEX
  5
3E493
  8
0
 10
0.27
 20
-0.105
 30
0.0
 42
0.414214
  0
VERTEX
  5
3E494
  8
0
 10
0.32
 20
-0.055
 30
0.0
  0
VERTEX
  5
3E495
  8
0
 10
0.32
 20
0.055
 30
0.0
 42
0.414214
  0
VERTEX
  5
3E496
  8
0
 10
0.27
 20
0.105
 30
0.0
  0
VERTEX
  5
3E497
  8
0
 10
0.176068
 20
0.105
 30
0.0
 42
0.443094
  0
VERTEX
  5
3E498
  8
0
 10
-0.121655
 20
0.165
 30
0.0
  0
VERTEX
  5
3E499
  8
0
 10
-0.27
 20
0.165
 30
0.0
 42
0.414214
  0
VERTEX
  5
3E49A
  8
0
 10
-0.32
 20
0.115
 30
0.0
  0
VERTEX
  5
3E49B
  8
0
 10
-0.32
 20
-0.115
 30
0.0
 42
0.414214
  0
VERTEX
  5
3E49C
  8
0
 10
-0.27
 20
-0.165
 30
0.0
  0
VERTEX
  5
3E49D
  8
0
 10
-0.121655
 20
-0.165
 30
0.0
 42
0.443094
  0
SEQEND
  5
3E49E
  8
0
  0
3DFACE
  5
3E277
  8
0
 10
-0.88
 20
0.105
 30
-1.135
 11
-0.88
 21
-0.145
 31
-1.135
 12
-0.88
 22
-0.145
 32
-1.735
 13
-0.88
 23
0.105
 33
-1.735
  0
3DFACE
  5
3E27D
  8
0
 10
-0.88
 20
0.105
 30
-1.615
 11
-0.88
 21
-0.145
 31
-1.615
 12
-0.88
 22
-0.145
 32
-1.445
 13
-0.88
 23
0.105
 33
-1.445
  0
CIRCLE
  5
3E286
  8
0
 10
-0.575
 20
-0.955
 30
-2.37
 40
0.125
  0
POLYLINE
  5
3E2BC
  8
0
 66
     1
 10
0.0
 20
0.0
 30
-2.37
  0
VERTEX
  5
3E49F
  8
0
 10
-0.56
 20
-1.079097
 30
-2.37
  0
VERTEX
  5
3E4A0
  8
0
 10
-0.56
 20
-0.97
 30
-2.37
  0
VERTEX
  5
3E4A1
  8
0
 10
-0.515
 20
-0.97
 30
-2.37
  0
VERTEX
  5
3E4A2
  8
0
 10
-0.515
 20
-0.94
 30
-2.37
  0
VERTEX
  5
3E4A3
  8
0
 10
-0.56
 20
-0.94
 30
-2.37
  0
VERTEX
  5
3E4A4
  8
0
 10
-0.56
 20
-0.830903
 30
-2.37
  0
SEQEND
  5
3E4A5
  8
0
  0
POLYLINE
  5
3E2C4
  8
0
 66
     1
 10
0.0
 20
0.0
 30
-2.37
  0
VERTEX
  5
3E4A6
  8
0
 10
-0.59
 20
-0.830903
 30
-2.37
  0
VERTEX
  5
3E4A7
  8
0
 10
-0.59
 20
-0.94
 30
-2.37
  0
VERTEX
  5
3E4A8
  8
0
 10
-0.635
 20
-0.94
 30
-2.37
  0
VERTEX
  5
3E4A9
  8
0
 10
-0.635
 20
-0.97
 30
-2.37
  0
VERTEX
  5
3E4AA
  8
0
 10
-0.59
 20
-0.97
 30
-2.37
  0
VERTEX
  5
3E4AB
  8
0
 10
-0.59
 20
-1.079097
 30
-2.37
  0
SEQEND
  5
3E4AC
  8
0
  0
CIRCLE
  5
3E2CC
  8
0
 10
0.575
 20
-0.955
 30
-2.37
 40
0.125
  0
POLYLINE
  5
3E2CD
  8
0
 66
     1
 10
0.0
 20
0.0
 30
-2.37
  0
VERTEX
  5
3E4AD
  8
0
 10
0.59
 20
-0.830903
 30
-2.37
  0
VERTEX
  5
3E4AE
  8
0
 10
0.59
 20
-0.94
 30
-2.37
  0
VERTEX
  5
3E4AF
  8
0
 10
0.635
 20
-0.94
 30
-2.37
  0
VERTEX
  5
3E4B0
  8
0
 10
0.635
 20
-0.97
 30
-2.37
  0
VERTEX
  5
3E4B1
  8
0
 10
0.59
 20
-0.97
 30
-2.37
  0
VERTEX
  5
3E4B2
  8
0
 10
0.59
 20
-1.079097
 30
-2.37
  0
SEQEND
  5
3E4B3
  8
0
  0
POLYLINE
  5
3E2D5
  8
0
 66
     1
 10
0.0
 20
0.0
 30
-2.37
  0
VERTEX
  5
3E4B4
  8
0
 10
0.56
 20
-1.079097
 30
-2.37
  0
VERTEX
  5
3E4B5
  8
0
 10
0.56
 20
-0.97
 30
-2.37
  0
VERTEX
  5
3E4B6
  8
0
 10
0.515
 20
-0.97
 30
-2.37
  0
VERTEX
  5
3E4B7
  8
0
 10
0.515
 20
-0.94
 30
-2.37
  0
VERTEX
  5
3E4B8
  8
0
 10
0.56
 20
-0.94
 30
-2.37
  0
VERTEX
  5
3E4B9
  8
0
 10
0.56
 20
-0.830903
 30
-2.37
  0
SEQEND
  5
3E4BA
  8
0
  0
CIRCLE
  5
3E2DE
  8
0
 10
0.0
 20
-0.955
 30
-2.37
 40
0.125
  0
POLYLINE
  5
3E2DF
  8
0
 66
     1
 10
0.0
 20
0.0
 30
-2.37
  0
VERTEX
  5
3E4BB
  8
0
 10
0.015
 20
-1.079097
 30
-2.37
  0
VERTEX
  5
3E4BC
  8
0
 10
0.015
 20
-0.97
 30
-2.37
  0
VERTEX
  5
3E4BD
  8
0
 10
0.06
 20
-0.97
 30
-2.37
  0
VERTEX
  5
3E4BE
  8
0
 10
0.06
 20
-0.94
 30
-2.37
  0
VERTEX
  5
3E4BF
  8
0
 10
0.015
 20
-0.94
 30
-2.37
  0
VERTEX
  5
3E4C0
  8
0
 10
0.015
 20
-0.830903
 30
-2.37
  0
SEQEND
  5
3E4C1
  8
0
  0
POLYLINE
  5
3E2E7
  8
0
 66
     1
 10
0.0
 20
0.0
 30
-2.37
  0
VERTEX
  5
3E4C2
  8
0
 10
-0.015
 20
-0.830903
 30
-2.37
  0
VERTEX
  5
3E4C3
  8
0
 10
-0.015
 20
-0.94
 30
-2.37
  0
VERTEX
  5
3E4C4
  8
0
 10
-0.06
 20
-0.94
 30
-2.37
  0
VERTEX
  5
3E4C5
  8
0
 10
-0.06
 20
-0.97
 30
-2.37
  0
VERTEX
  5
3E4C6
  8
0
 10
-0.015
 20
-0.97
 30
-2.37
  0
VERTEX
  5
3E4C7
  8
0
 10
-0.015
 20
-1.079097
 30
-2.37
  0
SEQEND
  5
3E4C8
  8
0
  0
3DFACE
  5
3E2EF
  8
0
 10
-0.68
 20
-1.26
 30
-1.05
 11
-0.46
 21
-1.26
 31
-1.05
 12
-0.46
 22
-1.26
 32
-1.35
 13
-0.68
 23
-1.26
 33
-1.35
  0
3DFACE
  5
3E2F0
  8
0
 10
0.68
 20
-1.26
 30
-1.05
 11
0.46
 21
-1.26
 31
-1.05
 12
0.46
 22
-1.26
 32
-1.35
 13
0.68
 23
-1.26
 33
-1.35
  0
3DFACE
  5
3E2F2
  8
0
 10
-0.11
 20
-1.26
 30
-1.05
 11
0.11
 21
-1.26
 31
-1.05
 12
0.11
 22
-1.26
 32
-1.35
 13
-0.11
 23
-1.26
 33
-1.35
  0
CIRCLE
  5
3E2F3
  8
0
 10
-0.575
 20
0.915
 30
-2.37
 40
0.125
  0
POLYLINE
  5
3E2F4
  8
0
 66
     1
 10
0.0
 20
0.0
 30
-2.37
  0
VERTEX
  5
3E4C9
  8
0
 10
-0.56
 20
1.039097
 30
-2.37
  0
VERTEX
  5
3E4CA
  8
0
 10
-0.56
 20
0.93
 30
-2.37
  0
VERTEX
  5
3E4CB
  8
0
 10
-0.515
 20
0.93
 30
-2.37
  0
VERTEX
  5
3E4CC
  8
0
 10
-0.515
 20
0.9
 30
-2.37
  0
VERTEX
  5
3E4CD
  8
0
 10
-0.56
 20
0.9
 30
-2.37
  0
VERTEX
  5
3E4CE
  8
0
 10
-0.56
 20
0.790903
 30
-2.37
  0
SEQEND
  5
3E4CF
  8
0
  0
POLYLINE
  5
3E2FC
  8
0
 66
     1
 10
0.0
 20
0.0
 30
-2.37
  0
VERTEX
  5
3E4D0
  8
0
 10
-0.59
 20
0.790903
 30
-2.37
  0
VERTEX
  5
3E4D1
  8
0
 10
-0.59
 20
0.9
 30
-2.37
  0
VERTEX
  5
3E4D2
  8
0
 10
-0.635
 20
0.9
 30
-2.37
  0
VERTEX
  5
3E4D3
  8
0
 10
-0.635
 20
0.93
 30
-2.37
  0
VERTEX
  5
3E4D4
  8
0
 10
-0.59
 20
0.93
 30
-2.37
  0
VERTEX
  5
3E4D5
  8
0
 10
-0.59
 20
1.039097
 30
-2.37
  0
SEQEND
  5
3E4D6
  8
0
  0
POLYLINE
  5
3E304
  8
0
 66
     1
 10
0.0
 20
0.0
 30
-2.37
  0
VERTEX
  5
3E4D7
  8
0
 10
-0.015
 20
0.790903
 30
-2.37
  0
VERTEX
  5
3E4D8
  8
0
 10
-0.015
 20
0.9
 30
-2.37
  0
VERTEX
  5
3E4D9
  8
0
 10
-0.06
 20
0.9
 30
-2.37
  0
VERTEX
  5
3E4DA
  8
0
 10
-0.06
 20
0.93
 30
-2.37
  0
VERTEX
  5
3E4DB
  8
0
 10
-0.015
 20
0.93
 30
-2.37
  0
VERTEX
  5
3E4DC
  8
0
 10
-0.015
 20
1.039097
 30
-2.37
  0
SEQEND
  5
3E4DD
  8
0
  0
POLYLINE
  5
3E30C
  8
0
 66
     1
 10
0.0
 20
0.0
 30
-2.37
  0
VERTEX
  5
3E4DE
  8
0
 10
0.015
 20
1.039097
 30
-2.37
  0
VERTEX
  5
3E4DF
  8
0
 10
0.015
 20
0.93
 30
-2.37
  0
VERTEX
  5
3E4E0
  8
0
 10
0.06
 20
0.93
 30
-2.37
  0
VERTEX
  5
3E4E1
  8
0
 10
0.06
 20
0.9
 30
-2.37
  0
VERTEX
  5
3E4E2
  8
0
 10
0.015
 20
0.9
 30
-2.37
  0
VERTEX
  5
3E4E3
  8
0
 10
0.015
 20
0.790903
 30
-2.37
  0
SEQEND
  5
3E4E4
  8
0
  0
CIRCLE
  5
3E314
  8
0
 10
0.0
 20
0.915
 30
-2.37
 40
0.125
  0
POLYLINE
  5
3E315
  8
0
 66
     1
 10
0.0
 20
0.0
 30
-2.37
  0
VERTEX
  5
3E4E5
  8
0
 10
0.56
 20
1.039097
 30
-2.37
  0
VERTEX
  5
3E4E6
  8
0
 10
0.56
 20
0.93
 30
-2.37
  0
VERTEX
  5
3E4E7
  8
0
 10
0.515
 20
0.93
 30
-2.37
  0
VERTEX
  5
3E4E8
  8
0
 10
0.515
 20
0.9
 30
-2.37
  0
VERTEX
  5
3E4E9
  8
0
 10
0.56
 20
0.9
 30
-2.37
  0
VERTEX
  5
3E4EA
  8
0
 10
0.56
 20
0.790903
 30
-2.37
  0
SEQEND
  5
3E4EB
  8
0
  0
POLYLINE
  5
3E31D
  8
0
 66
     1
 10
0.0
 20
0.0
 30
-2.37
  0
VERTEX
  5
3E4EC
  8
0
 10
0.59
 20
0.790903
 30
-2.37
  0
VERTEX
  5
3E4ED
  8
0
 10
0.59
 20
0.9
 30
-2.37
  0
VERTEX
  5
3E4EE
  8
0
 10
0.635
 20
0.9
 30
-2.37
  0
VERTEX
  5
3E4EF
  8
0
 10
0.635
 20
0.93
 30
-2.37
  0
VERTEX
  5
3E4F0
  8
0
 10
0.59
 20
0.93
 30
-2.37
  0
VERTEX
  5
3E4F1
  8
0
 10
0.59
 20
1.039097
 30
-2.37
  0
SEQEND
  5
3E4F2
  8
0
  0
CIRCLE
  5
3E325
  8
0
 10
0.575
 20
0.915
 30
-2.37
 40
0.125
  0
3DFACE
  5
3E34D
  8
0
 10
-0.68
 20
1.22
 30
-1.05
 11
-0.46
 21
1.22
 31
-1.05
 12
-0.46
 22
1.22
 32
-1.35
 13
-0.68
 23
1.22
 33
-1.35
  0
3DFACE
  5
3E34E
  8
0
 10
-0.11
 20
1.22
 30
-1.05
 11
0.11
 21
1.22
 31
-1.05
 12
0.11
 22
1.22
 32
-1.35
 13
-0.11
 23
1.22
 33
-1.35
  0
3DFACE
  5
3E34F
  8
0
 10
0.68
 20
1.22
 30
-1.05
 11
0.46
 21
1.22
 31
-1.05
 12
0.46
 22
1.22
 32
-1.35
 13
0.68
 23
1.22
 33
-1.35
  0
ENDSEC
  0
EOF
