  0
SECTION
  2
HEADER
  9
$ACADVER
  1
AC1009
  9
$INSBASE
 10
0.0
 20
0.0
 30
0.0
  9
$EXTMIN
 10
-0.000705
 20
-2.230685
 30
-0.000154
  9
$EXTMAX
 10
1.76082
 20
0.810123
 30
2.520154
  9
$LIMMIN
 10
0.0
 20
0.0
  9
$LIMMAX
 10
12.0
 20
9.0
  9
$ORTHOMODE
 70
     1
  9
$REGENMODE
 70
     1
  9
$FILLMODE
 70
     1
  9
$QTEXTMODE
 70
     0
  9
$MIRRTEXT
 70
     1
  9
$DRAGMODE
 70
     2
  9
$LTSCALE
 40
1.0
  9
$OSMODE
 70
     8
  9
$ATTMODE
 70
     0
  9
$TEXTSIZE
 40
0.12
  9
$TRACEWID
 40
0.05
  9
$TEXTSTYLE
  7
STANDARD
  9
$CLAYER
  8
DIMS-MTG-HOLES
  9
$CELTYPE
  6
BYLAYER
  9
$CECOLOR
 62
   256
  9
$DIMSCALE
 40
1.0
  9
$DIMASZ
 40
0.18
  9
$DIMEXO
 40
0.0625
  9
$DIMDLI
 40
0.38
  9
$DIMRND
 40
0.0
  9
$DIMDLE
 40
0.0
  9
$DIMEXE
 40
0.18
  9
$DIMTP
 40
0.0
  9
$DIMTM
 40
0.0
  9
$DIMTXT
 40
0.18
  9
$DIMCEN
 40
0.09
  9
$DIMTSZ
 40
0.0
  9
$DIMTOL
 70
     0
  9
$DIMLIM
 70
     0
  9
$DIMTIH
 70
     1
  9
$DIMTOH
 70
     1
  9
$DIMSE1
 70
     0
  9
$DIMSE2
 70
     0
  9
$DIMTAD
 70
     0
  9
$DIMZIN
 70
     0
  9
$DIMBLK
  1

  9
$DIMASO
 70
     1
  9
$DIMSHO
 70
     1
  9
$DIMPOST
  1

  9
$DIMAPOST
  1

  9
$DIMALT
 70
     0
  9
$DIMALTD
 70
     2
  9
$DIMALTF
 40
25.4
  9
$DIMLFAC
 40
1.0
  9
$DIMTOFL
 70
     0
  9
$DIMTVP
 40
0.0
  9
$DIMTIX
 70
     0
  9
$DIMSOXD
 70
     0
  9
$DIMSAH
 70
     0
  9
$DIMBLK1
  1

  9
$DIMBLK2
  1

  9
$DIMSTYLE
  2
STANDARD
  9
$DIMCLRD
 70
     0
  9
$DIMCLRE
 70
     0
  9
$DIMCLRT
 70
     0
  9
$DIMTFAC
 40
1.0
  9
$DIMGAP
 40
0.09
  9
$LUNITS
 70
     2
  9
$LUPREC
 70
     4
  9
$SKETCHINC
 40
0.1
  9
$FILLETRAD
 40
0.05
  9
$AUNITS
 70
     0
  9
$AUPREC
 70
     0
  9
$MENU
  1
acad
  9
$ELEVATION
 40
0.0
  9
$PELEVATION
 40
0.0
  9
$THICKNESS
 40
0.0
  9
$LIMCHECK
 70
     0
  9
$BLIPMODE
 70
     0
  9
$CHAMFERA
 40
0.0
  9
$CHAMFERB
 40
0.0
  9
$SKPOLY
 70
     0
  9
$TDCREATE
 40
2450671.056128
  9
$TDUPDATE
 40
2451166.499563
  9
$TDINDWG
 40
0.000928
  9
$TDUSRTIMER
 40
0.000928
  9
$USRTIMER
 70
     1
  9
$ANGBASE
 50
0.0
  9
$ANGDIR
 70
     0
  9
$PDMODE
 70
    96
  9
$PDSIZE
 40
0.09
  9
$PLINEWID
 40
0.0
  9
$COORDS
 70
     1
  9
$SPLFRAME
 70
     1
  9
$SPLINETYPE
 70
     6
  9
$SPLINESEGS
 70
     8
  9
$ATTDIA
 70
     0
  9
$ATTREQ
 70
     1
  9
$HANDLING
 70
     1
  9
$HANDSEED
  5
3E464
  9
$SURFTAB1
 70
     6
  9
$SURFTAB2
 70
     6
  9
$SURFTYPE
 70
     6
  9
$SURFU
 70
     6
  9
$SURFV
 70
     6
  9
$UCSNAME
  2

  9
$UCSORG
 10
0.0
 20
0.0
 30
0.0
  9
$UCSXDIR
 10
1.0
 20
0.0
 30
0.0
  9
$UCSYDIR
 10
0.0
 20
1.0
 30
0.0
  9
$PUCSNAME
  2

  9
$PUCSORG
 10
0.0
 20
0.0
 30
0.0
  9
$PUCSXDIR
 10
1.0
 20
0.0
 30
0.0
  9
$PUCSYDIR
 10
0.0
 20
1.0
 30
0.0
  9
$USERI1
 70
     0
  9
$USERI2
 70
     0
  9
$USERI3
 70
     0
  9
$USERI4
 70
     0
  9
$USERI5
 70
     0
  9
$USERR1
 40
0.0
  9
$USERR2
 40
0.0
  9
$USERR3
 40
0.0
  9
$USERR4
 40
0.0
  9
$USERR5
 40
0.0
  9
$WORLDVIEW
 70
     1
  9
$SHADEDGE
 70
     3
  9
$SHADEDIF
 70
    70
  9
$TILEMODE
 70
     1
  9
$MAXACTVP
 70
    16
  9
$PLIMCHECK
 70
     0
  9
$PEXTMIN
 10
1.000000E+020
 20
1.000000E+020
 30
1.000000E+020
  9
$PEXTMAX
 10
-1.000000E+020
 20
-1.000000E+020
 30
-1.000000E+020
  9
$PLIMMIN
 10
0.0
 20
0.0
  9
$PLIMMAX
 10
12.0
 20
9.0
  9
$UNITMODE
 70
     0
  9
$VISRETAIN
 70
     0
  9
$PLINEGEN
 70
     0
  9
$PSLTSCALE
 70
     1
  0
ENDSEC
  0
SECTION
  2
TABLES
  0
TABLE
  2
VPORT
 70
     2
  0
VPORT
  2
*ACTIVE
 70
     0
 10
0.0
 20
0.0
 11
1.0
 21
1.0
 12
0.880057
 22
-0.710281
 13
0.0
 23
0.0
 14
0.25
 24
0.25
 15
0.25
 25
0.25
 16
0.0
 26
0.0
 36
1.0
 17
0.0
 27
0.0
 37
0.0
 40
3.233513
 41
1.603066
 42
50.0
 43
0.0
 44
0.0
 50
0.0
 51
0.0
 71
     0
 72
 20000
 73
     1
 74
     1
 75
     0
 76
     0
 77
     0
 78
     0
  0
ENDTAB
  0
TABLE
  2
LTYPE
 70
     1
  0
LTYPE
  2
CONTINUOUS
 70
     0
  3
Solid line
 72
    65
 73
     0
 40
0.0
  0
ENDTAB
  0
TABLE
  2
LAYER
 70
     2
  0
LAYER
  2
0
 70
     0
 62
     7
  6
CONTINUOUS
  0
LAYER
  2
DIMS-MTG-HOLES
 70
     0
 62
     1
  6
CONTINUOUS
  0
ENDTAB
  0
TABLE
  2
STYLE
 70
     1
  0
STYLE
  2
STANDARD
 70
     0
 40
0.0
 41
1.0
 50
0.0
 71
     0
 42
0.12
  3
txt
  4

  0
ENDTAB
  0
TABLE
  2
VIEW
 70
     0
  0
ENDTAB
  0
TABLE
  2
UCS
 70
     0
  0
ENDTAB
  0
TABLE
  2
APPID
 70
     1
  0
APPID
  2
ACAD
 70
     0
  0
ENDTAB
  0
TABLE
  2
DIMSTYLE
 70
     1
  0
DIMSTYLE
  2
STANDARD
 70
     0
  3

  4

  5

  6

  7

 40
1.0
 41
0.18
 42
0.0625
 43
0.38
 44
0.18
 45
0.0
 46
0.0
 47
0.0
 48
0.0
140
0.18
141
0.09
142
0.0
143
25.4
144
1.0
145
0.0
146
1.0
147
0.09
 71
     0
 72
     0
 73
     1
 74
     1
 75
     0
 76
     0
 77
     0
 78
     0
170
     0
171
     2
172
     0
173
     0
174
     0
175
     0
176
     0
177
     0
178
     0
  0
ENDTAB
  0
ENDSEC
  0
SECTION
  2
BLOCKS
  0
BLOCK
  8
0
  2
$MODEL_SPACE
 70
     0
 10
0.0
 20
0.0
 30
0.0
  3
$MODEL_SPACE
  1

  0
ENDBLK
  5
3E3E2
  8
0
  0
BLOCK
 67
     1
  8
0
  2
$PAPER_SPACE
 70
     0
 10
0.0
 20
0.0
 30
0.0
  3
$PAPER_SPACE
  1

  0
ENDBLK
  5
3E3E0
 67
     1
  8
0
  0
ENDSEC
  0
SECTION
  2
ENTITIES
  0
POLYLINE
  5
3E10F
  8
0
 66
     1
 10
0.0
 20
0.0
 30
0.0
 70
    16
 71
     6
 72
     3
  0
VERTEX
  5
3E110
  8
0
 10
1.76
 20
-1.95
 30
0.2
 70
    64
  0
VERTEX
  5
3E111
  8
0
 10
1.76
 20
-1.95
 30
0.0
 70
    64
  0
VERTEX
  5
3E112
  8
0
 10
1.76
 20
-1.95
 30
0.0
 70
    64
  0
VERTEX
  5
3E113
  8
0
 10
0.0
 20
-1.95
 30
0.2
 70
    64
  0
VERTEX
  5
3E114
  8
0
 10
0.0
 20
-1.95
 30
0.0
 70
    64
  0
VERTEX
  5
3E115
  8
0
 10
0.0
 20
-1.95
 30
0.0
 70
    64
  0
VERTEX
  5
3E116
  8
0
 10
0.0
 20
-1.34
 30
0.2
 70
    64
  0
VERTEX
  5
3E117
  8
0
 10
0.0
 20
-1.34
 30
0.0
 70
    64
  0
VERTEX
  5
3E118
  8
0
 10
0.0
 20
-1.95
 30
0.0
 70
    64
  0
VERTEX
  5
3E119
  8
0
 10
1.76
 20
-1.34
 30
0.2
 70
    64
  0
VERTEX
  5
3E11A
  8
0
 10
1.76
 20
-1.34
 30
0.0
 70
    64
  0
VERTEX
  5
3E11B
  8
0
 10
1.76
 20
-1.95
 30
0.0
 70
    64
  0
VERTEX
  5
3E11C
  8
0
 10
1.76
 20
-1.34
 30
0.2
 70
    64
  0
VERTEX
  5
3E11D
  8
0
 10
1.76
 20
-1.34
 30
0.2
 70
    64
  0
VERTEX
  5
3E11E
  8
0
 10
1.76
 20
-1.95
 30
0.2
 70
    64
  0
VERTEX
  5
3E11F
  8
0
 10
0.0
 20
-1.34
 30
0.2
 70
    64
  0
VERTEX
  5
3E120
  8
0
 10
0.0
 20
-1.34
 30
0.2
 70
    64
  0
VERTEX
  5
3E121
  8
0
 10
0.0
 20
-1.95
 30
0.2
 70
    64
  0
SEQEND
  5
3E122
  8
0
  0
POLYLINE
  5
3E123
  8
0
 66
     1
 10
0.0
 20
0.0
 30
0.0
 70
    16
 71
     6
 72
     3
  0
VERTEX
  5
3E124
  8
0
 10
1.76
 20
-1.95
 30
1.67
 70
    64
  0
VERTEX
  5
3E125
  8
0
 10
1.76
 20
-1.95
 30
0.2
 70
    64
  0
VERTEX
  5
3E126
  8
0
 10
1.76
 20
-1.95
 30
0.2
 70
    64
  0
VERTEX
  5
3E127
  8
0
 10
0.0
 20
-1.95
 30
1.67
 70
    64
  0
VERTEX
  5
3E128
  8
0
 10
0.0
 20
-1.95
 30
0.2
 70
    64
  0
VERTEX
  5
3E129
  8
0
 10
0.0
 20
-1.95
 30
0.2
 70
    64
  0
VERTEX
  5
3E12A
  8
0
 10
0.0
 20
0.53
 30
1.67
 70
    64
  0
VERTEX
  5
3E12B
  8
0
 10
0.0
 20
0.53
 30
0.2
 70
    64
  0
VERTEX
  5
3E12C
  8
0
 10
0.0
 20
-1.95
 30
0.2
 70
    64
  0
VERTEX
  5
3E12D
  8
0
 10
1.76
 20
0.53
 30
1.67
 70
    64
  0
VERTEX
  5
3E12E
  8
0
 10
1.76
 20
0.53
 30
0.2
 70
    64
  0
VERTEX
  5
3E12F
  8
0
 10
1.76
 20
-1.95
 30
0.2
 70
    64
  0
VERTEX
  5
3E130
  8
0
 10
1.76
 20
0.53
 30
1.67
 70
    64
  0
VERTEX
  5
3E131
  8
0
 10
1.76
 20
0.53
 30
1.67
 70
    64
  0
VERTEX
  5
3E132
  8
0
 10
1.76
 20
-1.95
 30
1.67
 70
    64
  0
VERTEX
  5
3E133
  8
0
 10
0.0
 20
0.53
 30
1.67
 70
    64
  0
VERTEX
  5
3E134
  8
0
 10
0.0
 20
0.53
 30
1.67
 70
    64
  0
VERTEX
  5
3E135
  8
0
 10
0.0
 20
-1.95
 30
1.67
 70
    64
  0
SEQEND
  5
3E136
  8
0
  0
POLYLINE
  5
3E137
  8
0
 66
     1
 10
0.0
 20
0.0
 30
0.0
 70
    16
 71
     6
 72
     3
  0
VERTEX
  5
3E138
  8
0
 10
1.76
 20
0.0
 30
0.2
 70
    64
  0
VERTEX
  5
3E139
  8
0
 10
1.76
 20
0.0
 30
0.0
 70
    64
  0
VERTEX
  5
3E13A
  8
0
 10
1.76
 20
0.0
 30
0.0
 70
    64
  0
VERTEX
  5
3E13B
  8
0
 10
0.0
 20
0.0
 30
0.2
 70
    64
  0
VERTEX
  5
3E13C
  8
0
 10
0.0
 20
0.0
 30
0.0
 70
    64
  0
VERTEX
  5
3E13D
  8
0
 10
0.0
 20
0.0
 30
0.0
 70
    64
  0
VERTEX
  5
3E13E
  8
0
 10
0.0
 20
0.53
 30
0.2
 70
    64
  0
VERTEX
  5
3E13F
  8
0
 10
0.0
 20
0.53
 30
0.0
 70
    64
  0
VERTEX
  5
3E140
  8
0
 10
0.0
 20
0.0
 30
0.0
 70
    64
  0
VERTEX
  5
3E141
  8
0
 10
1.76
 20
0.53
 30
0.2
 70
    64
  0
VERTEX
  5
3E142
  8
0
 10
1.76
 20
0.53
 30
0.0
 70
    64
  0
VERTEX
  5
3E143
  8
0
 10
1.76
 20
0.0
 30
0.0
 70
    64
  0
VERTEX
  5
3E144
  8
0
 10
1.76
 20
0.53
 30
0.2
 70
    64
  0
VERTEX
  5
3E145
  8
0
 10
1.76
 20
0.53
 30
0.2
 70
    64
  0
VERTEX
  5
3E146
  8
0
 10
1.76
 20
0.0
 30
0.2
 70
    64
  0
VERTEX
  5
3E147
  8
0
 10
0.0
 20
0.53
 30
0.2
 70
    64
  0
VERTEX
  5
3E148
  8
0
 10
0.0
 20
0.53
 30
0.2
 70
    64
  0
VERTEX
  5
3E149
  8
0
 10
0.0
 20
0.0
 30
0.2
 70
    64
  0
SEQEND
  5
3E14A
  8
0
  0
POLYLINE
  5
3E14B
  8
0
 66
     1
 10
0.0
 20
0.0
 30
0.0
 70
    16
 71
     6
 72
     3
  0
VERTEX
  5
3E14C
  8
0
 10
1.76
 20
-1.35
 30
2.37
 70
    64
  0
VERTEX
  5
3E14D
  8
0
 10
1.76
 20
-1.35
 30
1.67
 70
    64
  0
VERTEX
  5
3E14E
  8
0
 10
1.76
 20
-1.35
 30
1.67
 70
    64
  0
VERTEX
  5
3E14F
  8
0
 10
0.0
 20
-1.35
 30
2.37
 70
    64
  0
VERTEX
  5
3E150
  8
0
 10
0.0
 20
-1.35
 30
1.67
 70
    64
  0
VERTEX
  5
3E151
  8
0
 10
0.0
 20
-1.35
 30
1.67
 70
    64
  0
VERTEX
  5
3E152
  8
0
 10
0.0
 20
-0.07
 30
2.37
 70
    64
  0
VERTEX
  5
3E153
  8
0
 10
0.0
 20
-0.07
 30
1.67
 70
    64
  0
VERTEX
  5
3E154
  8
0
 10
0.0
 20
-1.35
 30
1.67
 70
    64
  0
VERTEX
  5
3E155
  8
0
 10
1.76
 20
-0.07
 30
2.37
 70
    64
  0
VERTEX
  5
3E156
  8
0
 10
1.76
 20
-0.07
 30
1.67
 70
    64
  0
VERTEX
  5
3E157
  8
0
 10
1.76
 20
-1.35
 30
1.67
 70
    64
  0
VERTEX
  5
3E158
  8
0
 10
1.76
 20
-0.07
 30
2.37
 70
    64
  0
VERTEX
  5
3E159
  8
0
 10
1.76
 20
-0.07
 30
2.37
 70
    64
  0
VERTEX
  5
3E15A
  8
0
 10
1.76
 20
-1.35
 30
2.37
 70
    64
  0
VERTEX
  5
3E15B
  8
0
 10
0.0
 20
-0.07
 30
2.37
 70
    64
  0
VERTEX
  5
3E15C
  8
0
 10
0.0
 20
-0.07
 30
2.37
 70
    64
  0
VERTEX
  5
3E15D
  8
0
 10
0.0
 20
-1.35
 30
2.37
 70
    64
  0
SEQEND
  5
3E15E
  8
0
  0
POLYLINE
  5
3E15F
  8
0
 66
     1
 10
0.0
 20
0.0
 30
0.0
 70
    16
 71
     6
 72
     3
  0
VERTEX
  5
3E160
  8
0
 10
0.3
 20
-1.53
 30
2.37
 70
    64
  0
VERTEX
  5
3E161
  8
0
 10
0.3
 20
-1.53
 30
1.95
 70
    64
  0
VERTEX
  5
3E162
  8
0
 10
0.3
 20
-1.53
 30
1.95
 70
    64
  0
VERTEX
  5
3E163
  8
0
 10
0.0
 20
-1.53
 30
2.37
 70
    64
  0
VERTEX
  5
3E164
  8
0
 10
0.0
 20
-1.53
 30
1.95
 70
    64
  0
VERTEX
  5
3E165
  8
0
 10
0.0
 20
-1.53
 30
1.95
 70
    64
  0
VERTEX
  5
3E166
  8
0
 10
0.0
 20
-1.35
 30
2.37
 70
    64
  0
VERTEX
  5
3E167
  8
0
 10
0.0
 20
-1.35
 30
1.95
 70
    64
  0
VERTEX
  5
3E168
  8
0
 10
0.0
 20
-1.53
 30
1.95
 70
    64
  0
VERTEX
  5
3E169
  8
0
 10
0.3
 20
-1.35
 30
2.37
 70
    64
  0
VERTEX
  5
3E16A
  8
0
 10
0.3
 20
-1.35
 30
1.95
 70
    64
  0
VERTEX
  5
3E16B
  8
0
 10
0.3
 20
-1.53
 30
1.95
 70
    64
  0
VERTEX
  5
3E16C
  8
0
 10
0.3
 20
-1.35
 30
2.37
 70
    64
  0
VERTEX
  5
3E16D
  8
0
 10
0.3
 20
-1.35
 30
2.37
 70
    64
  0
VERTEX
  5
3E16E
  8
0
 10
0.3
 20
-1.53
 30
2.37
 70
    64
  0
VERTEX
  5
3E16F
  8
0
 10
0.0
 20
-1.35
 30
2.37
 70
    64
  0
VERTEX
  5
3E170
  8
0
 10
0.0
 20
-1.35
 30
2.37
 70
    64
  0
VERTEX
  5
3E171
  8
0
 10
0.0
 20
-1.53
 30
2.37
 70
    64
  0
SEQEND
  5
3E172
  8
0
  0
POLYLINE
  5
3E173
  8
0
 66
     1
 10
0.0
 20
0.0
 30
0.0
 70
    16
 71
     6
 72
     3
  0
VERTEX
  5
3E174
  8
0
 10
1.46
 20
-1.53
 30
2.37
 70
    64
  0
VERTEX
  5
3E175
  8
0
 10
1.46
 20
-1.53
 30
1.95
 70
    64
  0
VERTEX
  5
3E176
  8
0
 10
1.46
 20
-1.53
 30
1.95
 70
    64
  0
VERTEX
  5
3E177
  8
0
 10
1.76
 20
-1.53
 30
2.37
 70
    64
  0
VERTEX
  5
3E178
  8
0
 10
1.76
 20
-1.53
 30
1.95
 70
    64
  0
VERTEX
  5
3E179
  8
0
 10
1.76
 20
-1.53
 30
1.95
 70
    64
  0
VERTEX
  5
3E17A
  8
0
 10
1.76
 20
-1.35
 30
2.37
 70
    64
  0
VERTEX
  5
3E17B
  8
0
 10
1.76
 20
-1.35
 30
1.95
 70
    64
  0
VERTEX
  5
3E17C
  8
0
 10
1.76
 20
-1.53
 30
1.95
 70
    64
  0
VERTEX
  5
3E17D
  8
0
 10
1.46
 20
-1.35
 30
2.37
 70
    64
  0
VERTEX
  5
3E17E
  8
0
 10
1.46
 20
-1.35
 30
1.95
 70
    64
  0
VERTEX
  5
3E17F
  8
0
 10
1.46
 20
-1.53
 30
1.95
 70
    64
  0
VERTEX
  5
3E180
  8
0
 10
1.46
 20
-1.35
 30
2.37
 70
    64
  0
VERTEX
  5
3E181
  8
0
 10
1.46
 20
-1.35
 30
2.37
 70
    64
  0
VERTEX
  5
3E182
  8
0
 10
1.46
 20
-1.53
 30
2.37
 70
    64
  0
VERTEX
  5
3E183
  8
0
 10
1.76
 20
-1.35
 30
2.37
 70
    64
  0
VERTEX
  5
3E184
  8
0
 10
1.76
 20
-1.35
 30
2.37
 70
    64
  0
VERTEX
  5
3E185
  8
0
 10
1.76
 20
-1.53
 30
2.37
 70
    64
  0
SEQEND
  5
3E186
  8
0
  0
POLYLINE
  5
3E187
  8
0
 66
     1
 10
0.0
 20
0.0
 30
0.0
 70
    16
 71
     6
 72
     3
  0
VERTEX
  5
3E188
  8
0
 10
0.3
 20
0.11
 30
2.37
 70
    64
  0
VERTEX
  5
3E189
  8
0
 10
0.3
 20
0.11
 30
1.95
 70
    64
  0
VERTEX
  5
3E18A
  8
0
 10
0.3
 20
0.11
 30
1.95
 70
    64
  0
VERTEX
  5
3E18B
  8
0
 10
0.0
 20
0.11
 30
2.37
 70
    64
  0
VERTEX
  5
3E18C
  8
0
 10
0.0
 20
0.11
 30
1.95
 70
    64
  0
VERTEX
  5
3E18D
  8
0
 10
0.0
 20
0.11
 30
1.95
 70
    64
  0
VERTEX
  5
3E18E
  8
0
 10
0.0
 20
-0.07
 30
2.37
 70
    64
  0
VERTEX
  5
3E18F
  8
0
 10
0.0
 20
-0.07
 30
1.95
 70
    64
  0
VERTEX
  5
3E190
  8
0
 10
0.0
 20
0.11
 30
1.95
 70
    64
  0
VERTEX
  5
3E191
  8
0
 10
0.3
 20
-0.07
 30
2.37
 70
    64
  0
VERTEX
  5
3E192
  8
0
 10
0.3
 20
-0.07
 30
1.95
 70
    64
  0
VERTEX
  5
3E193
  8
0
 10
0.3
 20
0.11
 30
1.95
 70
    64
  0
VERTEX
  5
3E194
  8
0
 10
0.3
 20
-0.07
 30
2.37
 70
    64
  0
VERTEX
  5
3E195
  8
0
 10
0.3
 20
-0.07
 30
2.37
 70
    64
  0
VERTEX
  5
3E196
  8
0
 10
0.3
 20
0.11
 30
2.37
 70
    64
  0
VERTEX
  5
3E197
  8
0
 10
0.0
 20
-0.07
 30
2.37
 70
    64
  0
VERTEX
  5
3E198
  8
0
 10
0.0
 20
-0.07
 30
2.37
 70
    64
  0
VERTEX
  5
3E199
  8
0
 10
0.0
 20
0.11
 30
2.37
 70
    64
  0
SEQEND
  5
3E19A
  8
0
  0
POLYLINE
  5
3E19B
  8
0
 66
     1
 10
0.0
 20
0.0
 30
0.0
 70
    16
 71
     6
 72
     3
  0
VERTEX
  5
3E19C
  8
0
 10
1.46
 20
0.11
 30
2.37
 70
    64
  0
VERTEX
  5
3E19D
  8
0
 10
1.46
 20
0.11
 30
1.95
 70
    64
  0
VERTEX
  5
3E19E
  8
0
 10
1.46
 20
0.11
 30
1.95
 70
    64
  0
VERTEX
  5
3E19F
  8
0
 10
1.76
 20
0.11
 30
2.37
 70
    64
  0
VERTEX
  5
3E1A0
  8
0
 10
1.76
 20
0.11
 30
1.95
 70
    64
  0
VERTEX
  5
3E1A1
  8
0
 10
1.76
 20
0.11
 30
1.95
 70
    64
  0
VERTEX
  5
3E1A2
  8
0
 10
1.76
 20
-0.07
 30
2.37
 70
    64
  0
VERTEX
  5
3E1A3
  8
0
 10
1.76
 20
-0.07
 30
1.95
 70
    64
  0
VERTEX
  5
3E1A4
  8
0
 10
1.76
 20
0.11
 30
1.95
 70
    64
  0
VERTEX
  5
3E1A5
  8
0
 10
1.46
 20
-0.07
 30
2.37
 70
    64
  0
VERTEX
  5
3E1A6
  8
0
 10
1.46
 20
-0.07
 30
1.95
 70
    64
  0
VERTEX
  5
3E1A7
  8
0
 10
1.46
 20
0.11
 30
1.95
 70
    64
  0
VERTEX
  5
3E1A8
  8
0
 10
1.46
 20
-0.07
 30
2.37
 70
    64
  0
VERTEX
  5
3E1A9
  8
0
 10
1.46
 20
-0.07
 30
2.37
 70
    64
  0
VERTEX
  5
3E1AA
  8
0
 10
1.46
 20
0.11
 30
2.37
 70
    64
  0
VERTEX
  5
3E1AB
  8
0
 10
1.76
 20
-0.07
 30
2.37
 70
    64
  0
VERTEX
  5
3E1AC
  8
0
 10
1.76
 20
-0.07
 30
2.37
 70
    64
  0
VERTEX
  5
3E1AD
  8
0
 10
1.76
 20
0.11
 30
2.37
 70
    64
  0
SEQEND
  5
3E1AE
  8
0
  0
POLYLINE
  5
3E1C3
  8
0
 66
     1
 10
0.0
 20
0.0
 30
0.0
 70
    16
 71
     6
 72
     3
  0
VERTEX
  5
3E1C4
  8
0
 10
0.76
 20
-2.23
 30
0.15
 70
    64
  0
VERTEX
  5
3E1C5
  8
0
 10
0.76
 20
-2.23
 30
0.0
 70
    64
  0
VERTEX
  5
3E1C6
  8
0
 10
0.76
 20
-2.23
 30
0.0
 70
    64
  0
VERTEX
  5
3E1C7
  8
0
 10
0.38
 20
-2.23
 30
0.15
 70
    64
  0
VERTEX
  5
3E1C8
  8
0
 10
0.38
 20
-2.23
 30
0.0
 70
    64
  0
VERTEX
  5
3E1C9
  8
0
 10
0.38
 20
-2.23
 30
0.0
 70
    64
  0
VERTEX
  5
3E1CA
  8
0
 10
0.38
 20
-1.95
 30
0.15
 70
    64
  0
VERTEX
  5
3E1CB
  8
0
 10
0.38
 20
-1.95
 30
0.0
 70
    64
  0
VERTEX
  5
3E1CC
  8
0
 10
0.38
 20
-2.23
 30
0.0
 70
    64
  0
VERTEX
  5
3E1CD
  8
0
 10
0.76
 20
-1.95
 30
0.15
 70
    64
  0
VERTEX
  5
3E1CE
  8
0
 10
0.76
 20
-1.95
 30
0.0
 70
    64
  0
VERTEX
  5
3E1CF
  8
0
 10
0.76
 20
-2.23
 30
0.0
 70
    64
  0
VERTEX
  5
3E1D0
  8
0
 10
0.76
 20
-1.95
 30
0.15
 70
    64
  0
VERTEX
  5
3E1D1
  8
0
 10
0.76
 20
-1.95
 30
0.15
 70
    64
  0
VERTEX
  5
3E1D2
  8
0
 10
0.76
 20
-2.23
 30
0.15
 70
    64
  0
VERTEX
  5
3E1D3
  8
0
 10
0.38
 20
-1.95
 30
0.15
 70
    64
  0
VERTEX
  5
3E1D4
  8
0
 10
0.38
 20
-1.95
 30
0.15
 70
    64
  0
VERTEX
  5
3E1D5
  8
0
 10
0.38
 20
-2.23
 30
0.15
 70
    64
  0
SEQEND
  5
3E1D6
  8
0
  0
CIRCLE
  5
3E1D8
  8
0
 10
0.57
 20
-2.09
 30
0.15
 40
0.09
  0
CIRCLE
  5
3E1D9
  8
0
 10
0.57
 20
-2.09
 30
0.0
 40
0.09
  0
POLYLINE
  5
3E1DC
  8
0
 66
     1
 10
0.0
 20
0.0
 30
0.0
 70
    16
 71
     6
 72
     3
  0
VERTEX
  5
3E1DD
  8
0
 10
1.36
 20
0.53
 30
0.15
 70
    64
  0
VERTEX
  5
3E1DE
  8
0
 10
1.36
 20
0.53
 30
0.0
 70
    64
  0
VERTEX
  5
3E1DF
  8
0
 10
1.36
 20
0.53
 30
0.0
 70
    64
  0
VERTEX
  5
3E1E0
  8
0
 10
0.98
 20
0.53
 30
0.15
 70
    64
  0
VERTEX
  5
3E1E1
  8
0
 10
0.98
 20
0.53
 30
0.0
 70
    64
  0
VERTEX
  5
3E1E2
  8
0
 10
0.98
 20
0.53
 30
0.0
 70
    64
  0
VERTEX
  5
3E1E3
  8
0
 10
0.98
 20
0.81
 30
0.15
 70
    64
  0
VERTEX
  5
3E1E4
  8
0
 10
0.98
 20
0.81
 30
0.0
 70
    64
  0
VERTEX
  5
3E1E5
  8
0
 10
0.98
 20
0.53
 30
0.0
 70
    64
  0
VERTEX
  5
3E1E6
  8
0
 10
1.36
 20
0.81
 30
0.15
 70
    64
  0
VERTEX
  5
3E1E7
  8
0
 10
1.36
 20
0.81
 30
0.0
 70
    64
  0
VERTEX
  5
3E1E8
  8
0
 10
1.36
 20
0.53
 30
0.0
 70
    64
  0
VERTEX
  5
3E1E9
  8
0
 10
1.36
 20
0.81
 30
0.15
 70
    64
  0
VERTEX
  5
3E1EA
  8
0
 10
1.36
 20
0.81
 30
0.15
 70
    64
  0
VERTEX
  5
3E1EB
  8
0
 10
1.36
 20
0.53
 30
0.15
 70
    64
  0
VERTEX
  5
3E1EC
  8
0
 10
0.98
 20
0.81
 30
0.15
 70
    64
  0
VERTEX
  5
3E1ED
  8
0
 10
0.98
 20
0.81
 30
0.15
 70
    64
  0
VERTEX
  5
3E1EE
  8
0
 10
0.98
 20
0.53
 30
0.15
 70
    64
  0
SEQEND
  5
3E1EF
  8
0
  0
CIRCLE
  5
3E1F1
  8
0
 10
1.17
 20
0.67
 30
0.0
 40
0.09
  0
CIRCLE
  5
3E1F3
  8
0
 10
1.17
 20
0.67
 30
0.15
 40
0.09
  0
CIRCLE
  5
3E1F4
  8
0
 10
0.17
 20
-1.42
 30
2.37
 40
0.05
  0
CIRCLE
  5
3E1F5
  8
0
 10
0.17
 20
0.0
 30
2.37
 40
0.05
  0
CIRCLE
  5
3E1F6
  8
0
 10
1.59
 20
-1.42
 30
2.37
 40
0.05
  0
CIRCLE
  5
3E1F7
  8
0
 10
1.59
 20
0.0
 30
2.37
 40
0.05
  0
POLYLINE
  5
3E1F8
  8
0
 66
     1
 10
0.0
 20
0.0
 30
0.0
 70
    16
 71
     6
 72
     3
  0
VERTEX
  5
3E1F9
  8
0
 10
0.78
 20
0.53
 30
0.27
 70
    64
  0
VERTEX
  5
3E1FA
  8
0
 10
0.78
 20
0.53
 30
0.0
 70
    64
  0
VERTEX
  5
3E1FB
  8
0
 10
0.78
 20
0.53
 30
0.0
 70
    64
  0
VERTEX
  5
3E1FC
  8
0
 10
0.4
 20
0.53
 30
0.27
 70
    64
  0
VERTEX
  5
3E1FD
  8
0
 10
0.4
 20
0.53
 30
0.0
 70
    64
  0
VERTEX
  5
3E1FE
  8
0
 10
0.4
 20
0.53
 30
0.0
 70
    64
  0
VERTEX
  5
3E1FF
  8
0
 10
0.4
 20
0.73
 30
0.27
 70
    64
  0
VERTEX
  5
3E200
  8
0
 10
0.4
 20
0.73
 30
0.0
 70
    64
  0
VERTEX
  5
3E201
  8
0
 10
0.4
 20
0.53
 30
0.0
 70
    64
  0
VERTEX
  5
3E202
  8
0
 10
0.78
 20
0.73
 30
0.27
 70
    64
  0
VERTEX
  5
3E203
  8
0
 10
0.78
 20
0.73
 30
0.0
 70
    64
  0
VERTEX
  5
3E204
  8
0
 10
0.78
 20
0.53
 30
0.0
 70
    64
  0
VERTEX
  5
3E205
  8
0
 10
0.78
 20
0.73
 30
0.27
 70
    64
  0
VERTEX
  5
3E206
  8
0
 10
0.78
 20
0.73
 30
0.27
 70
    64
  0
VERTEX
  5
3E207
  8
0
 10
0.78
 20
0.53
 30
0.27
 70
    64
  0
VERTEX
  5
3E208
  8
0
 10
0.4
 20
0.73
 30
0.27
 70
    64
  0
VERTEX
  5
3E209
  8
0
 10
0.4
 20
0.73
 30
0.27
 70
    64
  0
VERTEX
  5
3E20A
  8
0
 10
0.4
 20
0.53
 30
0.27
 70
    64
  0
SEQEND
  5
3E20B
  8
0
  0
POLYLINE
  5
3E20C
  8
0
 66
     1
 10
0.0
 20
0.0
 30
0.0
 70
    16
 71
     6
 72
     3
  0
VERTEX
  5
3E20D
  8
0
 10
0.63
 20
-0.03
 30
2.52
 70
    64
  0
VERTEX
  5
3E20E
  8
0
 10
0.63
 20
-0.03
 30
1.75
 70
    64
  0
VERTEX
  5
3E20F
  8
0
 10
0.63
 20
-0.03
 30
1.75
 70
    64
  0
VERTEX
  5
3E210
  8
0
 10
0.63
 20
0.09
 30
2.52
 70
    64
  0
VERTEX
  5
3E211
  8
0
 10
0.63
 20
0.09
 30
1.75
 70
    64
  0
VERTEX
  5
3E212
  8
0
 10
0.63
 20
0.09
 30
1.75
 70
    64
  0
VERTEX
  5
3E213
  8
0
 10
1.13
 20
0.09
 30
2.52
 70
    64
  0
VERTEX
  5
3E214
  8
0
 10
1.13
 20
0.09
 30
1.75
 70
    64
  0
VERTEX
  5
3E215
  8
0
 10
0.63
 20
0.09
 30
1.75
 70
    64
  0
VERTEX
  5
3E216
  8
0
 10
1.13
 20
-0.03
 30
2.52
 70
    64
  0
VERTEX
  5
3E217
  8
0
 10
1.13
 20
-0.03
 30
1.75
 70
    64
  0
VERTEX
  5
3E218
  8
0
 10
0.63
 20
-0.03
 30
1.75
 70
    64
  0
VERTEX
  5
3E219
  8
0
 10
1.13
 20
-0.03
 30
2.52
 70
    64
  0
VERTEX
  5
3E21A
  8
0
 10
1.13
 20
-0.03
 30
2.52
 70
    64
  0
VERTEX
  5
3E21B
  8
0
 10
0.63
 20
-0.03
 30
2.52
 70
    64
  0
VERTEX
  5
3E21C
  8
0
 10
1.13
 20
0.09
 30
2.52
 70
    64
  0
VERTEX
  5
3E21D
  8
0
 10
1.13
 20
0.09
 30
2.52
 70
    64
  0
VERTEX
  5
3E21E
  8
0
 10
0.63
 20
0.09
 30
2.52
 70
    64
  0
SEQEND
  5
3E21F
  8
0
  0
CIRCLE
  5
3E220
  8
0
 39
0.15
 10
0.88
 20
-0.69
 30
2.37
 40
0.7
  0
POLYLINE
  5
3E221
  8
0
 66
     1
 10
0.0
 20
0.0
 30
0.0
 70
    16
 71
     6
 72
     3
  0
VERTEX
  5
3E222
  8
0
 10
0.63
 20
-1.47
 30
2.52
 70
    64
  0
VERTEX
  5
3E223
  8
0
 10
0.63
 20
-1.47
 30
1.75
 70
    64
  0
VERTEX
  5
3E224
  8
0
 10
0.63
 20
-1.47
 30
1.75
 70
    64
  0
VERTEX
  5
3E225
  8
0
 10
0.63
 20
-1.35
 30
2.52
 70
    64
  0
VERTEX
  5
3E226
  8
0
 10
0.63
 20
-1.35
 30
1.75
 70
    64
  0
VERTEX
  5
3E227
  8
0
 10
0.63
 20
-1.35
 30
1.75
 70
    64
  0
VERTEX
  5
3E228
  8
0
 10
1.13
 20
-1.35
 30
2.52
 70
    64
  0
VERTEX
  5
3E229
  8
0
 10
1.13
 20
-1.35
 30
1.75
 70
    64
  0
VERTEX
  5
3E22A
  8
0
 10
0.63
 20
-1.35
 30
1.75
 70
    64
  0
VERTEX
  5
3E22B
  8
0
 10
1.13
 20
-1.47
 30
2.52
 70
    64
  0
VERTEX
  5
3E22C
  8
0
 10
1.13
 20
-1.47
 30
1.75
 70
    64
  0
VERTEX
  5
3E22D
  8
0
 10
0.63
 20
-1.47
 30
1.75
 70
    64
  0
VERTEX
  5
3E22E
  8
0
 10
1.13
 20
-1.47
 30
2.52
 70
    64
  0
VERTEX
  5
3E22F
  8
0
 10
1.13
 20
-1.47
 30
2.52
 70
    64
  0
VERTEX
  5
3E230
  8
0
 10
0.63
 20
-1.47
 30
2.52
 70
    64
  0
VERTEX
  5
3E231
  8
0
 10
1.13
 20
-1.35
 30
2.52
 70
    64
  0
VERTEX
  5
3E232
  8
0
 10
1.13
 20
-1.35
 30
2.52
 70
    64
  0
VERTEX
  5
3E233
  8
0
 10
0.63
 20
-1.35
 30
2.52
 70
    64
  0
SEQEND
  5
3E234
  8
0
  0
POLYLINE
  5
3E255
  8
0
 66
     1
 10
0.0
 20
0.0
 30
2.52
 70
     1
  0
VERTEX
  5
3E3F5
  8
0
 10
1.056068
 20
-0.795
 30
2.52
  0
VERTEX
  5
3E3F6
  8
0
 10
1.15
 20
-0.795
 30
2.52
 42
0.414214
  0
VERTEX
  5
3E3F7
  8
0
 10
1.2
 20
-0.745
 30
2.52
  0
VERTEX
  5
3E3F8
  8
0
 10
1.2
 20
-0.635
 30
2.52
 42
0.414214
  0
VERTEX
  5
3E3F9
  8
0
 10
1.15
 20
-0.585
 30
2.52
  0
VERTEX
  5
3E3FA
  8
0
 10
1.056068
 20
-0.585
 30
2.52
 42
0.443094
  0
VERTEX
  5
3E3FB
  8
0
 10
0.758345
 20
-0.525
 30
2.52
  0
VERTEX
  5
3E3FC
  8
0
 10
0.61
 20
-0.525
 30
2.52
 42
0.414214
  0
VERTEX
  5
3E3FD
  8
0
 10
0.56
 20
-0.575
 30
2.52
  0
VERTEX
  5
3E3FE
  8
0
 10
0.56
 20
-0.805
 30
2.52
 42
0.414214
  0
VERTEX
  5
3E3FF
  8
0
 10
0.61
 20
-0.855
 30
2.52
  0
VERTEX
  5
3E400
  8
0
 10
0.758345
 20
-0.855
 30
2.52
 42
0.443094
  0
SEQEND
  5
3E401
  8
0
  0
POLYLINE
  5
3E268
  8
0
 66
     1
 10
0.0
 20
0.0
 30
2.37
 70
     1
  0
VERTEX
  5
3E402
  8
0
 10
1.056068
 20
-0.795
 30
2.37
  0
VERTEX
  5
3E403
  8
0
 10
1.15
 20
-0.795
 30
2.37
 42
0.414214
  0
VERTEX
  5
3E404
  8
0
 10
1.2
 20
-0.745
 30
2.37
  0
VERTEX
  5
3E405
  8
0
 10
1.2
 20
-0.635
 30
2.37
 42
0.414214
  0
VERTEX
  5
3E406
  8
0
 10
1.15
 20
-0.585
 30
2.37
  0
VERTEX
  5
3E407
  8
0
 10
1.056068
 20
-0.585
 30
2.37
 42
0.443094
  0
VERTEX
  5
3E408
  8
0
 10
0.758345
 20
-0.525
 30
2.37
  0
VERTEX
  5
3E409
  8
0
 10
0.61
 20
-0.525
 30
2.37
 42
0.414214
  0
VERTEX
  5
3E40A
  8
0
 10
0.56
 20
-0.575
 30
2.37
  0
VERTEX
  5
3E40B
  8
0
 10
0.56
 20
-0.805
 30
2.37
 42
0.414214
  0
VERTEX
  5
3E40C
  8
0
 10
0.61
 20
-0.855
 30
2.37
  0
VERTEX
  5
3E40D
  8
0
 10
0.758345
 20
-0.855
 30
2.37
 42
0.443094
  0
SEQEND
  5
3E40E
  8
0
  0
LINE
  5
3E276
  8
DIMS-MTG-HOLES
 10
0.88
 20
-1.35
 30
2.52
 11
0.88
 21
-1.35
 31
2.37
  0
3DFACE
  5
3E277
  8
0
 10
0.0
 20
-0.585
 30
1.235
 11
0.0
 21
-0.835
 31
1.235
 12
0.0
 22
-0.835
 32
0.635
 13
0.0
 23
-0.585
 33
0.635
  0
3DFACE
  5
3E27D
  8
0
 10
0.0
 20
-0.585
 30
0.755
 11
0.0
 21
-0.835
 31
0.755
 12
0.0
 22
-0.835
 32
0.925
 13
0.0
 23
-0.585
 33
0.925
  0
3DFACE
  5
3E280
  8
0
 10
1.76
 20
-0.585
 30
1.235
 11
1.76
 21
-0.835
 31
1.235
 12
1.76
 22
-0.835
 32
0.635
 13
1.76
 23
-0.585
 33
0.635
  0
3DFACE
  5
3E281
  8
0
 10
1.76
 20
-0.585
 30
0.755
 11
1.76
 21
-0.835
 31
0.755
 12
1.76
 22
-0.835
 32
0.925
 13
1.76
 23
-0.585
 33
0.925
  0
CIRCLE
  5
3E286
  8
0
 10
0.305
 20
-1.645
 30
1.67
 40
0.125
  0
POLYLINE
  5
3E2BC
  8
0
 66
     1
 10
0.0
 20
0.0
 30
1.67
  0
VERTEX
  5
3E40F
  8
0
 10
0.32
 20
-1.769097
 30
1.67
  0
VERTEX
  5
3E410
  8
0
 10
0.32
 20
-1.66
 30
1.67
  0
VERTEX
  5
3E411
  8
0
 10
0.365
 20
-1.66
 30
1.67
  0
VERTEX
  5
3E412
  8
0
 10
0.365
 20
-1.63
 30
1.67
  0
VERTEX
  5
3E413
  8
0
 10
0.32
 20
-1.63
 30
1.67
  0
VERTEX
  5
3E414
  8
0
 10
0.32
 20
-1.520903
 30
1.67
  0
SEQEND
  5
3E415
  8
0
  0
POLYLINE
  5
3E2C4
  8
0
 66
     1
 10
0.0
 20
0.0
 30
1.67
  0
VERTEX
  5
3E416
  8
0
 10
0.29
 20
-1.520903
 30
1.67
  0
VERTEX
  5
3E417
  8
0
 10
0.29
 20
-1.63
 30
1.67
  0
VERTEX
  5
3E418
  8
0
 10
0.245
 20
-1.63
 30
1.67
  0
VERTEX
  5
3E419
  8
0
 10
0.245
 20
-1.66
 30
1.67
  0
VERTEX
  5
3E41A
  8
0
 10
0.29
 20
-1.66
 30
1.67
  0
VERTEX
  5
3E41B
  8
0
 10
0.29
 20
-1.769097
 30
1.67
  0
SEQEND
  5
3E41C
  8
0
  0
CIRCLE
  5
3E2CC
  8
0
 10
1.455
 20
-1.645
 30
1.67
 40
0.125
  0
POLYLINE
  5
3E2CD
  8
0
 66
     1
 10
0.0
 20
0.0
 30
1.67
  0
VERTEX
  5
3E41D
  8
0
 10
1.47
 20
-1.520903
 30
1.67
  0
VERTEX
  5
3E41E
  8
0
 10
1.47
 20
-1.63
 30
1.67
  0
VERTEX
  5
3E41F
  8
0
 10
1.515
 20
-1.63
 30
1.67
  0
VERTEX
  5
3E420
  8
0
 10
1.515
 20
-1.66
 30
1.67
  0
VERTEX
  5
3E421
  8
0
 10
1.47
 20
-1.66
 30
1.67
  0
VERTEX
  5
3E422
  8
0
 10
1.47
 20
-1.769097
 30
1.67
  0
SEQEND
  5
3E423
  8
0
  0
POLYLINE
  5
3E2D5
  8
0
 66
     1
 10
0.0
 20
0.0
 30
1.67
  0
VERTEX
  5
3E424
  8
0
 10
1.44
 20
-1.769097
 30
1.67
  0
VERTEX
  5
3E425
  8
0
 10
1.44
 20
-1.66
 30
1.67
  0
VERTEX
  5
3E426
  8
0
 10
1.395
 20
-1.66
 30
1.67
  0
VERTEX
  5
3E427
  8
0
 10
1.395
 20
-1.63
 30
1.67
  0
VERTEX
  5
3E428
  8
0
 10
1.44
 20
-1.63
 30
1.67
  0
VERTEX
  5
3E429
  8
0
 10
1.44
 20
-1.520903
 30
1.67
  0
SEQEND
  5
3E42A
  8
0
  0
CIRCLE
  5
3E2DE
  8
0
 10
0.88
 20
-1.645
 30
1.67
 40
0.125
  0
POLYLINE
  5
3E2DF
  8
0
 66
     1
 10
0.0
 20
0.0
 30
1.67
  0
VERTEX
  5
3E42B
  8
0
 10
0.895
 20
-1.769097
 30
1.67
  0
VERTEX
  5
3E42C
  8
0
 10
0.895
 20
-1.66
 30
1.67
  0
VERTEX
  5
3E42D
  8
0
 10
0.94
 20
-1.66
 30
1.67
  0
VERTEX
  5
3E42E
  8
0
 10
0.94
 20
-1.63
 30
1.67
  0
VERTEX
  5
3E42F
  8
0
 10
0.895
 20
-1.63
 30
1.67
  0
VERTEX
  5
3E430
  8
0
 10
0.895
 20
-1.520903
 30
1.67
  0
SEQEND
  5
3E431
  8
0
  0
POLYLINE
  5
3E2E7
  8
0
 66
     1
 10
0.0
 20
0.0
 30
1.67
  0
VERTEX
  5
3E432
  8
0
 10
0.865
 20
-1.520903
 30
1.67
  0
VERTEX
  5
3E433
  8
0
 10
0.865
 20
-1.63
 30
1.67
  0
VERTEX
  5
3E434
  8
0
 10
0.82
 20
-1.63
 30
1.67
  0
VERTEX
  5
3E435
  8
0
 10
0.82
 20
-1.66
 30
1.67
  0
VERTEX
  5
3E436
  8
0
 10
0.865
 20
-1.66
 30
1.67
  0
VERTEX
  5
3E437
  8
0
 10
0.865
 20
-1.769097
 30
1.67
  0
SEQEND
  5
3E438
  8
0
  0
3DFACE
  5
3E2EF
  8
0
 10
0.2
 20
-1.95
 30
0.97
 11
0.42
 21
-1.95
 31
0.97
 12
0.42
 22
-1.95
 32
0.67
 13
0.2
 23
-1.95
 33
0.67
  0
3DFACE
  5
3E2F0
  8
0
 10
1.56
 20
-1.95
 30
0.97
 11
1.34
 21
-1.95
 31
0.97
 12
1.34
 22
-1.95
 32
0.67
 13
1.56
 23
-1.95
 33
0.67
  0
3DFACE
  5
3E2F2
  8
0
 10
0.77
 20
-1.95
 30
0.97
 11
0.99
 21
-1.95
 31
0.97
 12
0.99
 22
-1.95
 32
0.67
 13
0.77
 23
-1.95
 33
0.67
  0
CIRCLE
  5
3E2F3
  8
0
 10
0.305
 20
0.225
 30
1.67
 40
0.125
  0
POLYLINE
  5
3E2F4
  8
0
 66
     1
 10
0.0
 20
0.0
 30
1.67
  0
VERTEX
  5
3E439
  8
0
 10
0.32
 20
0.349097
 30
1.67
  0
VERTEX
  5
3E43A
  8
0
 10
0.32
 20
0.24
 30
1.67
  0
VERTEX
  5
3E43B
  8
0
 10
0.365
 20
0.24
 30
1.67
  0
VERTEX
  5
3E43C
  8
0
 10
0.365
 20
0.21
 30
1.67
  0
VERTEX
  5
3E43D
  8
0
 10
0.32
 20
0.21
 30
1.67
  0
VERTEX
  5
3E43E
  8
0
 10
0.32
 20
0.100903
 30
1.67
  0
SEQEND
  5
3E43F
  8
0
  0
POLYLINE
  5
3E2FC
  8
0
 66
     1
 10
0.0
 20
0.0
 30
1.67
  0
VERTEX
  5
3E440
  8
0
 10
0.29
 20
0.100903
 30
1.67
  0
VERTEX
  5
3E441
  8
0
 10
0.29
 20
0.21
 30
1.67
  0
VERTEX
  5
3E442
  8
0
 10
0.245
 20
0.21
 30
1.67
  0
VERTEX
  5
3E443
  8
0
 10
0.245
 20
0.24
 30
1.67
  0
VERTEX
  5
3E444
  8
0
 10
0.29
 20
0.24
 30
1.67
  0
VERTEX
  5
3E445
  8
0
 10
0.29
 20
0.349097
 30
1.67
  0
SEQEND
  5
3E446
  8
0
  0
POLYLINE
  5
3E304
  8
0
 66
     1
 10
0.0
 20
0.0
 30
1.67
  0
VERTEX
  5
3E447
  8
0
 10
0.865
 20
0.100903
 30
1.67
  0
VERTEX
  5
3E448
  8
0
 10
0.865
 20
0.21
 30
1.67
  0
VERTEX
  5
3E449
  8
0
 10
0.82
 20
0.21
 30
1.67
  0
VERTEX
  5
3E44A
  8
0
 10
0.82
 20
0.24
 30
1.67
  0
VERTEX
  5
3E44B
  8
0
 10
0.865
 20
0.24
 30
1.67
  0
VERTEX
  5
3E44C
  8
0
 10
0.865
 20
0.349097
 30
1.67
  0
SEQEND
  5
3E44D
  8
0
  0
POLYLINE
  5
3E30C
  8
0
 66
     1
 10
0.0
 20
0.0
 30
1.67
  0
VERTEX
  5
3E44E
  8
0
 10
0.895
 20
0.349097
 30
1.67
  0
VERTEX
  5
3E44F
  8
0
 10
0.895
 20
0.24
 30
1.67
  0
VERTEX
  5
3E450
  8
0
 10
0.94
 20
0.24
 30
1.67
  0
VERTEX
  5
3E451
  8
0
 10
0.94
 20
0.21
 30
1.67
  0
VERTEX
  5
3E452
  8
0
 10
0.895
 20
0.21
 30
1.67
  0
VERTEX
  5
3E453
  8
0
 10
0.895
 20
0.100903
 30
1.67
  0
SEQEND
  5
3E454
  8
0
  0
CIRCLE
  5
3E314
  8
0
 10
0.88
 20
0.225
 30
1.67
 40
0.125
  0
POLYLINE
  5
3E315
  8
0
 66
     1
 10
0.0
 20
0.0
 30
1.67
  0
VERTEX
  5
3E455
  8
0
 10
1.44
 20
0.349097
 30
1.67
  0
VERTEX
  5
3E456
  8
0
 10
1.44
 20
0.24
 30
1.67
  0
VERTEX
  5
3E457
  8
0
 10
1.395
 20
0.24
 30
1.67
  0
VERTEX
  5
3E458
  8
0
 10
1.395
 20
0.21
 30
1.67
  0
VERTEX
  5
3E459
  8
0
 10
1.44
 20
0.21
 30
1.67
  0
VERTEX
  5
3E45A
  8
0
 10
1.44
 20
0.100903
 30
1.67
  0
SEQEND
  5
3E45B
  8
0
  0
POLYLINE
  5
3E31D
  8
0
 66
     1
 10
0.0
 20
0.0
 30
1.67
  0
VERTEX
  5
3E45C
  8
0
 10
1.47
 20
0.100903
 30
1.67
  0
VERTEX
  5
3E45D
  8
0
 10
1.47
 20
0.21
 30
1.67
  0
VERTEX
  5
3E45E
  8
0
 10
1.515
 20
0.21
 30
1.67
  0
VERTEX
  5
3E45F
  8
0
 10
1.515
 20
0.24
 30
1.67
  0
VERTEX
  5
3E460
  8
0
 10
1.47
 20
0.24
 30
1.67
  0
VERTEX
  5
3E461
  8
0
 10
1.47
 20
0.349097
 30
1.67
  0
SEQEND
  5
3E462
  8
0
  0
CIRCLE
  5
3E325
  8
0
 10
1.455
 20
0.225
 30
1.67
 40
0.125
  0
3DFACE
  5
3E326
  8
0
 10
1.56
 20
0.53
 30
0.97
 11
1.34
 21
0.53
 31
0.97
 12
1.34
 22
0.53
 32
0.67
 13
1.56
 23
0.53
 33
0.67
  0
3DFACE
  5
3E327
  8
0
 10
0.77
 20
0.53
 30
0.97
 11
0.99
 21
0.53
 31
0.97
 12
0.99
 22
0.53
 32
0.67
 13
0.77
 23
0.53
 33
0.67
  0
3DFACE
  5
3E328
  8
0
 10
0.2
 20
0.53
 30
0.97
 11
0.42
 21
0.53
 31
0.97
 12
0.42
 22
0.53
 32
0.67
 13
0.2
 23
0.53
 33
0.67
  0
LINE
  5
3E3E9
  8
DIMS-MTG-HOLES
 10
1.08
 20
0.67
 30
0.0
 11
1.26
 21
0.67
 31
0.0
  0
LINE
  5
3E3EA
  8
DIMS-MTG-HOLES
 10
1.17
 20
0.58
 30
0.0
 11
1.17
 21
0.76
 31
0.0
  0
LINE
  5
3E3EB
  8
DIMS-MTG-HOLES
 10
0.48
 20
-2.09
 30
0.0
 11
0.66
 21
-2.09
 31
0.0
  0
LINE
  5
3E3EC
  8
DIMS-MTG-HOLES
 10
0.57
 20
-2.18
 30
0.0
 11
0.57
 21
-2.0
 31
0.0
  0
ENDSEC
  0
EOF
