  0
SECTION
  2
HEADER
  9
$ACADVER
  1
AC1009
  9
$INSBASE
 10
140.0
 20
200.0
 30
0.0
  9
$EXTMIN
 10
139.071809
 20
199.073182
 30
0.0
  9
$EXTMAX
 10
140.933
 20
201.123963
 30
0.0
  9
$LIMMIN
 10
0.0
 20
0.0
  9
$LIMMAX
 10
595.0
 20
420.0
  9
$ORTHOMODE
 70
     1
  9
$REGENMODE
 70
     1
  9
$FILLMODE
 70
     1
  9
$QTEXTMODE
 70
     0
  9
$MIRRTEXT
 70
     1
  9
$DRAGMODE
 70
     2
  9
$LTSCALE
 40
10.0
  9
$OSMODE
 70
     0
  9
$ATTMODE
 70
     1
  9
$TEXTSIZE
 40
3.5
  9
$TRACEWID
 40
1.0
  9
$TEXTSTYLE
  7
STANDARD
  9
$CLAYER
  8
0
  9
$CELTYPE
  6
BYLAYER
  9
$CECOLOR
 62
   256
  9
$DIMSCALE
 40
1.0
  9
$DIMASZ
 40
3.5
  9
$DIMEXO
 40
0.1
  9
$DIMDLI
 40
7.0
  9
$DIMRND
 40
0.0
  9
$DIMDLE
 40
0.0
  9
$DIMEXE
 40
1.8
  9
$DIMTP
 40
0.0
  9
$DIMTM
 40
0.0
  9
$DIMTXT
 40
3.5
  9
$DIMCEN
 40
1.5
  9
$DIMTSZ
 40
0.0
  9
$DIMTOL
 70
     0
  9
$DIMLIM
 70
     0
  9
$DIMTIH
 70
     0
  9
$DIMTOH
 70
     0
  9
$DIMSE1
 70
     0
  9
$DIMSE2
 70
     0
  9
$DIMTAD
 70
     0
  9
$DIMZIN
 70
     0
  9
$DIMBLK
  1

  9
$DIMASO
 70
     1
  9
$DIMSHO
 70
     0
  9
$DIMPOST
  1

  9
$DIMAPOST
  1

  9
$DIMALT
 70
     0
  9
$DIMALTD
 70
     2
  9
$DIMALTF
 40
25.4
  9
$DIMLFAC
 40
1.0
  9
$DIMTOFL
 70
     0
  9
$DIMTVP
 40
0.0
  9
$DIMTIX
 70
     0
  9
$DIMSOXD
 70
     0
  9
$DIMSAH
 70
     0
  9
$DIMBLK1
  1

  9
$DIMBLK2
  1

  9
$DIMSTYLE
  2
STANDARD
  9
$DIMCLRD
 70
     0
  9
$DIMCLRE
 70
     0
  9
$DIMCLRT
 70
     0
  9
$DIMTFAC
 40
1.0
  9
$DIMGAP
 40
0.09
  9
$LUNITS
 70
     2
  9
$LUPREC
 70
     2
  9
$SKETCHINC
 40
1.0
  9
$FILLETRAD
 40
0.0
  9
$AUNITS
 70
     0
  9
$AUPREC
 70
     0
  9
$MENU
  1
acad
  9
$ELEVATION
 40
0.0
  9
$PELEVATION
 40
0.0
  9
$THICKNESS
 40
0.0
  9
$LIMCHECK
 70
     0
  9
$BLIPMODE
 70
     1
  9
$CHAMFERA
 40
0.0
  9
$CHAMFERB
 40
0.0
  9
$SKPOLY
 70
     0
  9
$TDCREATE
 40
2450478.697341
  9
$TDUPDATE
 40
2451157.420247
  9
$TDINDWG
 40
0.003127
  9
$TDUSRTIMER
 40
0.003127
  9
$USRTIMER
 70
     1
  9
$ANGBASE
 50
0.0
  9
$ANGDIR
 70
     0
  9
$PDMODE
 70
     0
  9
$PDSIZE
 40
0.0
  9
$PLINEWID
 40
0.0
  9
$COORDS
 70
     1
  9
$SPLFRAME
 70
     0
  9
$SPLINETYPE
 70
     6
  9
$SPLINESEGS
 70
     8
  9
$ATTDIA
 70
     0
  9
$ATTREQ
 70
     1
  9
$HANDLING
 70
     1
  9
$HANDSEED
  5
5A
  9
$SURFTAB1
 70
     6
  9
$SURFTAB2
 70
     6
  9
$SURFTYPE
 70
     6
  9
$SURFU
 70
     6
  9
$SURFV
 70
     6
  9
$UCSNAME
  2

  9
$UCSORG
 10
0.0
 20
0.0
 30
0.0
  9
$UCSXDIR
 10
1.0
 20
0.0
 30
0.0
  9
$UCSYDIR
 10
0.0
 20
1.0
 30
0.0
  9
$PUCSNAME
  2

  9
$PUCSORG
 10
0.0
 20
0.0
 30
0.0
  9
$PUCSXDIR
 10
1.0
 20
0.0
 30
0.0
  9
$PUCSYDIR
 10
0.0
 20
1.0
 30
0.0
  9
$USERI1
 70
     0
  9
$USERI2
 70
     0
  9
$USERI3
 70
     0
  9
$USERI4
 70
     0
  9
$USERI5
 70
     0
  9
$USERR1
 40
0.0
  9
$USERR2
 40
0.0
  9
$USERR3
 40
0.0
  9
$USERR4
 40
0.0
  9
$USERR5
 40
0.0
  9
$WORLDVIEW
 70
     1
  9
$SHADEDGE
 70
     3
  9
$SHADEDIF
 70
    70
  9
$TILEMODE
 70
     1
  9
$MAXACTVP
 70
    16
  9
$PLIMCHECK
 70
     0
  9
$PEXTMIN
 10
1.000000E+020
 20
1.000000E+020
 30
1.000000E+020
  9
$PEXTMAX
 10
-1.000000E+020
 20
-1.000000E+020
 30
-1.000000E+020
  9
$PLIMMIN
 10
0.0
 20
0.0
  9
$PLIMMAX
 10
12.0
 20
9.0
  9
$UNITMODE
 70
     0
  9
$VISRETAIN
 70
     0
  9
$PLINEGEN
 70
     0
  9
$PSLTSCALE
 70
     0
  0
ENDSEC
  0
SECTION
  2
TABLES
  0
TABLE
  2
VPORT
 70
     2
  0
VPORT
  2
*ACTIVE
 70
     0
 10
0.0
 20
0.0
 11
1.0
 21
1.0
 12
140.002404
 22
200.098573
 13
0.0
 23
0.0
 14
0.5
 24
0.5
 15
10.0
 25
10.0
 16
0.0
 26
0.0
 36
1.0
 17
0.0
 27
0.0
 37
0.0
 40
2.180744
 41
1.603066
 42
50.0
 43
0.0
 44
0.0
 50
0.0
 51
0.0
 71
     0
 72
   100
 73
     1
 74
     1
 75
     1
 76
     1
 77
     0
 78
     0
  0
ENDTAB
  0
TABLE
  2
LTYPE
 70
     1
  0
LTYPE
  2
CONTINUOUS
 70
     0
  3
Solid Line
 72
    65
 73
     0
 40
0.0
  0
ENDTAB
  0
TABLE
  2
LAYER
 70
     1
  0
LAYER
  2
0
 70
     0
 62
     7
  6
CONTINUOUS
  0
ENDTAB
  0
TABLE
  2
STYLE
 70
     1
  0
STYLE
  2
STANDARD
 70
     0
 40
0.0
 41
1.0
 50
0.0
 71
     0
 42
3.5
  3
txt
  4

  0
ENDTAB
  0
TABLE
  2
VIEW
 70
     0
  0
ENDTAB
  0
TABLE
  2
UCS
 70
     0
  0
ENDTAB
  0
TABLE
  2
APPID
 70
     1
  0
APPID
  2
ACAD
 70
     0
  0
ENDTAB
  0
TABLE
  2
DIMSTYLE
 70
     1
  0
DIMSTYLE
  2
STANDARD
 70
     0
  3

  4

  5

  6

  7

 40
1.0
 41
0.18
 42
0.0625
 43
0.38
 44
0.18
 45
0.0
 46
0.0
 47
0.0
 48
0.0
140
0.18
141
0.09
142
0.0
143
25.4
144
1.0
145
0.0
146
1.0
147
0.09
 71
     0
 72
     0
 73
     1
 74
     1
 75
     0
 76
     0
 77
     0
 78
     0
170
     0
171
     2
172
     0
173
     0
174
     0
175
     0
176
     0
177
     0
178
     0
  0
ENDTAB
  0
ENDSEC
  0
SECTION
  2
BLOCKS
  0
BLOCK
  8
0
  2
$MODEL_SPACE
 70
     0
 10
0.0
 20
0.0
 30
0.0
  3
$MODEL_SPACE
  1

  0
ENDBLK
  5
20
  8
0
  0
BLOCK
 67
     1
  8
0
  2
$PAPER_SPACE
 70
     0
 10
0.0
 20
0.0
 30
0.0
  3
$PAPER_SPACE
  1

  0
ENDBLK
  5
1E
 67
     1
  8
0
  0
ENDSEC
  0
SECTION
  2
ENTITIES
  0
ARC
  5
23
  8
0
  6
CONTINUOUS
 10
140.374015
 20
200.374015
 30
0.0
 40
0.15748
 50
0.0
 51
90.000022
  0
ARC
  5
24
  8
0
  6
CONTINUOUS
 10
140.374015
 20
200.374015
 30
0.0
 40
0.11811
 50
0.0
 51
90.000061
  0
LINE
  5
25
  8
0
  6
CONTINUOUS
 10
140.885825
 20
199.074805
 30
0.0
 11
140.885825
 21
200.925195
 31
0.0
  0
ARC
  5
26
  8
0
  6
CONTINUOUS
 10
139.625985
 20
200.374015
 30
0.0
 40
0.15748
 50
90.0
 51
180.0
  0
ARC
  5
27
  8
0
  6
CONTINUOUS
 10
139.625985
 20
200.374015
 30
0.0
 40
0.11811
 50
90.0
 51
179.99996
  0
LINE
  5
28
  8
0
  6
CONTINUOUS
 10
139.114175
 20
199.074805
 30
0.0
 11
139.114175
 21
200.925195
 31
0.0
  0
CIRCLE
  5
29
  8
0
  6
CONTINUOUS
 10
140.639762
 20
199.433072
 30
0.0
 40
0.125984
  0
LINE
  5
2A
  8
0
  6
CONTINUOUS
 10
140.885825
 20
199.110238
 30
0.0
 11
139.114175
 21
199.110238
 31
0.0
  0
LINE
  5
2B
  8
0
  6
CONTINUOUS
 10
139.175198
 20
199.074805
 30
0.0
 11
139.175198
 21
199.110238
 31
0.0
  0
LINE
  5
2C
  8
0
  6
CONTINUOUS
 10
139.114175
 20
199.074805
 30
0.0
 11
139.175198
 21
199.074805
 31
0.0
  0
LINE
  5
2D
  8
0
  6
CONTINUOUS
 10
139.468505
 20
199.724377
 30
0.0
 11
139.468505
 21
200.374015
 31
0.0
  0
LINE
  5
2E
  8
0
  6
CONTINUOUS
 10
139.507875
 20
200.374015
 30
0.0
 11
139.507875
 21
199.724377
 31
0.0
  0
CIRCLE
  5
2F
  8
0
  6
CONTINUOUS
 10
139.360237
 20
199.433072
 30
0.0
 40
0.125984
  0
ARC
  5
30
  8
0
  6
CONTINUOUS
 10
139.48819
 20
199.724377
 30
0.0
 40
0.019685
 50
180.0
 51
0.0
  0
LINE
  5
31
  8
0
 10
139.074805
 20
200.0
 30
0.0
 11
139.153545
 21
200.0
 31
0.0
  0
POINT
  5
32
  8
0
  6
CONTINUOUS
 10
139.114175
 20
200.0
 30
0.0
  0
LINE
  5
33
  8
0
  6
CONTINUOUS
 10
140.492125
 20
199.72441
 30
0.0
 11
140.492125
 21
200.374015
 31
0.0
  0
LINE
  5
34
  8
0
  6
CONTINUOUS
 10
140.531495
 20
200.374015
 30
0.0
 11
140.531495
 21
199.72441
 31
0.0
  0
ARC
  5
35
  8
0
  6
CONTINUOUS
 10
140.51181
 20
199.72441
 30
0.0
 40
0.019685
 50
180.0
 51
0.0
  0
LINE
  5
36
  8
0
  6
CONTINUOUS
 10
140.824801
 20
199.074805
 30
0.0
 11
140.824801
 21
199.110238
 31
0.0
  0
LINE
  5
37
  8
0
  6
CONTINUOUS
 10
140.824801
 20
199.074805
 30
0.0
 11
140.885825
 21
199.074805
 31
0.0
  0
LINE
  5
38
  8
0
 10
140.846455
 20
200.0
 30
0.0
 11
140.925195
 21
200.0
 31
0.0
  0
LINE
  5
39
  8
0
  6
CONTINUOUS
 10
140.885825
 20
200.881888
 30
0.0
 11
140.62992
 21
200.881888
 31
0.0
  0
CIRCLE
  5
3A
  8
0
  6
CONTINUOUS
 10
140.639762
 20
200.566928
 30
0.0
 40
0.125984
  0
LINE
  5
3B
  8
0
  6
CONTINUOUS
 10
140.374015
 20
200.531495
 30
0.0
 11
139.625985
 21
200.531495
 31
0.0
  0
LINE
  5
3C
  8
0
  6
CONTINUOUS
 10
140.374015
 20
200.492125
 30
0.0
 11
139.625985
 21
200.492125
 31
0.0
  0
LINE
  5
3D
  8
0
  6
CONTINUOUS
 10
139.37008
 20
201.118108
 30
0.0
 11
140.62992
 21
201.118108
 31
0.0
  0
LINE
  5
3E
  8
0
  6
CONTINUOUS
 10
139.37008
 20
200.881888
 30
0.0
 11
139.37008
 21
201.118108
 31
0.0
  0
LINE
  5
3F
  8
0
  6
CONTINUOUS
 10
139.37008
 20
200.881888
 30
0.0
 11
139.114175
 21
200.881888
 31
0.0
  0
CIRCLE
  5
40
  8
0
  6
CONTINUOUS
 10
139.360237
 20
200.566959
 30
0.0
 40
0.125984
  0
LINE
  5
41
  8
0
  6
CONTINUOUS
 10
139.175198
 20
200.925195
 30
0.0
 11
139.114175
 21
200.925195
 31
0.0
  0
LINE
  5
42
  8
0
  6
CONTINUOUS
 10
139.175198
 20
200.925195
 30
0.0
 11
139.175198
 21
200.881888
 31
0.0
  0
CIRCLE
  5
43
  8
0
  6
CONTINUOUS
 10
139.655487
 20
200.86614
 30
0.0
 40
0.125984
  0
LINE
  5
44
  8
0
  6
CONTINUOUS
 10
139.795276
 20
201.118108
 30
0.0
 11
139.513042
 21
201.118108
 31
0.0
  0
LINE
  5
45
  8
0
  6
CONTINUOUS
 10
139.795276
 20
201.118108
 30
0.0
 11
139.795276
 21
201.118108
 31
0.0
  0
LINE
  5
46
  8
0
  6
CONTINUOUS
 10
140.62992
 20
200.881888
 30
0.0
 11
140.62992
 21
201.118108
 31
0.0
  0
CIRCLE
  5
47
  8
0
  6
CONTINUOUS
 10
140.344487
 20
200.86614
 30
0.0
 40
0.125984
  0
LINE
  5
48
  8
0
  6
CONTINUOUS
 10
140.35589
 20
200.492125
 30
0.0
 11
140.175039
 21
200.492125
 31
0.0
  0
LINE
  5
49
  8
0
  6
CONTINUOUS
 10
140.885825
 20
200.63398
 30
0.0
 11
140.885825
 21
200.881888
 31
0.0
  0
LINE
  5
4A
  8
0
  6
CONTINUOUS
 10
140.885825
 20
200.925195
 30
0.0
 11
140.824801
 21
200.925195
 31
0.0
  0
LINE
  5
4B
  8
0
  6
CONTINUOUS
 10
140.824801
 20
200.925195
 30
0.0
 11
140.824801
 21
200.881888
 31
0.0
  0
LINE
  5
4C
  8
0
 10
139.96063
 20
200.0
 30
0.0
 11
140.03937
 21
200.0
 31
0.0
  0
LINE
  5
4D
  8
0
 10
140.0
 20
200.03937
 30
0.0
 11
140.0
 21
199.96063
 31
0.0
  0
ENDSEC
  0
EOF
