  0
SECTION
  2
HEADER
  9
$ACADVER
  1
AC1009
  9
$INSBASE
 10
0.0
 20
0.0
 30
0.0
  9
$EXTMIN
 10
-11.650135
 20
-6.043766
 30
-0.001526
  9
$EXTMAX
 10
28.776206
 20
6.100188
 30
0.0
  9
$LIMMIN
 10
0.0
 20
0.0
  9
$LIMMAX
 10
12.0
 20
9.0
  9
$ORTHOMODE
 70
     1
  9
$REGENMODE
 70
     1
  9
$FILLMODE
 70
     1
  9
$QTEXTMODE
 70
     0
  9
$MIRRTEXT
 70
     1
  9
$DRAGMODE
 70
     2
  9
$LTSCALE
 40
1.0
  9
$OSMODE
 70
     0
  9
$ATTMODE
 70
     1
  9
$TEXTSIZE
 40
0.2
  9
$TRACEWID
 40
0.05
  9
$TEXTSTYLE
  7
STANDARD
  9
$CLAYER
  8
0
  9
$CELTYPE
  6
BYLAYER
  9
$CECOLOR
 62
   256
  9
$DIMSCALE
 40
1.0
  9
$DIMASZ
 40
0.18
  9
$DIMEXO
 40
0.0625
  9
$DIMDLI
 40
0.38
  9
$DIMRND
 40
0.0
  9
$DIMDLE
 40
0.0
  9
$DIMEXE
 40
0.18
  9
$DIMTP
 40
0.0
  9
$DIMTM
 40
0.0
  9
$DIMTXT
 40
0.18
  9
$DIMCEN
 40
0.09
  9
$DIMTSZ
 40
0.0
  9
$DIMTOL
 70
     0
  9
$DIMLIM
 70
     0
  9
$DIMTIH
 70
     1
  9
$DIMTOH
 70
     1
  9
$DIMSE1
 70
     0
  9
$DIMSE2
 70
     0
  9
$DIMTAD
 70
     0
  9
$DIMZIN
 70
     0
  9
$DIMBLK
  1

  9
$DIMASO
 70
     1
  9
$DIMSHO
 70
     1
  9
$DIMPOST
  1

  9
$DIMAPOST
  1

  9
$DIMALT
 70
     0
  9
$DIMALTD
 70
     2
  9
$DIMALTF
 40
25.4
  9
$DIMLFAC
 40
1.0
  9
$DIMTOFL
 70
     0
  9
$DIMTVP
 40
0.0
  9
$DIMTIX
 70
     0
  9
$DIMSOXD
 70
     0
  9
$DIMSAH
 70
     0
  9
$DIMBLK1
  1

  9
$DIMBLK2
  1

  9
$DIMSTYLE
  2
STANDARD
  9
$DIMCLRD
 70
     0
  9
$DIMCLRE
 70
     0
  9
$DIMCLRT
 70
     0
  9
$DIMTFAC
 40
1.0
  9
$DIMGAP
 40
0.09
  9
$LUNITS
 70
     2
  9
$LUPREC
 70
     4
  9
$SKETCHINC
 40
0.1
  9
$FILLETRAD
 40
0.0
  9
$AUNITS
 70
     0
  9
$AUPREC
 70
     0
  9
$MENU
  1
acad
  9
$ELEVATION
 40
0.0
  9
$PELEVATION
 40
0.0
  9
$THICKNESS
 40
0.0
  9
$LIMCHECK
 70
     0
  9
$BLIPMODE
 70
     1
  9
$CHAMFERA
 40
0.0
  9
$CHAMFERB
 40
0.0
  9
$SKPOLY
 70
     0
  9
$TDCREATE
 40
2451127.582902
  9
$TDUPDATE
 40
2451129.623879
  9
$TDINDWG
 40
0.022771
  9
$TDUSRTIMER
 40
0.022771
  9
$USRTIMER
 70
     1
  9
$ANGBASE
 50
0.0
  9
$ANGDIR
 70
     0
  9
$PDMODE
 70
     0
  9
$PDSIZE
 40
0.0
  9
$PLINEWID
 40
0.0
  9
$COORDS
 70
     1
  9
$SPLFRAME
 70
     0
  9
$SPLINETYPE
 70
     6
  9
$SPLINESEGS
 70
     8
  9
$ATTDIA
 70
     0
  9
$ATTREQ
 70
     1
  9
$HANDLING
 70
     1
  9
$HANDSEED
  5
917
  9
$SURFTAB1
 70
     6
  9
$SURFTAB2
 70
     6
  9
$SURFTYPE
 70
     6
  9
$SURFU
 70
     6
  9
$SURFV
 70
     6
  9
$UCSNAME
  2

  9
$UCSORG
 10
0.0
 20
0.0
 30
0.0
  9
$UCSXDIR
 10
1.0
 20
0.0
 30
0.0
  9
$UCSYDIR
 10
0.0
 20
1.0
 30
0.0
  9
$PUCSNAME
  2

  9
$PUCSORG
 10
0.0
 20
0.0
 30
0.0
  9
$PUCSXDIR
 10
1.0
 20
0.0
 30
0.0
  9
$PUCSYDIR
 10
0.0
 20
1.0
 30
0.0
  9
$USERI1
 70
     0
  9
$USERI2
 70
     0
  9
$USERI3
 70
     0
  9
$USERI4
 70
     0
  9
$USERI5
 70
     0
  9
$USERR1
 40
0.0
  9
$USERR2
 40
0.0
  9
$USERR3
 40
0.0
  9
$USERR4
 40
0.0
  9
$USERR5
 40
0.0
  9
$WORLDVIEW
 70
     1
  9
$SHADEDGE
 70
     3
  9
$SHADEDIF
 70
    70
  9
$TILEMODE
 70
     1
  9
$MAXACTVP
 70
    16
  9
$PLIMCHECK
 70
     0
  9
$PEXTMIN
 10
1.000000E+020
 20
1.000000E+020
 30
1.000000E+020
  9
$PEXTMAX
 10
-1.000000E+020
 20
-1.000000E+020
 30
-1.000000E+020
  9
$PLIMMIN
 10
0.0
 20
0.0
  9
$PLIMMAX
 10
12.0
 20
9.0
  9
$UNITMODE
 70
     0
  9
$VISRETAIN
 70
     0
  9
$PLINEGEN
 70
     0
  9
$PSLTSCALE
 70
     1
  0
ENDSEC
  0
SECTION
  2
TABLES
  0
TABLE
  2
VPORT
 70
     2
  0
VPORT
  2
*ACTIVE
 70
     0
 10
0.0
 20
0.0
 11
1.0
 21
1.0
 12
8.563036
 22
0.028211
 13
0.0
 23
0.0
 14
1.0
 24
1.0
 15
0.0
 25
0.0
 16
0.0
 26
0.0
 36
1.0
 17
0.0
 27
0.0
 37
0.0
 40
26.714373
 41
1.603066
 42
50.0
 43
0.0
 44
0.0
 50
0.0
 51
0.0
 71
     0
 72
 20000
 73
     1
 74
     0
 75
     0
 76
     0
 77
     0
 78
     0
  0
ENDTAB
  0
TABLE
  2
LTYPE
 70
     2
  0
LTYPE
  2
CONTINUOUS
 70
     0
  3
Solid line
 72
    65
 73
     0
 40
0.0
  0
LTYPE
  2
HIDDEN
 70
     0
  3
__ __ __ __ __ __ __ __ __ __ __ __ __ __ __ __
 72
    65
 73
     2
 40
0.375
 49
0.25
 49
-0.125
  0
ENDTAB
  0
TABLE
  2
LAYER
 70
     1
  0
LAYER
  2
0
 70
     0
 62
     7
  6
CONTINUOUS
  0
ENDTAB
  0
TABLE
  2
STYLE
 70
     1
  0
STYLE
  2
STANDARD
 70
     0
 40
0.0
 41
1.0
 50
0.0
 71
     0
 42
0.2
  3
txt
  4

  0
ENDTAB
  0
TABLE
  2
VIEW
 70
     0
  0
ENDTAB
  0
TABLE
  2
UCS
 70
     0
  0
ENDTAB
  0
TABLE
  2
APPID
 70
     1
  0
APPID
  2
ACAD
 70
     0
  0
ENDTAB
  0
TABLE
  2
DIMSTYLE
 70
     1
  0
DIMSTYLE
  2
STANDARD
 70
     0
  3

  4

  5

  6

  7

 40
1.0
 41
0.18
 42
0.0625
 43
0.38
 44
0.18
 45
0.0
 46
0.0
 47
0.0
 48
0.0
140
0.18
141
0.09
142
0.0
143
25.4
144
1.0
145
0.0
146
1.0
147
0.09
 71
     0
 72
     0
 73
     1
 74
     1
 75
     0
 76
     0
 77
     0
 78
     0
170
     0
171
     2
172
     0
173
     0
174
     0
175
     0
176
     0
177
     0
178
     0
  0
ENDTAB
  0
ENDSEC
  0
SECTION
  2
BLOCKS
  0
BLOCK
  8
0
  2
$MODEL_SPACE
 70
     0
 10
0.0
 20
0.0
 30
0.0
  3
$MODEL_SPACE
  1

  0
ENDBLK
  5
1C
  8
0
  0
BLOCK
 67
     1
  8
0
  2
$PAPER_SPACE
 70
     0
 10
0.0
 20
0.0
 30
0.0
  3
$PAPER_SPACE
  1

  0
ENDBLK
  5
19
 67
     1
  8
0
  0
ENDSEC
  0
SECTION
  2
ENTITIES
  0
ARC
  5
388
  8
0
  6
BYBLOCK
 62
     0
 10
11.209998
 20
5.85
 30
0.0
 40
0.1
 50
360.0
 51
90.0
  0
LINE
  5
393
  8
0
  6
BYBLOCK
 62
     1
 10
9.308
 20
5.45
 30
0.0
 11
9.862
 21
5.45
 31
0.0
  0
LINE
  5
397
  8
0
  6
BYBLOCK
 62
     0
 10
11.095
 20
5.95
 30
0.0
 11
11.209998
 21
5.95
 31
0.0
  0
LINE
  5
399
  8
0
  6
BYBLOCK
 62
     0
 10
11.140002
 20
4.41
 30
0.0
 11
11.140002
 21
4.120026
 31
0.0
  0
LINE
  5
39A
  8
0
  6
BYBLOCK
 62
     0
 10
11.095
 20
4.41
 30
0.0
 11
11.309998
 21
4.41
 31
0.0
  0
LINE
  5
39B
  8
0
  6
BYBLOCK
 62
     1
 10
9.585
 20
5.727
 30
0.0
 11
9.585
 21
5.173
 31
0.0
  0
CIRCLE
  5
39C
  8
0
  6
HIDDEN
 62
     1
 10
9.585
 20
5.45
 30
0.0
 40
0.215
  0
LINE
  5
3A2
  8
0
  6
BYBLOCK
 62
     0
 10
11.650008
 20
2.32
 30
0.0
 11
11.309998
 21
2.32
 31
0.0
  0
LINE
  5
3A3
  8
0
  6
BYBLOCK
 62
     0
 10
11.557363
 20
2.439052
 30
0.0
 11
11.309998
 21
2.58276
 31
0.0
  0
ARC
  5
3A4
  8
0
  6
BYBLOCK
 62
     0
 10
11.525012
 20
2.318315
 30
0.0
 40
0.124997
 50
0.0
 51
75.0
  0
ARC
  5
3A5
  8
0
  6
BYBLOCK
 62
     0
 10
11.404898
 20
1.97
 30
0.0
 40
0.2
 50
90.0
 51
270.0
  0
LINE
  5
3A6
  8
0
  6
BYBLOCK
 62
     0
 10
11.495602
 20
1.84394
 30
0.0
 11
11.278838
 21
2.060704
 31
0.0
  0
LINE
  5
3A7
  8
0
  6
BYBLOCK
 62
     0
 10
11.650008
 20
2.17
 30
0.0
 11
11.404898
 21
2.17
 31
0.0
  0
LINE
  5
3A8
  8
0
  6
BYBLOCK
 62
     0
 10
11.650008
 20
1.77
 30
0.0
 11
11.404898
 21
1.77
 31
0.0
  0
CIRCLE
  5
3A9
  8
0
  6
BYBLOCK
 62
     0
 10
11.404898
 20
1.97
 30
0.0
 40
0.1553
  0
LINE
  5
3AA
  8
0
  6
BYBLOCK
 62
     0
 10
11.530957
 20
1.879296
 30
0.0
 11
11.314194
 21
2.09606
 31
0.0
  0
LINE
  5
3AB
  8
0
  6
BYBLOCK
 62
     0
 10
11.650008
 20
1.62
 30
0.0
 11
11.309998
 21
1.62
 31
0.0
  0
LINE
  5
3AC
  8
0
  6
BYBLOCK
 62
     0
 10
11.557363
 20
1.501148
 30
0.0
 11
11.309998
 21
1.35744
 31
0.0
  0
ARC
  5
3AD
  8
0
  6
BYBLOCK
 62
     0
 10
11.525012
 20
1.621885
 30
0.0
 40
0.124997
 50
285.0
 51
0.0
  0
LINE
  5
3AE
  8
0
  6
BYBLOCK
 62
     0
 10
11.650008
 20
2.318315
 30
0.0
 11
11.650008
 21
1.621885
 31
0.0
  0
LINE
  5
3AF
  8
0
  6
BYBLOCK
 62
     0
 10
11.309998
 20
5.85
 30
0.0
 11
11.309998
 21
2.146051
 31
0.0
  0
CIRCLE
  5
3B0
  8
0
  6
BYBLOCK
 62
     0
 10
9.64
 20
3.744649
 30
0.0
 40
0.235
  0
CIRCLE
  5
3B1
  8
0
  6
BYBLOCK
 62
     0
 10
10.58
 20
3.744649
 30
0.0
 40
0.235
  0
LINE
  5
3B4
  8
0
  6
BYBLOCK
 62
     0
 10
11.095
 20
6.043307
 30
0.0
 11
11.095
 21
4.120026
 31
0.0
  0
LINE
  5
3B6
  8
0
  6
BYBLOCK
 62
     0
 10
9.125
 20
6.043307
 30
0.0
 11
9.125
 21
4.120026
 31
0.0
  0
LINE
  5
3B8
  8
0
  6
BYBLOCK
 62
     0
 10
11.650008
 20
-1.62
 30
0.0
 11
11.309998
 21
-1.62
 31
0.0
  0
LINE
  5
3B9
  8
0
  6
BYBLOCK
 62
     0
 10
11.557363
 20
-1.500948
 30
0.0
 11
11.309998
 21
-1.35724
 31
0.0
  0
ARC
  5
3BA
  8
0
  6
BYBLOCK
 62
     0
 10
11.525012
 20
-1.621685
 30
0.0
 40
0.124997
 50
0.0
 51
75.0
  0
ARC
  5
3BB
  8
0
  6
BYBLOCK
 62
     0
 10
11.404898
 20
-1.97
 30
0.0
 40
0.2
 50
90.0
 51
270.0
  0
LINE
  5
3BC
  8
0
  6
BYBLOCK
 62
     0
 10
11.495602
 20
-2.09606
 30
0.0
 11
11.278838
 21
-1.879296
 31
0.0
  0
LINE
  5
3BD
  8
0
  6
BYBLOCK
 62
     0
 10
11.650008
 20
-1.77
 30
0.0
 11
11.404898
 21
-1.77
 31
0.0
  0
LINE
  5
3BE
  8
0
  6
BYBLOCK
 62
     0
 10
11.650008
 20
-2.17
 30
0.0
 11
11.404898
 21
-2.17
 31
0.0
  0
CIRCLE
  5
3BF
  8
0
  6
BYBLOCK
 62
     0
 10
11.404898
 20
-1.97
 30
0.0
 40
0.1553
  0
LINE
  5
3C0
  8
0
  6
BYBLOCK
 62
     0
 10
11.530957
 20
-2.060704
 30
0.0
 11
11.314194
 21
-1.84394
 31
0.0
  0
LINE
  5
3C1
  8
0
  6
BYBLOCK
 62
     0
 10
11.650008
 20
-2.32
 30
0.0
 11
11.309998
 21
-2.32
 31
0.0
  0
LINE
  5
3C2
  8
0
  6
BYBLOCK
 62
     0
 10
11.557363
 20
-2.438852
 30
0.0
 11
11.309998
 21
-2.58256
 31
0.0
  0
ARC
  5
3C3
  8
0
  6
BYBLOCK
 62
     0
 10
11.525012
 20
-2.318115
 30
0.0
 40
0.124997
 50
285.0
 51
0.0
  0
LINE
  5
3C4
  8
0
  6
BYBLOCK
 62
     0
 10
11.650008
 20
-1.621685
 30
0.0
 11
11.650008
 21
-2.318115
 31
0.0
  0
LINE
  5
3C6
  8
0
  6
BYBLOCK
 62
     0
 10
11.140002
 20
-4.119826
 30
0.0
 11
11.140002
 21
-4.41
 31
0.0
  0
LINE
  5
3C7
  8
0
  6
BYBLOCK
 62
     0
 10
11.095
 20
-4.41
 30
0.0
 11
11.309998
 21
-4.41
 31
0.0
  0
ARC
  5
3CA
  8
0
  6
BYBLOCK
 62
     0
 10
11.209998
 20
-5.66
 30
0.0
 40
0.1
 50
270.0
 51
0.0
  0
LINE
  5
3CB
  8
0
  6
BYBLOCK
 62
     1
 10
9.308
 20
-5.57
 30
0.0
 11
9.862
 21
-5.57
 31
0.0
  0
LINE
  5
3CC
  8
0
  6
HIDDEN
 62
     0
 10
9.125
 20
-5.95
 30
0.0
 11
9.3625
 21
-5.95
 31
0.0
  0
LINE
  5
3CD
  8
0
  6
HIDDEN
 62
     1
 10
9.8075
 20
-5.3675
 30
0.0
 11
9.8075
 21
-5.95
 31
0.0
  0
LINE
  5
3CE
  8
0
  6
HIDDEN
 62
     1
 10
9.3625
 20
-5.3675
 30
0.0
 11
9.3625
 21
-5.95
 31
0.0
  0
LINE
  5
3CF
  8
0
  6
HIDDEN
 62
     0
 10
9.8075
 20
-5.95
 30
0.0
 11
11.095
 21
-5.95
 31
0.0
  0
LINE
  5
3D2
  8
0
  6
BYBLOCK
 62
     0
 10
11.095
 20
-5.95
 30
0.0
 11
11.309998
 21
-5.95
 31
0.0
  0
LINE
  5
3D3
  8
0
  6
BYBLOCK
 62
     0
 10
11.095
 20
-5.76
 30
0.0
 11
11.209998
 21
-5.76
 31
0.0
  0
LINE
  5
3D4
  8
0
  6
BYBLOCK
 62
     0
 10
11.1301
 20
-5.95
 30
0.0
 11
11.155002
 21
-5.95
 31
0.0
  0
LINE
  5
3D5
  8
0
  6
BYBLOCK
 62
     0
 10
11.309998
 20
-4.119826
 30
0.0
 11
11.309998
 21
-5.95
 31
0.0
  0
ARC
  5
3D7
  8
0
  6
HIDDEN
 62
     1
 10
9.585
 20
-5.3675
 30
0.0
 40
0.2225
 50
0.0
 51
180.0
  0
LINE
  5
3D8
  8
0
  6
BYBLOCK
 62
     1
 10
9.585
 20
-5.0905
 30
0.0
 11
9.585
 21
-5.939
 31
0.0
  0
LINE
  5
3DB
  8
0
  6
BYBLOCK
 62
     0
 10
11.309998
 20
-2.146051
 30
0.0
 11
11.309998
 21
-4.119826
 31
0.0
  0
CIRCLE
  5
3DC
  8
0
  6
BYBLOCK
 62
     0
 10
9.64
 20
-3.744649
 30
0.0
 40
0.235
  0
CIRCLE
  5
3DD
  8
0
  6
BYBLOCK
 62
     0
 10
10.58
 20
-3.744649
 30
0.0
 40
0.235
  0
LINE
  5
3DF
  8
0
  6
BYBLOCK
 62
     0
 10
11.095
 20
-4.119826
 30
0.0
 11
11.095
 21
-6.043307
 31
0.0
  0
LINE
  5
3E0
  8
0
  6
BYBLOCK
 62
     0
 10
9.125
 20
-4.119826
 30
0.0
 11
9.125
 21
-6.043307
 31
0.0
  0
LINE
  5
3E1
  8
0
  6
BYBLOCK
 62
     0
 10
11.309998
 20
1.793949
 30
0.0
 11
11.309998
 21
-1.793949
 31
0.0
  0
LINE
  5
403
  8
0
  6
HIDDEN
 62
     0
 10
6.935
 20
5.95
 30
0.0
 11
6.81953
 21
6.1
 31
0.0
  0
LINE
  5
404
  8
0
  6
HIDDEN
 62
     0
 10
5.345
 20
5.95
 30
0.0
 11
5.46047
 21
6.1
 31
0.0
  0
LINE
  5
405
  8
0
  6
HIDDEN
 62
     0
 10
6.81953
 20
6.1
 30
0.0
 11
5.46047
 21
6.1
 31
0.0
  0
LINE
  5
408
  8
0
  6
BYBLOCK
 62
     0
 10
7.339976
 20
4.41
 30
0.0
 11
7.339976
 21
4.120026
 31
0.0
  0
LINE
  5
409
  8
0
  6
BYBLOCK
 62
     0
 10
7.16998
 20
4.41
 30
0.0
 11
7.16998
 21
4.120026
 31
0.0
  0
LINE
  5
40A
  8
0
  6
BYBLOCK
 62
     0
 10
8.910047
 20
4.41
 30
0.0
 11
8.910047
 21
4.120026
 31
0.0
  0
LINE
  5
40B
  8
0
  6
BYBLOCK
 62
     0
 10
9.080042
 20
4.41
 30
0.0
 11
9.080042
 21
4.120026
 31
0.0
  0
LINE
  5
40C
  8
0
  6
BYBLOCK
 62
     0
 10
5.11002
 20
4.41
 30
0.0
 11
5.11002
 21
4.120026
 31
0.0
  0
ARC
  5
40F
  8
0
  6
BYBLOCK
 62
     0
 10
1.070002
 20
5.85
 30
0.0
 40
0.1
 50
90.0
 51
180.0
  0
LINE
  5
410
  8
0
  6
BYBLOCK
 62
     0
 10
1.070002
 20
5.95
 30
0.0
 11
1.185
 21
5.95
 31
0.0
  0
LINE
  5
413
  8
0
  6
BYBLOCK
 62
     1
 10
2.418
 20
5.45
 30
0.0
 11
2.972
 21
5.45
 31
0.0
  0
CIRCLE
  5
414
  8
0
  6
BYBLOCK
 62
     0
 10
4.421189
 20
3.91
 30
0.0
 40
0.151199
  0
CIRCLE
  5
415
  8
0
  6
BYBLOCK
 62
     0
 10
3.871189
 20
3.91
 30
0.0
 40
0.151199
  0
LINE
  5
416
  8
0
  6
BYBLOCK
 62
     0
 10
3.199958
 20
4.41
 30
0.0
 11
3.199958
 21
4.120026
 31
0.0
  0
LINE
  5
417
  8
0
  6
BYBLOCK
 62
     0
 10
3.369953
 20
4.41
 30
0.0
 11
3.369953
 21
4.120026
 31
0.0
  0
LINE
  5
418
  8
0
  6
BYBLOCK
 62
     0
 10
4.940024
 20
4.41
 30
0.0
 11
4.940024
 21
4.120026
 31
0.0
  0
LINE
  5
419
  8
0
  6
BYBLOCK
 62
     0
 10
0.970002
 20
4.41
 30
0.0
 11
1.185
 21
4.41
 31
0.0
  0
LINE
  5
41A
  8
0
  6
BYBLOCK
 62
     0
 10
1.139998
 20
4.41
 30
0.0
 11
1.139998
 21
4.120026
 31
0.0
  0
LINE
  5
41C
  8
0
  6
BYBLOCK
 62
     0
 10
0.970002
 20
4.120026
 30
0.0
 11
3.369953
 21
4.120026
 31
0.0
  0
LINE
  5
41D
  8
0
  6
BYBLOCK
 62
     1
 10
2.695
 20
5.727
 30
0.0
 11
2.695
 21
5.173
 31
0.0
  0
CIRCLE
  5
41E
  8
0
  6
HIDDEN
 62
     1
 10
2.695
 20
5.45
 30
0.0
 40
0.215
  0
LINE
  5
41F
  8
0
  6
BYBLOCK
 62
     0
 10
0.970002
 20
5.85
 30
0.0
 11
0.970002
 21
4.120026
 31
0.0
  0
LINE
  5
422
  8
0
  6
BYBLOCK
 62
     0
 10
3.155
 20
5.95
 30
0.0
 11
5.345
 21
5.95
 31
0.0
  0
LINE
  5
423
  8
0
  6
BYBLOCK
 62
     0
 10
3.155
 20
4.41
 30
0.0
 11
5.155
 21
4.41
 31
0.0
  0
LINE
  5
424
  8
0
  6
BYBLOCK
 62
     0
 10
4.940024
 20
4.120026
 30
0.0
 11
7.339976
 21
4.120026
 31
0.0
  0
ARC
  5
425
  8
0
  6
BYBLOCK
 62
     0
 10
8.78505
 20
1.884979
 30
0.0
 40
0.124997
 50
0.0
 51
90.0
  0
ARC
  5
426
  8
0
  6
BYBLOCK
 62
     0
 10
8.78505
 20
2.294969
 30
0.0
 40
0.124997
 50
270.0
 51
0.0
  0
ARC
  5
427
  8
0
  6
BYBLOCK
 62
     0
 10
7.464973
 20
1.884979
 30
0.0
 40
0.124997
 50
90.0
 51
180.0
  0
ARC
  5
428
  8
0
  6
BYBLOCK
 62
     0
 10
7.464972
 20
2.294969
 30
0.0
 40
0.124997
 50
180.0
 51
270.0
  0
LINE
  5
429
  8
0
  6
BYBLOCK
 62
     0
 10
8.78505
 20
2.009976
 30
0.0
 11
7.464973
 21
2.009976
 31
0.0
  0
LINE
  5
42A
  8
0
  6
BYBLOCK
 62
     0
 10
8.78505
 20
2.169972
 30
0.0
 11
7.464972
 21
2.169972
 31
0.0
  0
ARC
  5
42B
  8
0
  6
BYBLOCK
 62
     0
 10
4.815027
 20
1.884979
 30
0.0
 40
0.124997
 50
0.0
 51
90.0
  0
ARC
  5
42C
  8
0
  6
BYBLOCK
 62
     0
 10
4.815027
 20
2.294969
 30
0.0
 40
0.124997
 50
270.0
 51
0.0
  0
ARC
  5
42D
  8
0
  6
BYBLOCK
 62
     0
 10
3.49495
 20
1.884979
 30
0.0
 40
0.124997
 50
90.0
 51
180.0
  0
ARC
  5
42E
  8
0
  6
BYBLOCK
 62
     0
 10
3.49495
 20
2.294969
 30
0.0
 40
0.124997
 50
180.0
 51
270.0
  0
LINE
  5
42F
  8
0
  6
BYBLOCK
 62
     0
 10
4.815027
 20
2.009976
 30
0.0
 11
3.49495
 21
2.009976
 31
0.0
  0
LINE
  5
430
  8
0
  6
BYBLOCK
 62
     0
 10
4.815027
 20
2.169972
 30
0.0
 11
3.49495
 21
2.169972
 31
0.0
  0
LINE
  5
431
  8
0
  6
BYBLOCK
 62
     0
 10
0.970002
 20
2.300058
 30
0.0
 11
3.369953
 21
2.300058
 31
0.0
  0
LINE
  5
432
  8
0
  6
BYBLOCK
 62
     0
 10
4.940024
 20
2.300058
 30
0.0
 11
7.339976
 21
2.300058
 31
0.0
  0
CIRCLE
  5
433
  8
0
  6
BYBLOCK
 62
     0
 10
1.7
 20
3.744649
 30
0.0
 40
0.235
  0
LINE
  5
434
  8
0
  6
BYBLOCK
 62
     0
 10
0.970002
 20
4.120026
 30
0.0
 11
0.970002
 21
2.146051
 31
0.0
  0
CIRCLE
  5
435
  8
0
  6
BYBLOCK
 62
     0
 10
2.64
 20
3.744649
 30
0.0
 40
0.235
  0
CIRCLE
  5
436
  8
0
  6
BYBLOCK
 62
     0
 10
5.67
 20
3.744649
 30
0.0
 40
0.235
  0
CIRCLE
  5
437
  8
0
  6
BYBLOCK
 62
     0
 10
6.61
 20
3.744649
 30
0.0
 40
0.235
  0
ARC
  5
45A
  8
0
  6
BYBLOCK
 62
     0
 10
0.754988
 20
2.318315
 30
0.0
 40
0.124997
 50
105.0
 51
180.0
  0
LINE
  5
45B
  8
0
  6
BYBLOCK
 62
     0
 10
0.629992
 20
2.17
 30
0.0
 11
0.875102
 21
2.17
 31
0.0
  0
LINE
  5
45C
  8
0
  6
BYBLOCK
 62
     0
 10
0.629992
 20
1.77
 30
0.0
 11
0.875102
 21
1.77
 31
0.0
  0
ARC
  5
466
  8
0
  6
BYBLOCK
 62
     0
 10
0.754988
 20
1.621885
 30
0.0
 40
0.124997
 50
180.0
 51
255.0
  0
LINE
  5
46B
  8
0
  6
BYBLOCK
 62
     0
 10
0.629992
 20
2.318315
 30
0.0
 11
0.629992
 21
1.621885
 31
0.0
  0
LINE
  5
478
  8
0
  6
BYBLOCK
 62
     0
 10
0.629992
 20
1.62
 30
0.0
 11
0.970002
 21
1.62
 31
0.0
  0
LINE
  5
479
  8
0
  6
BYBLOCK
 62
     0
 10
0.722637
 20
1.501148
 30
0.0
 11
0.970002
 21
1.35744
 31
0.0
  0
LINE
  5
47A
  8
0
  6
BYBLOCK
 62
     0
 10
0.722637
 20
2.439052
 30
0.0
 11
0.970002
 21
2.58276
 31
0.0
  0
LINE
  5
47B
  8
0
  6
BYBLOCK
 62
     0
 10
0.629992
 20
2.32
 30
0.0
 11
0.970002
 21
2.32
 31
0.0
  0
CIRCLE
  5
47C
  8
0
  6
BYBLOCK
 62
     0
 10
0.875102
 20
1.97
 30
0.0
 40
0.1553
  0
LINE
  5
47D
  8
0
  6
BYBLOCK
 62
     0
 10
0.784398
 20
1.84394
 30
0.0
 11
1.001162
 21
2.060704
 31
0.0
  0
ARC
  5
47E
  8
0
  6
BYBLOCK
 62
     0
 10
0.875102
 20
1.97
 30
0.0
 40
0.2
 50
270.0
 51
90.0
  0
LINE
  5
47F
  8
0
  6
BYBLOCK
 62
     0
 10
0.749043
 20
1.879296
 30
0.0
 11
0.965806
 21
2.09606
 31
0.0
  0
LINE
  5
481
  8
0
  6
BYBLOCK
 62
     0
 10
0.970002
 20
3.532636
 30
0.0
 11
-0.970002
 21
3.532636
 31
0.0
  0
LINE
  5
485
  8
0
  6
BYBLOCK
 62
     0
 10
7.125
 20
6.043307
 30
0.0
 11
7.125
 21
4.120026
 31
0.0
  0
LINE
  5
486
  8
0
  6
BYBLOCK
 62
     0
 10
5.155
 20
6.043307
 30
0.0
 11
5.155
 21
4.120026
 31
0.0
  0
LINE
  5
487
  8
0
  6
BYBLOCK
 62
     0
 10
1.185
 20
6.043307
 30
0.0
 11
1.185
 21
4.120026
 31
0.0
  0
LINE
  5
488
  8
0
  6
BYBLOCK
 62
     0
 10
3.155
 20
6.043307
 30
0.0
 11
3.155
 21
4.120026
 31
0.0
  0
ARC
  5
4EF
  8
0
  6
BYBLOCK
 62
     0
 10
8.78505
 20
-1.884979
 30
0.0
 40
0.124997
 50
270.0
 51
0.0
  0
ARC
  5
4F0
  8
0
  6
BYBLOCK
 62
     0
 10
8.78505
 20
-2.294969
 30
0.0
 40
0.124997
 50
0.0
 51
90.0
  0
ARC
  5
4F1
  8
0
  6
BYBLOCK
 62
     0
 10
7.464972
 20
-1.884979
 30
0.0
 40
0.124997
 50
180.0
 51
270.0
  0
ARC
  5
4F2
  8
0
  6
BYBLOCK
 62
     0
 10
7.464973
 20
-2.294969
 30
0.0
 40
0.124997
 50
90.0
 51
180.0
  0
LINE
  5
4F3
  8
0
  6
BYBLOCK
 62
     0
 10
8.78505
 20
-2.009976
 30
0.0
 11
7.464972
 21
-2.009976
 31
0.0
  0
LINE
  5
4F4
  8
0
  6
BYBLOCK
 62
     0
 10
8.78505
 20
-2.169972
 30
0.0
 11
7.464973
 21
-2.169972
 31
0.0
  0
ARC
  5
4F5
  8
0
  6
BYBLOCK
 62
     0
 10
4.815027
 20
-1.884979
 30
0.0
 40
0.124997
 50
270.0
 51
0.0
  0
ARC
  5
4F6
  8
0
  6
BYBLOCK
 62
     0
 10
4.815027
 20
-2.294969
 30
0.0
 40
0.124997
 50
0.0
 51
90.0
  0
ARC
  5
4F7
  8
0
  6
BYBLOCK
 62
     0
 10
3.49495
 20
-1.884979
 30
0.0
 40
0.124997
 50
180.0
 51
270.0
  0
ARC
  5
4F8
  8
0
  6
BYBLOCK
 62
     0
 10
3.49495
 20
-2.294969
 30
0.0
 40
0.124997
 50
90.0
 51
180.0
  0
LINE
  5
4F9
  8
0
  6
BYBLOCK
 62
     0
 10
4.815027
 20
-2.009976
 30
0.0
 11
3.49495
 21
-2.009976
 31
0.0
  0
LINE
  5
4FA
  8
0
  6
BYBLOCK
 62
     0
 10
4.815027
 20
-2.169972
 30
0.0
 11
3.49495
 21
-2.169972
 31
0.0
  0
LINE
  5
4FB
  8
0
  6
BYBLOCK
 62
     0
 10
4.624968
 20
-3.31992
 30
0.0
 11
3.684992
 21
-3.31992
 31
0.0
  0
LINE
  5
4FC
  8
0
  6
BYBLOCK
 62
     0
 10
0.970002
 20
-2.299858
 30
0.0
 11
3.369953
 21
-2.299858
 31
0.0
  0
LINE
  5
4FD
  8
0
  6
BYBLOCK
 62
     0
 10
4.940024
 20
-2.299858
 30
0.0
 11
7.339976
 21
-2.299858
 31
0.0
  0
LINE
  5
4FE
  8
0
  6
BYBLOCK
 62
     0
 10
7.125
 20
-4.41
 30
0.0
 11
7.339976
 21
-4.41
 31
0.0
  0
LINE
  5
4FF
  8
0
  6
BYBLOCK
 62
     0
 10
7.16998
 20
-4.119826
 30
0.0
 11
7.16998
 21
-4.41
 31
0.0
  0
LINE
  5
500
  8
0
  6
BYBLOCK
 62
     0
 10
7.339976
 20
-4.119826
 30
0.0
 11
7.339976
 21
-4.41
 31
0.0
  0
LINE
  5
501
  8
0
  6
BYBLOCK
 62
     0
 10
8.910047
 20
-4.119826
 30
0.0
 11
8.910047
 21
-4.41
 31
0.0
  0
LINE
  5
502
  8
0
  6
BYBLOCK
 62
     0
 10
9.080042
 20
-4.119826
 30
0.0
 11
9.080042
 21
-4.41
 31
0.0
  0
LINE
  5
503
  8
0
  6
BYBLOCK
 62
     0
 10
5.11002
 20
-4.119826
 30
0.0
 11
5.11002
 21
-4.41
 31
0.0
  0
LINE
  5
505
  8
0
  6
BYBLOCK
 62
     0
 10
8.492277
 20
-6.0
 30
0.0
 11
8.892981
 21
-5.76
 31
0.0
  0
LINE
  5
506
  8
0
  6
BYBLOCK
 62
     0
 10
7.125
 20
-5.95
 30
0.0
 11
7.674165
 21
-5.95
 31
0.0
  0
LINE
  5
507
  8
0
  6
BYBLOCK
 62
     0
 10
7.757646
 20
-6.0
 30
0.0
 11
7.356941
 21
-5.76
 31
0.0
  0
LINE
  5
508
  8
0
  6
HIDDEN
 62
     0
 10
7.674165
 20
-5.95
 30
0.0
 11
8.575757
 21
-5.95
 31
0.0
  0
LINE
  5
509
  8
0
  6
BYBLOCK
 62
     0
 10
7.757646
 20
-6.0
 30
0.0
 11
8.492277
 21
-6.0
 31
0.0
  0
LINE
  5
50C
  8
0
  6
HIDDEN
 62
     0
 10
5.155
 20
-5.95
 30
0.0
 11
7.125
 21
-5.95
 31
0.0
  0
LINE
  5
50E
  8
0
  6
BYBLOCK
 62
     0
 10
4.624968
 20
-3.599966
 30
0.0
 11
4.531843
 21
-3.599966
 31
0.0
  0
LINE
  5
50F
  8
0
  6
BYBLOCK
 62
     0
 10
4.251925
 20
-3.599966
 30
0.0
 11
4.058035
 21
-3.599966
 31
0.0
  0
CIRCLE
  5
510
  8
0
  6
BYBLOCK
 62
     0
 10
4.391884
 20
-3.954958
 30
0.0
 40
0.139997
  0
LINE
  5
511
  8
0
  6
BYBLOCK
 62
     0
 10
3.778117
 20
-3.599966
 30
0.0
 11
3.684992
 21
-3.599966
 31
0.0
  0
CIRCLE
  5
512
  8
0
  6
BYBLOCK
 62
     0
 10
3.918076
 20
-3.954958
 30
0.0
 40
0.139997
  0
LINE
  5
513
  8
0
  6
BYBLOCK
 62
     0
 10
3.155
 20
-4.41
 30
0.0
 11
3.369953
 21
-4.41
 31
0.0
  0
LINE
  5
514
  8
0
  6
BYBLOCK
 62
     0
 10
3.199958
 20
-4.119826
 30
0.0
 11
3.199958
 21
-4.41
 31
0.0
  0
LINE
  5
515
  8
0
  6
BYBLOCK
 62
     0
 10
3.369953
 20
-4.119826
 30
0.0
 11
3.369953
 21
-4.41
 31
0.0
  0
LINE
  5
516
  8
0
  6
BYBLOCK
 62
     0
 10
4.940024
 20
-4.119826
 30
0.0
 11
4.940024
 21
-4.41
 31
0.0
  0
LINE
  5
517
  8
0
  6
BYBLOCK
 62
     0
 10
0.970002
 20
-4.41
 30
0.0
 11
1.185
 21
-4.41
 31
0.0
  0
LINE
  5
518
  8
0
  6
BYBLOCK
 62
     0
 10
1.139998
 20
-4.119826
 30
0.0
 11
1.139998
 21
-4.41
 31
0.0
  0
LINE
  5
519
  8
0
  6
BYBLOCK
 62
     0
 10
0.970002
 20
-4.119826
 30
0.0
 11
3.369953
 21
-4.119826
 31
0.0
  0
LINE
  5
51B
  8
0
  6
BYBLOCK
 62
     0
 10
4.624968
 20
-5.649915
 30
0.0
 11
4.531843
 21
-5.649915
 31
0.0
  0
LINE
  5
51C
  8
0
  6
BYBLOCK
 62
     0
 10
4.251925
 20
-5.649915
 30
0.0
 11
4.058035
 21
-5.649915
 31
0.0
  0
LINE
  5
51D
  8
0
  6
BYBLOCK
 62
     0
 10
4.522354
 20
-6.0
 30
0.0
 11
4.923059
 21
-5.76
 31
0.0
  0
CIRCLE
  5
51E
  8
0
  6
BYBLOCK
 62
     0
 10
4.391884
 20
-5.646679
 30
0.0
 40
0.139997
  0
LINE
  5
51F
  8
0
  6
BYBLOCK
 62
     0
 10
3.778117
 20
-5.649915
 30
0.0
 11
3.684992
 21
-5.649915
 31
0.0
  0
LINE
  5
520
  8
0
  6
BYBLOCK
 62
     0
 10
3.155
 20
-5.95
 30
0.0
 11
3.704243
 21
-5.95
 31
0.0
  0
LINE
  5
521
  8
0
  6
BYBLOCK
 62
     0
 10
3.787723
 20
-6.0
 30
0.0
 11
3.387019
 21
-5.76
 31
0.0
  0
LINE
  5
522
  8
0
  6
BYBLOCK
 62
     0
 10
3.787723
 20
-6.0
 30
0.0
 11
4.522354
 21
-6.0
 31
0.0
  0
LINE
  5
523
  8
0
  6
BYBLOCK
 62
     0
 10
4.624968
 20
-5.929962
 30
0.0
 11
3.684992
 21
-5.929962
 31
0.0
  0
LINE
  5
524
  8
0
  6
HIDDEN
 62
     0
 10
3.704243
 20
-5.95
 30
0.0
 11
4.605835
 21
-5.95
 31
0.0
  0
CIRCLE
  5
525
  8
0
  6
BYBLOCK
 62
     0
 10
3.918076
 20
-5.646679
 30
0.0
 40
0.139997
  0
LINE
  5
526
  8
0
  6
HIDDEN
 62
     1
 10
2.9175
 20
-5.3675
 30
0.0
 11
2.9175
 21
-5.95
 31
0.0
  0
LINE
  5
527
  8
0
  6
HIDDEN
 62
     1
 10
2.4725
 20
-5.3675
 30
0.0
 11
2.4725
 21
-5.95
 31
0.0
  0
LINE
  5
528
  8
0
  6
BYBLOCK
 62
     0
 10
1.185
 20
-5.95
 30
0.0
 11
0.970002
 21
-5.95
 31
0.0
  0
ARC
  5
529
  8
0
  6
BYBLOCK
 62
     0
 10
1.070002
 20
-5.66
 30
0.0
 40
0.1
 50
180.0
 51
270.0
  0
LINE
  5
52A
  8
0
  6
HIDDEN
 62
     0
 10
1.185
 20
-5.95
 30
0.0
 11
2.4725
 21
-5.95
 31
0.0
  0
LINE
  5
52D
  8
0
  6
HIDDEN
 62
     0
 10
3.387019
 20
-5.76
 30
0.0
 11
1.070002
 21
-5.76
 31
0.0
  0
LINE
  5
52E
  8
0
  6
HIDDEN
 62
     0
 10
2.9175
 20
-5.95
 30
0.0
 11
3.155
 21
-5.95
 31
0.0
  0
LINE
  5
52F
  8
0
  6
BYBLOCK
 62
     1
 10
2.418
 20
-5.57
 30
0.0
 11
2.972
 21
-5.57
 31
0.0
  0
CIRCLE
  5
530
  8
0
  6
BYBLOCK
 62
     0
 10
3.918076
 20
-5.294924
 30
0.0
 40
0.139997
  0
LINE
  5
532
  8
0
  6
BYBLOCK
 62
     1
 10
2.695
 20
-5.0905
 30
0.0
 11
2.695
 21
-5.939
 31
0.0
  0
LINE
  5
533
  8
0
  6
BYBLOCK
 62
     0
 10
0.970002
 20
-4.119826
 30
0.0
 11
0.970002
 21
-5.95
 31
0.0
  0
ARC
  5
534
  8
0
  6
HIDDEN
 62
     1
 10
2.695
 20
-5.3675
 30
0.0
 40
0.2225
 50
0.0
 51
180.0
  0
CIRCLE
  5
535
  8
0
  6
BYBLOCK
 62
     0
 10
4.391884
 20
-5.294924
 30
0.0
 40
0.139997
  0
LINE
  5
537
  8
0
  6
HIDDEN
 62
     0
 10
4.923059
 20
-5.76
 30
0.0
 11
7.356941
 21
-5.76
 31
0.0
  0
LINE
  5
538
  8
0
  6
BYBLOCK
 62
     0
 10
4.605835
 20
-5.95
 30
0.0
 11
5.155
 21
-5.95
 31
0.0
  0
LINE
  5
539
  8
0
  6
BYBLOCK
 62
     0
 10
4.940024
 20
-4.119826
 30
0.0
 11
7.339976
 21
-4.119826
 31
0.0
  0
LINE
  5
53A
  8
0
  6
BYBLOCK
 62
     0
 10
4.940024
 20
-4.41
 30
0.0
 11
5.155
 21
-4.41
 31
0.0
  0
CIRCLE
  5
53B
  8
0
  6
BYBLOCK
 62
     0
 10
3.918076
 20
-3.603202
 30
0.0
 40
0.139997
  0
CIRCLE
  5
53C
  8
0
  6
BYBLOCK
 62
     0
 10
2.64
 20
-3.744649
 30
0.0
 40
0.235
  0
CIRCLE
  5
53D
  8
0
  6
BYBLOCK
 62
     0
 10
1.7
 20
-3.744649
 30
0.0
 40
0.235
  0
LINE
  5
53E
  8
0
  6
BYBLOCK
 62
     0
 10
0.970002
 20
-2.17
 30
0.0
 11
0.970002
 21
-4.119826
 31
0.0
  0
LINE
  5
53F
  8
0
  6
BYBLOCK
 62
     0
 10
3.684992
 20
-3.31992
 30
0.0
 11
3.684992
 21
-5.929962
 31
0.0
  0
CIRCLE
  5
540
  8
0
  6
BYBLOCK
 62
     0
 10
5.67
 20
-3.744649
 30
0.0
 40
0.235
  0
CIRCLE
  5
541
  8
0
  6
BYBLOCK
 62
     0
 10
6.61
 20
-3.744649
 30
0.0
 40
0.235
  0
CIRCLE
  5
542
  8
0
  6
BYBLOCK
 62
     0
 10
4.391884
 20
-3.603202
 30
0.0
 40
0.139997
  0
LINE
  5
543
  8
0
  6
BYBLOCK
 62
     0
 10
4.624968
 20
-3.31992
 30
0.0
 11
4.624968
 21
-5.929962
 31
0.0
  0
ARC
  5
544
  8
0
  6
BYBLOCK
 62
     0
 10
0.754988
 20
-1.621685
 30
0.0
 40
0.124997
 50
105.0
 51
180.0
  0
LINE
  5
548
  8
0
  6
BYBLOCK
 62
     0
 10
0.629992
 20
-1.77
 30
0.0
 11
0.875102
 21
-1.77
 31
0.0
  0
LINE
  5
549
  8
0
  6
BYBLOCK
 62
     0
 10
0.629992
 20
-2.17
 30
0.0
 11
0.875102
 21
-2.17
 31
0.0
  0
ARC
  5
54A
  8
0
  6
BYBLOCK
 62
     0
 10
0.754988
 20
-2.318115
 30
0.0
 40
0.124997
 50
180.0
 51
255.0
  0
LINE
  5
555
  8
0
  6
BYBLOCK
 62
     0
 10
0.629992
 20
-1.621685
 30
0.0
 11
0.629992
 21
-2.318115
 31
0.0
  0
CIRCLE
  5
591
  8
0
  6
BYBLOCK
 62
     0
 10
0.875102
 20
-1.97
 30
0.0
 40
0.1553
  0
LINE
  5
592
  8
0
  6
BYBLOCK
 62
     0
 10
0.784398
 20
-2.09606
 30
0.0
 11
1.001162
 21
-1.879296
 31
0.0
  0
ARC
  5
593
  8
0
  6
BYBLOCK
 62
     0
 10
0.875102
 20
-1.97
 30
0.0
 40
0.2
 50
270.0
 51
90.0
  0
LINE
  5
594
  8
0
  6
BYBLOCK
 62
     0
 10
0.629992
 20
-2.32
 30
0.0
 11
0.970002
 21
-2.32
 31
0.0
  0
LINE
  5
595
  8
0
  6
BYBLOCK
 62
     0
 10
0.722637
 20
-2.438852
 30
0.0
 11
0.970002
 21
-2.58256
 31
0.0
  0
LINE
  5
596
  8
0
  6
BYBLOCK
 62
     0
 10
0.749043
 20
-2.060704
 30
0.0
 11
0.965806
 21
-1.84394
 31
0.0
  0
LINE
  5
597
  8
0
  6
BYBLOCK
 62
     0
 10
0.629992
 20
-1.62
 30
0.0
 11
0.970002
 21
-1.62
 31
0.0
  0
LINE
  5
598
  8
0
  6
BYBLOCK
 62
     0
 10
0.722637
 20
-1.500948
 30
0.0
 11
0.970002
 21
-1.35724
 31
0.0
  0
LINE
  5
599
  8
0
  6
BYBLOCK
 62
     0
 10
0.970002
 20
-3.508687
 30
0.0
 11
-0.970002
 21
-3.508687
 31
0.0
  0
LINE
  5
5BC
  8
0
  6
BYBLOCK
 62
     0
 10
7.125
 20
-4.119826
 30
0.0
 11
7.125
 21
-6.043307
 31
0.0
  0
LINE
  5
5BD
  8
0
  6
BYBLOCK
 62
     0
 10
5.155
 20
-4.119826
 30
0.0
 11
5.155
 21
-6.043307
 31
0.0
  0
LINE
  5
5BE
  8
0
  6
BYBLOCK
 62
     0
 10
3.155
 20
-4.119826
 30
0.0
 11
3.155
 21
-6.043307
 31
0.0
  0
LINE
  5
5BF
  8
0
  6
BYBLOCK
 62
     0
 10
1.185
 20
-4.119826
 30
0.0
 11
1.185
 21
-6.043307
 31
0.0
  0
LINE
  5
62F
  8
0
  6
BYBLOCK
 62
     0
 10
8.910047
 20
4.120026
 30
0.0
 11
8.910047
 21
-4.119826
 31
0.0
  0
LINE
  5
630
  8
0
  6
BYBLOCK
 62
     0
 10
7.339976
 20
4.120026
 30
0.0
 11
7.339976
 21
-4.119826
 31
0.0
  0
LINE
  5
631
  8
0
  6
BYBLOCK
 62
     0
 10
4.940024
 20
4.120026
 30
0.0
 11
4.940024
 21
-4.119826
 31
0.0
  0
LINE
  5
632
  8
0
  6
BYBLOCK
 62
     0
 10
3.369953
 20
4.120026
 30
0.0
 11
3.369953
 21
-4.119826
 31
0.0
  0
LINE
  5
633
  8
0
  6
BYBLOCK
 62
     0
 10
0.970002
 20
1.793949
 30
0.0
 11
0.970002
 21
-1.77
 31
0.0
  0
LINE
  5
63F
  8
0
  6
BYBLOCK
 62
     0
 10
8.575757
 20
-5.95
 30
0.0
 11
9.125
 21
-5.95
 31
0.0
  0
LINE
  5
640
  8
0
  6
BYBLOCK
 62
     0
 10
8.892981
 20
-5.76
 30
0.0
 11
9.125
 21
-5.76
 31
0.0
  0
LINE
  5
641
  8
0
  6
BYBLOCK
 62
     0
 10
8.910047
 20
-4.119826
 30
0.0
 11
11.309998
 21
-4.119826
 31
0.0
  0
LINE
  5
642
  8
0
  6
BYBLOCK
 62
     0
 10
8.910047
 20
-4.41
 30
0.0
 11
9.125
 21
-4.41
 31
0.0
  0
LINE
  5
643
  8
0
  6
BYBLOCK
 62
     0
 10
8.910047
 20
-2.299858
 30
0.0
 11
11.309998
 21
-2.299858
 31
0.0
  0
LINE
  5
644
  8
0
  6
BYBLOCK
 62
     0
 10
8.910047
 20
2.300058
 30
0.0
 11
11.309998
 21
2.300058
 31
0.0
  0
LINE
  5
646
  8
0
  6
BYBLOCK
 62
     0
 10
6.935
 20
5.95
 30
0.0
 11
9.125
 21
5.95
 31
0.0
  0
LINE
  5
647
  8
0
  6
BYBLOCK
 62
     0
 10
7.125
 20
4.41
 30
0.0
 11
9.125
 21
4.41
 31
0.0
  0
LINE
  5
648
  8
0
  6
BYBLOCK
 62
     0
 10
8.910047
 20
4.120026
 30
0.0
 11
11.309998
 21
4.120026
 31
0.0
  0
LINE
  5
71A
  8
0
 10
1.185
 20
6.043307
 30
0.0
 11
3.155
 21
6.043307
 31
0.0
  0
LINE
  5
71B
  8
0
 10
1.185
 20
-6.043307
 30
0.0
 11
3.155
 21
-6.043307
 31
0.0
  0
CIRCLE
  5
71F
  8
0
 10
6.14
 20
5.452756
 30
0.0
 40
0.255906
  0
LINE
  5
720
  8
0
 10
5.155
 20
6.043307
 30
0.0
 11
7.125
 21
6.043307
 31
0.0
  0
LINE
  5
721
  8
0
 10
9.125
 20
6.043307
 30
0.0
 11
11.095
 21
6.043307
 31
0.0
  0
CIRCLE
  5
722
  8
0
 10
2.17
 20
5.452756
 30
0.0
 40
0.255906
  0
CIRCLE
  5
723
  8
0
 10
10.11
 20
5.452756
 30
0.0
 40
0.255906
  0
LINE
  5
734
  8
0
 10
5.155
 20
-6.043307
 30
0.0
 11
7.125
 21
-6.043307
 31
0.0
  0
LINE
  5
735
  8
0
 10
9.125
 20
-6.043307
 30
0.0
 11
11.095
 21
-6.043307
 31
0.0
  0
LINE
  5
736
  8
0
  6
HIDDEN
 62
     0
 10
8.892981
 20
-5.76
 30
0.0
 11
11.209998
 21
-5.76
 31
0.0
  0
CIRCLE
  5
737
  8
0
 10
10.11
 20
-5.452756
 30
0.0
 40
0.255906
  0
CIRCLE
  5
738
  8
0
 10
6.14
 20
-5.452756
 30
0.0
 40
0.255906
  0
CIRCLE
  5
739
  8
0
 10
2.17
 20
-5.452756
 30
0.0
 40
0.255906
  0
LINE
  5
73B
  8
0
  6
BYBLOCK
 62
     0
 10
-7.464973
 20
2.169972
 30
0.0
 11
-8.78505
 21
2.169972
 31
0.0
  0
LINE
  5
73C
  8
0
  6
BYBLOCK
 62
     0
 10
-7.464973
 20
2.009976
 30
0.0
 11
-8.78505
 21
2.009976
 31
0.0
  0
LINE
  5
73D
  8
0
  6
BYBLOCK
 62
     0
 10
-9.125
 20
4.41
 30
0.0
 11
-7.125
 21
4.41
 31
0.0
  0
LINE
  5
73E
  8
0
  6
BYBLOCK
 62
     0
 10
-9.125
 20
5.95
 30
0.0
 11
-6.935
 21
5.95
 31
0.0
  0
LINE
  5
73F
  8
0
  6
BYBLOCK
 62
     0
 10
-7.464973
 20
-2.169972
 30
0.0
 11
-8.78505
 21
-2.169972
 31
0.0
  0
LINE
  5
740
  8
0
  6
BYBLOCK
 62
     0
 10
-7.464973
 20
-2.009976
 30
0.0
 11
-8.78505
 21
-2.009976
 31
0.0
  0
LINE
  5
741
  8
0
  6
BYBLOCK
 62
     0
 10
-9.125
 20
-5.95
 30
0.0
 11
-8.575757
 21
-5.95
 31
0.0
  0
LINE
  5
742
  8
0
  6
BYBLOCK
 62
     0
 10
-8.492277
 20
-6.0
 30
0.0
 11
-8.892981
 21
-5.76
 31
0.0
  0
LINE
  5
743
  8
0
  6
BYBLOCK
 62
     0
 10
-11.557363
 20
-2.438852
 30
0.0
 11
-11.309998
 21
-2.58256
 31
0.0
  0
LINE
  5
744
  8
0
  6
BYBLOCK
 62
     0
 10
-11.309998
 20
-2.17
 30
0.0
 11
-11.309998
 21
-4.119826
 31
0.0
  0
LINE
  5
745
  8
0
  6
BYBLOCK
 62
     0
 10
-8.910047
 20
4.120026
 30
0.0
 11
-8.910047
 21
-4.119826
 31
0.0
  0
LINE
  5
746
  8
0
  6
HIDDEN
 62
     0
 10
-8.892981
 20
-5.76
 30
0.0
 11
-11.209998
 21
-5.76
 31
0.0
  0
LINE
  5
747
  8
0
 10
-11.095
 20
-6.043307
 30
0.0
 11
-9.125
 21
-6.043307
 31
0.0
  0
LINE
  5
748
  8
0
  6
HIDDEN
 62
     0
 10
-11.095
 20
-5.95
 30
0.0
 11
-9.8075
 21
-5.95
 31
0.0
  0
LINE
  5
749
  8
0
  6
BYBLOCK
 62
     0
 10
-11.309998
 20
-4.119826
 30
0.0
 11
-8.910047
 21
-4.119826
 31
0.0
  0
LINE
  5
74A
  8
0
  6
BYBLOCK
 62
     0
 10
-11.095
 20
-4.119826
 30
0.0
 11
-11.095
 21
-6.043307
 31
0.0
  0
LINE
  5
74B
  8
0
  6
BYBLOCK
 62
     0
 10
-11.140002
 20
-4.119826
 30
0.0
 11
-11.140002
 21
-4.41
 31
0.0
  0
LINE
  5
74C
  8
0
  6
BYBLOCK
 62
     0
 10
-11.309998
 20
-4.119826
 30
0.0
 11
-11.309998
 21
-5.95
 31
0.0
  0
ARC
  5
74D
  8
0
  6
BYBLOCK
 62
     0
 10
-11.209998
 20
-5.66
 30
0.0
 40
0.1
 50
180.0
 51
270.0
  0
LINE
  5
74E
  8
0
  6
BYBLOCK
 62
     0
 10
-11.095
 20
-5.95
 30
0.0
 11
-11.309998
 21
-5.95
 31
0.0
  0
LINE
  5
74F
  8
0
  6
BYBLOCK
 62
     0
 10
-11.309998
 20
-4.41
 30
0.0
 11
-11.095
 21
-4.41
 31
0.0
  0
LINE
  5
750
  8
0
  6
BYBLOCK
 62
     0
 10
-9.125
 20
-4.119826
 30
0.0
 11
-9.125
 21
-6.043307
 31
0.0
  0
LINE
  5
751
  8
0
  6
BYBLOCK
 62
     0
 10
-8.910047
 20
-4.119826
 30
0.0
 11
-8.910047
 21
-4.41
 31
0.0
  0
LINE
  5
752
  8
0
  6
BYBLOCK
 62
     0
 10
-9.080042
 20
-4.119826
 30
0.0
 11
-9.080042
 21
-4.41
 31
0.0
  0
LINE
  5
753
  8
0
  6
BYBLOCK
 62
     1
 10
-9.862
 20
-5.57
 30
0.0
 11
-9.308
 21
-5.57
 31
0.0
  0
CIRCLE
  5
754
  8
0
 10
-10.11
 20
-5.452756
 30
0.0
 40
0.255906
  0
ARC
  5
755
  8
0
  6
HIDDEN
 62
     1
 10
-9.585
 20
-5.3675
 30
0.0
 40
0.2225
 50
0.0
 51
180.0
  0
LINE
  5
756
  8
0
  6
BYBLOCK
 62
     1
 10
-9.585
 20
-5.0905
 30
0.0
 11
-9.585
 21
-5.939
 31
0.0
  0
LINE
  5
757
  8
0
  6
HIDDEN
 62
     0
 10
-9.3625
 20
-5.95
 30
0.0
 11
-9.125
 21
-5.95
 31
0.0
  0
LINE
  5
758
  8
0
  6
HIDDEN
 62
     1
 10
-9.8075
 20
-5.3675
 30
0.0
 11
-9.8075
 21
-5.95
 31
0.0
  0
LINE
  5
759
  8
0
  6
HIDDEN
 62
     1
 10
-9.3625
 20
-5.3675
 30
0.0
 11
-9.3625
 21
-5.95
 31
0.0
  0
LINE
  5
75A
  8
0
  6
BYBLOCK
 62
     0
 10
-9.125
 20
-4.41
 30
0.0
 11
-8.910047
 21
-4.41
 31
0.0
  0
CIRCLE
  5
75B
  8
0
  6
BYBLOCK
 62
     0
 10
-9.64
 20
-3.744649
 30
0.0
 40
0.235
  0
CIRCLE
  5
75C
  8
0
  6
BYBLOCK
 62
     0
 10
-10.58
 20
-3.744649
 30
0.0
 40
0.235
  0
LINE
  5
75D
  8
0
  6
BYBLOCK
 62
     0
 10
-11.309998
 20
5.85
 30
0.0
 11
-11.309998
 21
4.120026
 31
0.0
  0
LINE
  5
75E
  8
0
  6
BYBLOCK
 62
     0
 10
-9.125
 20
6.043307
 30
0.0
 11
-9.125
 21
4.120026
 31
0.0
  0
LINE
  5
75F
  8
0
  6
BYBLOCK
 62
     0
 10
-11.095
 20
6.043307
 30
0.0
 11
-11.095
 21
4.120026
 31
0.0
  0
LINE
  5
760
  8
0
  6
BYBLOCK
 62
     0
 10
-11.309998
 20
1.793949
 30
0.0
 11
-11.309998
 21
-1.77
 31
0.0
  0
LINE
  5
761
  8
0
  6
BYBLOCK
 62
     0
 10
-11.309998
 20
-2.299858
 30
0.0
 11
-8.910047
 21
-2.299858
 31
0.0
  0
ARC
  5
762
  8
0
  6
BYBLOCK
 62
     0
 10
-11.525012
 20
-1.621685
 30
0.0
 40
0.124997
 50
105.0
 51
180.0
  0
LINE
  5
763
  8
0
  6
BYBLOCK
 62
     0
 10
-11.650008
 20
-1.62
 30
0.0
 11
-11.309998
 21
-1.62
 31
0.0
  0
LINE
  5
764
  8
0
  6
BYBLOCK
 62
     0
 10
-11.650008
 20
-1.77
 30
0.0
 11
-11.404898
 21
-1.77
 31
0.0
  0
LINE
  5
765
  8
0
  6
BYBLOCK
 62
     0
 10
-11.650008
 20
-2.17
 30
0.0
 11
-11.404898
 21
-2.17
 31
0.0
  0
LINE
  5
766
  8
0
  6
BYBLOCK
 62
     0
 10
-11.650008
 20
-2.32
 30
0.0
 11
-11.309998
 21
-2.32
 31
0.0
  0
ARC
  5
767
  8
0
  6
BYBLOCK
 62
     0
 10
-11.525012
 20
-2.318115
 30
0.0
 40
0.124997
 50
180.0
 51
255.0
  0
LINE
  5
768
  8
0
  6
BYBLOCK
 62
     0
 10
-11.650008
 20
-1.621685
 30
0.0
 11
-11.650008
 21
-2.318115
 31
0.0
  0
LINE
  5
769
  8
0
  6
BYBLOCK
 62
     0
 10
-11.495602
 20
-2.09606
 30
0.0
 11
-11.278838
 21
-1.879296
 31
0.0
  0
LINE
  5
76A
  8
0
  6
BYBLOCK
 62
     0
 10
-11.530957
 20
-2.060704
 30
0.0
 11
-11.314194
 21
-1.84394
 31
0.0
  0
ARC
  5
76B
  8
0
  6
BYBLOCK
 62
     0
 10
-11.404898
 20
-1.97
 30
0.0
 40
0.2
 50
270.0
 51
90.0
  0
CIRCLE
  5
76C
  8
0
  6
BYBLOCK
 62
     0
 10
-11.404898
 20
-1.97
 30
0.0
 40
0.1553
  0
LINE
  5
76D
  8
0
  6
BYBLOCK
 62
     0
 10
-11.557363
 20
-1.500948
 30
0.0
 11
-11.309998
 21
-1.35724
 31
0.0
  0
ARC
  5
76E
  8
0
  6
BYBLOCK
 62
     0
 10
-8.78505
 20
-1.884979
 30
0.0
 40
0.124997
 50
180.0
 51
270.0
  0
ARC
  5
76F
  8
0
  6
BYBLOCK
 62
     0
 10
-8.78505
 20
-2.294969
 30
0.0
 40
0.124997
 50
90.0
 51
180.0
  0
LINE
  5
770
  8
0
  6
BYBLOCK
 62
     0
 10
-11.309998
 20
4.120026
 30
0.0
 11
-8.910047
 21
4.120026
 31
0.0
  0
LINE
  5
771
  8
0
  6
BYBLOCK
 62
     0
 10
-11.309998
 20
2.300058
 30
0.0
 11
-8.910047
 21
2.300058
 31
0.0
  0
LINE
  5
772
  8
0
  6
BYBLOCK
 62
     0
 10
-11.309998
 20
4.120026
 30
0.0
 11
-11.309998
 21
2.146051
 31
0.0
  0
LINE
  5
773
  8
0
  6
BYBLOCK
 62
     0
 10
-11.530957
 20
1.879296
 30
0.0
 11
-11.314194
 21
2.09606
 31
0.0
  0
ARC
  5
774
  8
0
  6
BYBLOCK
 62
     0
 10
-11.404898
 20
1.97
 30
0.0
 40
0.2
 50
270.0
 51
90.0
  0
LINE
  5
775
  8
0
  6
BYBLOCK
 62
     0
 10
-11.495602
 20
1.84394
 30
0.0
 11
-11.278838
 21
2.060704
 31
0.0
  0
CIRCLE
  5
776
  8
0
  6
BYBLOCK
 62
     0
 10
-11.404898
 20
1.97
 30
0.0
 40
0.1553
  0
LINE
  5
777
  8
0
  6
BYBLOCK
 62
     0
 10
-11.650008
 20
2.318315
 30
0.0
 11
-11.650008
 21
1.621885
 31
0.0
  0
LINE
  5
778
  8
0
  6
BYBLOCK
 62
     0
 10
-11.650008
 20
1.62
 30
0.0
 11
-11.309998
 21
1.62
 31
0.0
  0
LINE
  5
779
  8
0
  6
BYBLOCK
 62
     0
 10
-11.650008
 20
1.77
 30
0.0
 11
-11.404898
 21
1.77
 31
0.0
  0
ARC
  5
77A
  8
0
  6
BYBLOCK
 62
     0
 10
-11.525012
 20
1.621885
 30
0.0
 40
0.124997
 50
180.0
 51
255.0
  0
LINE
  5
77B
  8
0
  6
BYBLOCK
 62
     0
 10
-11.557363
 20
1.501148
 30
0.0
 11
-11.309998
 21
1.35744
 31
0.0
  0
LINE
  5
77C
  8
0
  6
BYBLOCK
 62
     0
 10
-11.650008
 20
2.32
 30
0.0
 11
-11.309998
 21
2.32
 31
0.0
  0
ARC
  5
77D
  8
0
  6
BYBLOCK
 62
     0
 10
-11.525012
 20
2.318315
 30
0.0
 40
0.124997
 50
105.0
 51
180.0
  0
LINE
  5
77E
  8
0
  6
BYBLOCK
 62
     0
 10
-11.650008
 20
2.17
 30
0.0
 11
-11.404898
 21
2.17
 31
0.0
  0
LINE
  5
77F
  8
0
  6
BYBLOCK
 62
     0
 10
-11.557363
 20
2.439052
 30
0.0
 11
-11.309998
 21
2.58276
 31
0.0
  0
LINE
  5
780
  8
0
  6
BYBLOCK
 62
     0
 10
-11.140002
 20
4.41
 30
0.0
 11
-11.140002
 21
4.120026
 31
0.0
  0
LINE
  5
781
  8
0
  6
BYBLOCK
 62
     0
 10
-11.309998
 20
4.41
 30
0.0
 11
-11.095
 21
4.41
 31
0.0
  0
ARC
  5
782
  8
0
  6
BYBLOCK
 62
     0
 10
-8.78505
 20
1.884979
 30
0.0
 40
0.124997
 50
90.0
 51
180.0
  0
ARC
  5
783
  8
0
  6
BYBLOCK
 62
     0
 10
-8.78505
 20
2.294969
 30
0.0
 40
0.124997
 50
180.0
 51
270.0
  0
CIRCLE
  5
784
  8
0
  6
BYBLOCK
 62
     0
 10
-9.64
 20
3.744649
 30
0.0
 40
0.235
  0
CIRCLE
  5
785
  8
0
  6
BYBLOCK
 62
     0
 10
-10.58
 20
3.744649
 30
0.0
 40
0.235
  0
LINE
  5
786
  8
0
  6
BYBLOCK
 62
     0
 10
-8.910047
 20
4.41
 30
0.0
 11
-8.910047
 21
4.120026
 31
0.0
  0
LINE
  5
787
  8
0
  6
BYBLOCK
 62
     0
 10
-9.080042
 20
4.41
 30
0.0
 11
-9.080042
 21
4.120026
 31
0.0
  0
LINE
  5
788
  8
0
 10
-11.095
 20
6.043307
 30
0.0
 11
-9.125
 21
6.043307
 31
0.0
  0
ARC
  5
789
  8
0
  6
BYBLOCK
 62
     0
 10
-11.209998
 20
5.85
 30
0.0
 40
0.1
 50
90.0
 51
180.0
  0
LINE
  5
78A
  8
0
  6
BYBLOCK
 62
     0
 10
-11.209998
 20
5.95
 30
0.0
 11
-11.095
 21
5.95
 31
0.0
  0
LINE
  5
78B
  8
0
  6
BYBLOCK
 62
     1
 10
-9.862
 20
5.45
 30
0.0
 11
-9.308
 21
5.45
 31
0.0
  0
CIRCLE
  5
78C
  8
0
 10
-10.11
 20
5.452756
 30
0.0
 40
0.255906
  0
CIRCLE
  5
78D
  8
0
  6
HIDDEN
 62
     1
 10
-9.585
 20
5.45
 30
0.0
 40
0.215
  0
LINE
  5
78E
  8
0
  6
BYBLOCK
 62
     1
 10
-9.585
 20
5.727
 30
0.0
 11
-9.585
 21
5.173
 31
0.0
  0
LINE
  5
78F
  8
0
  6
BYBLOCK
 62
     0
 10
-0.722637
 20
-2.438852
 30
0.0
 11
-0.970002
 21
-2.58256
 31
0.0
  0
LINE
  5
790
  8
0
  6
BYBLOCK
 62
     0
 10
-0.970002
 20
-2.146051
 30
0.0
 11
-0.970002
 21
-4.119826
 31
0.0
  0
LINE
  5
791
  8
0
  6
BYBLOCK
 62
     0
 10
-7.339976
 20
4.120026
 30
0.0
 11
-7.339976
 21
-4.119826
 31
0.0
  0
LINE
  5
792
  8
0
  6
BYBLOCK
 62
     0
 10
-4.940024
 20
4.120026
 30
0.0
 11
-4.940024
 21
-4.119826
 31
0.0
  0
LINE
  5
793
  8
0
  6
BYBLOCK
 62
     0
 10
-3.369953
 20
4.120026
 30
0.0
 11
-3.369953
 21
-4.119826
 31
0.0
  0
LINE
  5
794
  8
0
  6
BYBLOCK
 62
     0
 10
-4.522354
 20
-6.0
 30
0.0
 11
-3.787723
 21
-6.0
 31
0.0
  0
LINE
  5
795
  8
0
  6
HIDDEN
 62
     0
 10
-4.605835
 20
-5.95
 30
0.0
 11
-3.704243
 21
-5.95
 31
0.0
  0
CIRCLE
  5
796
  8
0
 10
-6.14
 20
-5.452756
 30
0.0
 40
0.255906
  0
LINE
  5
797
  8
0
  6
HIDDEN
 62
     0
 10
-7.356941
 20
-5.76
 30
0.0
 11
-4.923059
 21
-5.76
 31
0.0
  0
LINE
  5
798
  8
0
 10
-7.125
 20
-6.043307
 30
0.0
 11
-5.155
 21
-6.043307
 31
0.0
  0
LINE
  5
799
  8
0
  6
BYBLOCK
 62
     0
 10
-7.339976
 20
-4.119826
 30
0.0
 11
-4.940024
 21
-4.119826
 31
0.0
  0
LINE
  5
79A
  8
0
  6
HIDDEN
 62
     0
 10
-7.125
 20
-5.95
 30
0.0
 11
-5.155
 21
-5.95
 31
0.0
  0
LINE
  5
79B
  8
0
  6
BYBLOCK
 62
     0
 10
-7.125
 20
-4.119826
 30
0.0
 11
-7.125
 21
-6.043307
 31
0.0
  0
LINE
  5
79C
  8
0
  6
BYBLOCK
 62
     0
 10
-7.339976
 20
-4.119826
 30
0.0
 11
-7.339976
 21
-4.41
 31
0.0
  0
LINE
  5
79D
  8
0
  6
BYBLOCK
 62
     0
 10
-7.16998
 20
-4.119826
 30
0.0
 11
-7.16998
 21
-4.41
 31
0.0
  0
LINE
  5
79E
  8
0
  6
BYBLOCK
 62
     0
 10
-7.655032
 20
-3.31992
 30
0.0
 11
-7.655032
 21
-5.929962
 31
0.0
  0
LINE
  5
79F
  8
0
  6
BYBLOCK
 62
     0
 10
-8.595008
 20
-3.31992
 30
0.0
 11
-8.595008
 21
-5.929962
 31
0.0
  0
LINE
  5
7A0
  8
0
  6
BYBLOCK
 62
     0
 10
-7.674165
 20
-5.95
 30
0.0
 11
-7.125
 21
-5.95
 31
0.0
  0
LINE
  5
7A1
  8
0
  6
BYBLOCK
 62
     0
 10
-7.757646
 20
-6.0
 30
0.0
 11
-7.356941
 21
-5.76
 31
0.0
  0
CIRCLE
  5
7A2
  8
0
  6
BYBLOCK
 62
     0
 10
-7.888116
 20
-5.294924
 30
0.0
 40
0.139997
  0
CIRCLE
  5
7A3
  8
0
  6
BYBLOCK
 62
     0
 10
-8.361924
 20
-5.294924
 30
0.0
 40
0.139997
  0
LINE
  5
7A4
  8
0
  6
BYBLOCK
 62
     0
 10
-8.028075
 20
-5.649915
 30
0.0
 11
-8.221965
 21
-5.649915
 31
0.0
  0
LINE
  5
7A5
  8
0
  6
HIDDEN
 62
     0
 10
-8.575757
 20
-5.95
 30
0.0
 11
-7.674165
 21
-5.95
 31
0.0
  0
LINE
  5
7A6
  8
0
  6
BYBLOCK
 62
     0
 10
-7.655032
 20
-5.929962
 30
0.0
 11
-8.595008
 21
-5.929962
 31
0.0
  0
LINE
  5
7A7
  8
0
  6
BYBLOCK
 62
     0
 10
-8.492277
 20
-6.0
 30
0.0
 11
-7.757646
 21
-6.0
 31
0.0
  0
CIRCLE
  5
7A8
  8
0
  6
BYBLOCK
 62
     0
 10
-8.361924
 20
-5.646679
 30
0.0
 40
0.139997
  0
LINE
  5
7A9
  8
0
  6
BYBLOCK
 62
     0
 10
-8.501883
 20
-5.649915
 30
0.0
 11
-8.595008
 21
-5.649915
 31
0.0
  0
CIRCLE
  5
7AA
  8
0
  6
BYBLOCK
 62
     0
 10
-7.888116
 20
-5.646679
 30
0.0
 40
0.139997
  0
LINE
  5
7AB
  8
0
  6
BYBLOCK
 62
     0
 10
-7.655032
 20
-5.649915
 30
0.0
 11
-7.748157
 21
-5.649915
 31
0.0
  0
LINE
  5
7AC
  8
0
  6
BYBLOCK
 62
     0
 10
-7.339976
 20
-4.41
 30
0.0
 11
-7.125
 21
-4.41
 31
0.0
  0
LINE
  5
7AD
  8
0
  6
BYBLOCK
 62
     0
 10
-8.028075
 20
-3.599966
 30
0.0
 11
-8.221965
 21
-3.599966
 31
0.0
  0
CIRCLE
  5
7AE
  8
0
  6
BYBLOCK
 62
     0
 10
-8.361924
 20
-3.954958
 30
0.0
 40
0.139997
  0
CIRCLE
  5
7AF
  8
0
  6
BYBLOCK
 62
     0
 10
-8.361924
 20
-3.603202
 30
0.0
 40
0.139997
  0
LINE
  5
7B0
  8
0
  6
BYBLOCK
 62
     0
 10
-8.501883
 20
-3.599966
 30
0.0
 11
-8.595008
 21
-3.599966
 31
0.0
  0
CIRCLE
  5
7B1
  8
0
  6
BYBLOCK
 62
     0
 10
-7.888116
 20
-3.954958
 30
0.0
 40
0.139997
  0
LINE
  5
7B2
  8
0
  6
BYBLOCK
 62
     0
 10
-7.655032
 20
-3.599966
 30
0.0
 11
-7.748157
 21
-3.599966
 31
0.0
  0
CIRCLE
  5
7B3
  8
0
  6
BYBLOCK
 62
     0
 10
-7.888116
 20
-3.603202
 30
0.0
 40
0.139997
  0
LINE
  5
7B4
  8
0
  6
BYBLOCK
 62
     0
 10
-7.655032
 20
-3.31992
 30
0.0
 11
-8.595008
 21
-3.31992
 31
0.0
  0
CIRCLE
  5
7B5
  8
0
  6
BYBLOCK
 62
     0
 10
-6.61
 20
-3.744649
 30
0.0
 40
0.235
  0
LINE
  5
7B6
  8
0
  6
BYBLOCK
 62
     0
 10
-5.155
 20
-4.119826
 30
0.0
 11
-5.155
 21
-6.043307
 31
0.0
  0
LINE
  5
7B7
  8
0
  6
BYBLOCK
 62
     0
 10
-4.940024
 20
-4.119826
 30
0.0
 11
-4.940024
 21
-4.41
 31
0.0
  0
LINE
  5
7B8
  8
0
  6
BYBLOCK
 62
     0
 10
-5.11002
 20
-4.119826
 30
0.0
 11
-5.11002
 21
-4.41
 31
0.0
  0
LINE
  5
7B9
  8
0
  6
BYBLOCK
 62
     0
 10
-5.155
 20
-4.41
 30
0.0
 11
-4.940024
 21
-4.41
 31
0.0
  0
LINE
  5
7BA
  8
0
  6
BYBLOCK
 62
     0
 10
-5.155
 20
-5.95
 30
0.0
 11
-4.605835
 21
-5.95
 31
0.0
  0
LINE
  5
7BB
  8
0
  6
BYBLOCK
 62
     0
 10
-4.522354
 20
-6.0
 30
0.0
 11
-4.923059
 21
-5.76
 31
0.0
  0
CIRCLE
  5
7BC
  8
0
  6
BYBLOCK
 62
     0
 10
-5.67
 20
-3.744649
 30
0.0
 40
0.235
  0
LINE
  5
7BD
  8
0
  6
HIDDEN
 62
     0
 10
-3.387019
 20
-5.76
 30
0.0
 11
-1.070002
 21
-5.76
 31
0.0
  0
LINE
  5
7BE
  8
0
 10
-3.155
 20
-6.043307
 30
0.0
 11
-1.185
 21
-6.043307
 31
0.0
  0
LINE
  5
7BF
  8
0
  6
HIDDEN
 62
     0
 10
-2.4725
 20
-5.95
 30
0.0
 11
-1.185
 21
-5.95
 31
0.0
  0
LINE
  5
7C0
  8
0
  6
BYBLOCK
 62
     0
 10
-3.369953
 20
-4.119826
 30
0.0
 11
-0.970002
 21
-4.119826
 31
0.0
  0
LINE
  5
7C1
  8
0
  6
BYBLOCK
 62
     0
 10
-3.155
 20
-4.119826
 30
0.0
 11
-3.155
 21
-6.043307
 31
0.0
  0
LINE
  5
7C2
  8
0
  6
BYBLOCK
 62
     0
 10
-3.199958
 20
-4.119826
 30
0.0
 11
-3.199958
 21
-4.41
 31
0.0
  0
LINE
  5
7C3
  8
0
  6
BYBLOCK
 62
     0
 10
-3.369953
 20
-4.119826
 30
0.0
 11
-3.369953
 21
-4.41
 31
0.0
  0
ARC
  5
7C4
  8
0
  6
HIDDEN
 62
     1
 10
-2.695
 20
-5.3675
 30
0.0
 40
0.2225
 50
0.0
 51
180.0
  0
LINE
  5
7C5
  8
0
  6
BYBLOCK
 62
     1
 10
-2.972
 20
-5.57
 30
0.0
 11
-2.418
 21
-5.57
 31
0.0
  0
LINE
  5
7C6
  8
0
  6
BYBLOCK
 62
     1
 10
-2.695
 20
-5.0905
 30
0.0
 11
-2.695
 21
-5.939
 31
0.0
  0
LINE
  5
7C7
  8
0
  6
BYBLOCK
 62
     0
 10
-3.387019
 20
-5.76
 30
0.0
 11
-3.155
 21
-5.76
 31
0.0
  0
LINE
  5
7C8
  8
0
  6
BYBLOCK
 62
     0
 10
-3.704243
 20
-5.95
 30
0.0
 11
-3.155
 21
-5.95
 31
0.0
  0
LINE
  5
7C9
  8
0
  6
BYBLOCK
 62
     0
 10
-3.787723
 20
-6.0
 30
0.0
 11
-3.387019
 21
-5.76
 31
0.0
  0
LINE
  5
7CA
  8
0
  6
HIDDEN
 62
     1
 10
-2.9175
 20
-5.3675
 30
0.0
 11
-2.9175
 21
-5.95
 31
0.0
  0
LINE
  5
7CB
  8
0
  6
HIDDEN
 62
     0
 10
-3.155
 20
-5.95
 30
0.0
 11
-2.9175
 21
-5.95
 31
0.0
  0
LINE
  5
7CC
  8
0
  6
BYBLOCK
 62
     0
 10
-3.369953
 20
-4.41
 30
0.0
 11
-3.155
 21
-4.41
 31
0.0
  0
CIRCLE
  5
7CD
  8
0
 10
-2.17
 20
-5.452756
 30
0.0
 40
0.255906
  0
LINE
  5
7CE
  8
0
  6
HIDDEN
 62
     1
 10
-2.4725
 20
-5.3675
 30
0.0
 11
-2.4725
 21
-5.95
 31
0.0
  0
CIRCLE
  5
7CF
  8
0
  6
BYBLOCK
 62
     0
 10
-2.64
 20
-3.744649
 30
0.0
 40
0.235
  0
CIRCLE
  5
7D0
  8
0
  6
BYBLOCK
 62
     0
 10
-1.7
 20
-3.744649
 30
0.0
 40
0.235
  0
LINE
  5
7D1
  8
0
  6
BYBLOCK
 62
     0
 10
-1.185
 20
-4.119826
 30
0.0
 11
-1.185
 21
-6.043307
 31
0.0
  0
LINE
  5
7D2
  8
0
  6
BYBLOCK
 62
     0
 10
-0.970002
 20
-4.119826
 30
0.0
 11
-0.970002
 21
-5.95
 31
0.0
  0
LINE
  5
7D3
  8
0
  6
BYBLOCK
 62
     0
 10
-1.139998
 20
-4.119826
 30
0.0
 11
-1.139998
 21
-4.41
 31
0.0
  0
LINE
  5
7D4
  8
0
  6
BYBLOCK
 62
     0
 10
-1.185
 20
-5.76
 30
0.0
 11
-1.070002
 21
-5.76
 31
0.0
  0
LINE
  5
7D5
  8
0
  6
BYBLOCK
 62
     0
 10
-1.185
 20
-5.95
 30
0.0
 11
-0.970002
 21
-5.95
 31
0.0
  0
LINE
  5
7D6
  8
0
  6
BYBLOCK
 62
     0
 10
-1.1499
 20
-5.95
 30
0.0
 11
-1.124998
 21
-5.95
 31
0.0
  0
ARC
  5
7D7
  8
0
  6
BYBLOCK
 62
     0
 10
-1.070002
 20
-5.66
 30
0.0
 40
0.1
 50
270.0
 51
0.0
  0
LINE
  5
7D8
  8
0
  6
BYBLOCK
 62
     0
 10
-1.185
 20
-4.41
 30
0.0
 11
-0.970002
 21
-4.41
 31
0.0
  0
LINE
  5
7D9
  8
0
  6
BYBLOCK
 62
     0
 10
-0.970002
 20
5.85
 30
0.0
 11
-0.970002
 21
2.146051
 31
0.0
  0
LINE
  5
7DA
  8
0
  6
BYBLOCK
 62
     0
 10
-3.155
 20
6.043307
 30
0.0
 11
-3.155
 21
4.120026
 31
0.0
  0
LINE
  5
7DB
  8
0
  6
BYBLOCK
 62
     0
 10
-1.185
 20
6.043307
 30
0.0
 11
-1.185
 21
4.120026
 31
0.0
  0
LINE
  5
7DC
  8
0
  6
BYBLOCK
 62
     0
 10
-7.125
 20
6.043307
 30
0.0
 11
-7.125
 21
4.120026
 31
0.0
  0
LINE
  5
7DD
  8
0
  6
BYBLOCK
 62
     0
 10
-5.155
 20
6.043307
 30
0.0
 11
-5.155
 21
4.120026
 31
0.0
  0
LINE
  5
7DE
  8
0
  6
BYBLOCK
 62
     0
 10
-5.155
 20
4.41
 30
0.0
 11
-3.155
 21
4.41
 31
0.0
  0
LINE
  5
7DF
  8
0
  6
BYBLOCK
 62
     0
 10
-3.49495
 20
2.169972
 30
0.0
 11
-4.815028
 21
2.169972
 31
0.0
  0
LINE
  5
7E0
  8
0
  6
BYBLOCK
 62
     0
 10
-3.49495
 20
2.009976
 30
0.0
 11
-4.815027
 21
2.009976
 31
0.0
  0
LINE
  5
7E1
  8
0
  6
BYBLOCK
 62
     0
 10
-3.49495
 20
-2.169972
 30
0.0
 11
-4.815027
 21
-2.169972
 31
0.0
  0
LINE
  5
7E2
  8
0
  6
BYBLOCK
 62
     0
 10
-3.49495
 20
-2.009976
 30
0.0
 11
-4.815028
 21
-2.009976
 31
0.0
  0
LINE
  5
7E3
  8
0
  6
BYBLOCK
 62
     0
 10
-7.339976
 20
-2.299858
 30
0.0
 11
-4.940024
 21
-2.299858
 31
0.0
  0
ARC
  5
7E4
  8
0
  6
BYBLOCK
 62
     0
 10
-7.464973
 20
-1.884979
 30
0.0
 40
0.124997
 50
270.0
 51
0.0
  0
ARC
  5
7E5
  8
0
  6
BYBLOCK
 62
     0
 10
-7.464973
 20
-2.294969
 30
0.0
 40
0.124997
 50
0.0
 51
90.0
  0
ARC
  5
7E6
  8
0
  6
BYBLOCK
 62
     0
 10
-4.815028
 20
-1.884979
 30
0.0
 40
0.124997
 50
180.0
 51
270.0
  0
ARC
  5
7E7
  8
0
  6
BYBLOCK
 62
     0
 10
-4.815027
 20
-2.294969
 30
0.0
 40
0.124997
 50
90.0
 51
180.0
  0
LINE
  5
7E8
  8
0
  6
BYBLOCK
 62
     0
 10
-7.339976
 20
4.120026
 30
0.0
 11
-4.940024
 21
4.120026
 31
0.0
  0
LINE
  5
7E9
  8
0
  6
BYBLOCK
 62
     0
 10
-7.339976
 20
2.300058
 30
0.0
 11
-4.940024
 21
2.300058
 31
0.0
  0
ARC
  5
7EA
  8
0
  6
BYBLOCK
 62
     0
 10
-7.464973
 20
1.884979
 30
0.0
 40
0.124997
 50
0.0
 51
90.0
  0
ARC
  5
7EB
  8
0
  6
BYBLOCK
 62
     0
 10
-7.464973
 20
2.294969
 30
0.0
 40
0.124997
 50
270.0
 51
0.0
  0
CIRCLE
  5
7EC
  8
0
  6
BYBLOCK
 62
     0
 10
-7.858811
 20
3.91
 30
0.0
 40
0.151199
  0
CIRCLE
  5
7ED
  8
0
  6
BYBLOCK
 62
     0
 10
-8.408811
 20
3.91
 30
0.0
 40
0.151199
  0
CIRCLE
  5
7EE
  8
0
  6
BYBLOCK
 62
     0
 10
-6.61
 20
3.744649
 30
0.0
 40
0.235
  0
LINE
  5
7EF
  8
0
  6
BYBLOCK
 62
     0
 10
-7.16998
 20
4.41
 30
0.0
 11
-7.16998
 21
4.120026
 31
0.0
  0
LINE
  5
7F0
  8
0
  6
BYBLOCK
 62
     0
 10
-7.339976
 20
4.41
 30
0.0
 11
-7.339976
 21
4.120026
 31
0.0
  0
ARC
  5
7F1
  8
0
  6
BYBLOCK
 62
     0
 10
-4.815027
 20
1.884979
 30
0.0
 40
0.124997
 50
90.0
 51
180.0
  0
ARC
  5
7F2
  8
0
  6
BYBLOCK
 62
     0
 10
-4.815028
 20
2.294969
 30
0.0
 40
0.124997
 50
180.0
 51
270.0
  0
CIRCLE
  5
7F3
  8
0
  6
BYBLOCK
 62
     0
 10
-5.67
 20
3.744649
 30
0.0
 40
0.235
  0
LINE
  5
7F4
  8
0
  6
BYBLOCK
 62
     0
 10
-5.11002
 20
4.41
 30
0.0
 11
-5.11002
 21
4.120026
 31
0.0
  0
LINE
  5
7F5
  8
0
  6
BYBLOCK
 62
     0
 10
-4.940024
 20
4.41
 30
0.0
 11
-4.940024
 21
4.120026
 31
0.0
  0
LINE
  5
7F6
  8
0
  6
BYBLOCK
 62
     0
 10
-0.970002
 20
1.793949
 30
0.0
 11
-0.970002
 21
-1.793949
 31
0.0
  0
LINE
  5
7F7
  8
0
  6
BYBLOCK
 62
     0
 10
-3.369953
 20
-2.299858
 30
0.0
 11
-0.970002
 21
-2.299858
 31
0.0
  0
ARC
  5
7F8
  8
0
  6
BYBLOCK
 62
     0
 10
-3.49495
 20
-1.884979
 30
0.0
 40
0.124997
 50
270.0
 51
0.0
  0
ARC
  5
7F9
  8
0
  6
BYBLOCK
 62
     0
 10
-3.49495
 20
-2.294969
 30
0.0
 40
0.124997
 50
0.0
 51
90.0
  0
ARC
  5
7FA
  8
0
  6
BYBLOCK
 62
     0
 10
-0.754988
 20
-1.621685
 30
0.0
 40
0.124997
 50
0.0
 51
75.0
  0
LINE
  5
7FB
  8
0
  6
BYBLOCK
 62
     0
 10
-0.629992
 20
-1.77
 30
0.0
 11
-0.875102
 21
-1.77
 31
0.0
  0
LINE
  5
7FC
  8
0
  6
BYBLOCK
 62
     0
 10
-0.629992
 20
-1.62
 30
0.0
 11
-0.970002
 21
-1.62
 31
0.0
  0
LINE
  5
7FD
  8
0
  6
BYBLOCK
 62
     0
 10
-0.629992
 20
-2.17
 30
0.0
 11
-0.875102
 21
-2.17
 31
0.0
  0
LINE
  5
7FE
  8
0
  6
BYBLOCK
 62
     0
 10
-0.784398
 20
-2.09606
 30
0.0
 11
-1.001162
 21
-1.879296
 31
0.0
  0
LINE
  5
7FF
  8
0
  6
BYBLOCK
 62
     0
 10
-0.749043
 20
-2.060704
 30
0.0
 11
-0.965806
 21
-1.84394
 31
0.0
  0
LINE
  5
800
  8
0
  6
BYBLOCK
 62
     0
 10
-0.629992
 20
-2.32
 30
0.0
 11
-0.970002
 21
-2.32
 31
0.0
  0
CIRCLE
  5
801
  8
0
  6
BYBLOCK
 62
     0
 10
-0.875102
 20
-1.97
 30
0.0
 40
0.1553
  0
ARC
  5
802
  8
0
  6
BYBLOCK
 62
     0
 10
-0.875102
 20
-1.97
 30
0.0
 40
0.2
 50
90.0
 51
270.0
  0
LINE
  5
803
  8
0
  6
BYBLOCK
 62
     0
 10
-0.629992
 20
-1.621685
 30
0.0
 11
-0.629992
 21
-2.318115
 31
0.0
  0
ARC
  5
804
  8
0
  6
BYBLOCK
 62
     0
 10
-0.754988
 20
-2.318115
 30
0.0
 40
0.124997
 50
285.0
 51
0.0
  0
LINE
  5
805
  8
0
  6
BYBLOCK
 62
     0
 10
-0.722637
 20
-1.500948
 30
0.0
 11
-0.970002
 21
-1.35724
 31
0.0
  0
LINE
  5
806
  8
0
  6
BYBLOCK
 62
     0
 10
-3.369953
 20
4.120026
 30
0.0
 11
-0.970002
 21
4.120026
 31
0.0
  0
LINE
  5
807
  8
0
  6
BYBLOCK
 62
     0
 10
-3.369953
 20
2.300058
 30
0.0
 11
-0.970002
 21
2.300058
 31
0.0
  0
ARC
  5
808
  8
0
  6
BYBLOCK
 62
     0
 10
-3.49495
 20
1.884979
 30
0.0
 40
0.124997
 50
0.0
 51
90.0
  0
ARC
  5
809
  8
0
  6
BYBLOCK
 62
     0
 10
-3.49495
 20
2.294969
 30
0.0
 40
0.124997
 50
270.0
 51
0.0
  0
CIRCLE
  5
80A
  8
0
  6
BYBLOCK
 62
     0
 10
-2.64
 20
3.744649
 30
0.0
 40
0.235
  0
LINE
  5
80B
  8
0
  6
BYBLOCK
 62
     0
 10
-3.369953
 20
4.41
 30
0.0
 11
-3.369953
 21
4.120026
 31
0.0
  0
LINE
  5
80C
  8
0
  6
BYBLOCK
 62
     0
 10
-3.199958
 20
4.41
 30
0.0
 11
-3.199958
 21
4.120026
 31
0.0
  0
CIRCLE
  5
80D
  8
0
  6
BYBLOCK
 62
     0
 10
-1.7
 20
3.744649
 30
0.0
 40
0.235
  0
LINE
  5
80E
  8
0
  6
BYBLOCK
 62
     0
 10
-0.749043
 20
1.879296
 30
0.0
 11
-0.965806
 21
2.09606
 31
0.0
  0
LINE
  5
80F
  8
0
  6
BYBLOCK
 62
     0
 10
-0.784398
 20
1.84394
 30
0.0
 11
-1.001162
 21
2.060704
 31
0.0
  0
LINE
  5
810
  8
0
  6
BYBLOCK
 62
     0
 10
-0.629992
 20
2.318315
 30
0.0
 11
-0.629992
 21
1.621885
 31
0.0
  0
CIRCLE
  5
811
  8
0
  6
BYBLOCK
 62
     0
 10
-0.875102
 20
1.97
 30
0.0
 40
0.1553
  0
ARC
  5
812
  8
0
  6
BYBLOCK
 62
     0
 10
-0.875102
 20
1.97
 30
0.0
 40
0.2
 50
90.0
 51
270.0
  0
LINE
  5
813
  8
0
  6
BYBLOCK
 62
     0
 10
-0.629992
 20
1.62
 30
0.0
 11
-0.970002
 21
1.62
 31
0.0
  0
LINE
  5
814
  8
0
  6
BYBLOCK
 62
     0
 10
-0.629992
 20
1.77
 30
0.0
 11
-0.875102
 21
1.77
 31
0.0
  0
LINE
  5
815
  8
0
  6
BYBLOCK
 62
     0
 10
-0.722637
 20
1.501148
 30
0.0
 11
-0.970002
 21
1.35744
 31
0.0
  0
ARC
  5
816
  8
0
  6
BYBLOCK
 62
     0
 10
-0.754988
 20
1.621885
 30
0.0
 40
0.124997
 50
285.0
 51
0.0
  0
LINE
  5
817
  8
0
  6
BYBLOCK
 62
     0
 10
-0.629992
 20
2.32
 30
0.0
 11
-0.970002
 21
2.32
 31
0.0
  0
LINE
  5
818
  8
0
  6
BYBLOCK
 62
     0
 10
-0.722637
 20
2.439052
 30
0.0
 11
-0.970002
 21
2.58276
 31
0.0
  0
LINE
  5
819
  8
0
  6
BYBLOCK
 62
     0
 10
-0.629992
 20
2.17
 30
0.0
 11
-0.875102
 21
2.17
 31
0.0
  0
ARC
  5
81A
  8
0
  6
BYBLOCK
 62
     0
 10
-0.754988
 20
2.318315
 30
0.0
 40
0.124997
 50
0.0
 51
75.0
  0
LINE
  5
81B
  8
0
  6
BYBLOCK
 62
     0
 10
-1.139998
 20
4.41
 30
0.0
 11
-1.139998
 21
4.120026
 31
0.0
  0
LINE
  5
81C
  8
0
  6
BYBLOCK
 62
     0
 10
-1.185
 20
4.41
 30
0.0
 11
-0.970002
 21
4.41
 31
0.0
  0
LINE
  5
81D
  8
0
  6
BYBLOCK
 62
     0
 10
-5.345
 20
5.95
 30
0.0
 11
-3.155
 21
5.95
 31
0.0
  0
LINE
  5
81E
  8
0
 10
-7.125
 20
6.043307
 30
0.0
 11
-5.155
 21
6.043307
 31
0.0
  0
LINE
  5
81F
  8
0
  6
HIDDEN
 62
     0
 10
-5.46047
 20
6.1
 30
0.0
 11
-6.81953
 21
6.1
 31
0.0
  0
CIRCLE
  5
820
  8
0
 10
-6.14
 20
5.452756
 30
0.0
 40
0.255906
  0
LINE
  5
821
  8
0
  6
HIDDEN
 62
     0
 10
-6.935
 20
5.95
 30
0.0
 11
-6.81953
 21
6.1
 31
0.0
  0
LINE
  5
822
  8
0
  6
HIDDEN
 62
     0
 10
-5.345
 20
5.95
 30
0.0
 11
-5.46047
 21
6.1
 31
0.0
  0
LINE
  5
823
  8
0
 10
-3.155
 20
6.043307
 30
0.0
 11
-1.185
 21
6.043307
 31
0.0
  0
CIRCLE
  5
824
  8
0
  6
HIDDEN
 62
     1
 10
-2.695
 20
5.45
 30
0.0
 40
0.215
  0
LINE
  5
825
  8
0
  6
BYBLOCK
 62
     1
 10
-2.972
 20
5.45
 30
0.0
 11
-2.418
 21
5.45
 31
0.0
  0
LINE
  5
826
  8
0
  6
BYBLOCK
 62
     1
 10
-2.695
 20
5.727
 30
0.0
 11
-2.695
 21
5.173
 31
0.0
  0
CIRCLE
  5
827
  8
0
 10
-2.17
 20
5.452756
 30
0.0
 40
0.255906
  0
LINE
  5
828
  8
0
  6
BYBLOCK
 62
     0
 10
-1.185
 20
5.95
 30
0.0
 11
-1.070002
 21
5.95
 31
0.0
  0
ARC
  5
829
  8
0
  6
BYBLOCK
 62
     0
 10
-1.070002
 20
5.85
 30
0.0
 40
0.1
 50
360.0
 51
90.0
  0
LINE
  5
82A
  8
0
  6
HIDDEN
 10
-9.125
 20
5.95
 30
0.0
 11
-11.095
 21
5.95
 31
0.0
  0
LINE
  5
82B
  8
0
  6
HIDDEN
 10
-3.155
 20
5.95
 30
0.0
 11
-1.185
 21
5.95
 31
0.0
  0
LINE
  5
82C
  8
0
  6
HIDDEN
 10
3.155
 20
5.95
 30
0.0
 11
1.185
 21
5.95
 31
0.0
  0
LINE
  5
82D
  8
0
  6
HIDDEN
 10
9.125
 20
5.95
 30
0.0
 11
11.095
 21
5.95
 31
0.0
  0
LINE
  5
838
  8
0
 10
-10.2
 20
5.452756
 30
0.0
 11
-10.02
 21
5.452756
 31
0.0
  0
LINE
  5
839
  8
0
 10
-10.11
 20
5.362756
 30
0.0
 11
-10.11
 21
5.542756
 31
0.0
  0
LINE
  5
83A
  8
0
 10
-6.23
 20
5.452756
 30
0.0
 11
-6.05
 21
5.452756
 31
0.0
  0
LINE
  5
83B
  8
0
 10
-6.14
 20
5.362756
 30
0.0
 11
-6.14
 21
5.542756
 31
0.0
  0
LINE
  5
83C
  8
0
 10
-2.26
 20
5.452756
 30
0.0
 11
-2.08
 21
5.452756
 31
0.0
  0
LINE
  5
83D
  8
0
 10
-2.17
 20
5.362756
 30
0.0
 11
-2.17
 21
5.542756
 31
0.0
  0
LINE
  5
83E
  8
0
 10
-2.26
 20
-5.452756
 30
0.0
 11
-2.08
 21
-5.452756
 31
0.0
  0
LINE
  5
83F
  8
0
 10
-2.17
 20
-5.542756
 30
0.0
 11
-2.17
 21
-5.362756
 31
0.0
  0
LINE
  5
840
  8
0
 10
-6.23
 20
-5.452756
 30
0.0
 11
-6.05
 21
-5.452756
 31
0.0
  0
LINE
  5
841
  8
0
 10
-6.14
 20
-5.542756
 30
0.0
 11
-6.14
 21
-5.362756
 31
0.0
  0
LINE
  5
842
  8
0
 10
-10.2
 20
-5.452756
 30
0.0
 11
-10.02
 21
-5.452756
 31
0.0
  0
LINE
  5
843
  8
0
 10
-10.11
 20
-5.542756
 30
0.0
 11
-10.11
 21
-5.362756
 31
0.0
  0
LINE
  5
844
  8
0
 10
2.08
 20
5.452756
 30
0.0
 11
2.26
 21
5.452756
 31
0.0
  0
LINE
  5
845
  8
0
 10
2.17
 20
5.362756
 30
0.0
 11
2.17
 21
5.542756
 31
0.0
  0
LINE
  5
846
  8
0
 10
6.05
 20
5.452756
 30
0.0
 11
6.23
 21
5.452756
 31
0.0
  0
LINE
  5
847
  8
0
 10
6.14
 20
5.362756
 30
0.0
 11
6.14
 21
5.542756
 31
0.0
  0
LINE
  5
848
  8
0
 10
10.02
 20
5.452756
 30
0.0
 11
10.2
 21
5.452756
 31
0.0
  0
LINE
  5
849
  8
0
 10
10.11
 20
5.362756
 30
0.0
 11
10.11
 21
5.542756
 31
0.0
  0
LINE
  5
84A
  8
0
 10
10.02
 20
-5.452756
 30
0.0
 11
10.2
 21
-5.452756
 31
0.0
  0
LINE
  5
84B
  8
0
 10
10.11
 20
-5.542756
 30
0.0
 11
10.11
 21
-5.362756
 31
0.0
  0
LINE
  5
84C
  8
0
 10
6.05
 20
-5.452756
 30
0.0
 11
6.23
 21
-5.452756
 31
0.0
  0
LINE
  5
84D
  8
0
 10
6.14
 20
-5.542756
 30
0.0
 11
6.14
 21
-5.362756
 31
0.0
  0
LINE
  5
84E
  8
0
 10
2.08
 20
-5.452756
 30
0.0
 11
2.26
 21
-5.452756
 31
0.0
  0
LINE
  5
84F
  8
0
 10
2.17
 20
-5.542756
 30
0.0
 11
2.17
 21
-5.362756
 31
0.0
  0
LINE
  5
8B3
  8
0
  6
BYBLOCK
 62
     0
 10
21.335013
 20
1.62
 30
0.0
 11
21.335013
 21
1.35744
 31
0.0
  0
LINE
  5
8B4
  8
0
  6
BYBLOCK
 62
     0
 10
28.704974
 20
5.95
 30
0.0
 11
28.704974
 21
0.85009
 31
0.0
  0
LINE
  5
8B5
  8
0
  6
BYBLOCK
 62
     0
 10
17.294998
 20
2.175061
 30
0.0
 11
17.294998
 21
-2.174861
 31
0.0
  0
LINE
  5
8B6
  8
0
  6
BYBLOCK
 62
     0
 10
21.755013
 20
4.41
 30
0.0
 11
21.755013
 21
-4.41
 31
0.0
  0
LINE
  5
8B7
  8
0
  6
BYBLOCK
 62
     0
 10
22.614998
 20
5.200012
 30
0.0
 11
22.614998
 21
-6.0
 31
0.0
  0
LINE
  5
8B8
  8
0
 10
28.774972
 20
5.95
 30
0.0
 11
28.774972
 21
-5.95
 31
0.0
  0
LINE
  5
8B9
  8
0
  6
BYBLOCK
 62
     0
 10
24.487431
 20
-5.76
 30
0.0
 11
22.614998
 21
-5.76
 31
0.0
  0
LINE
  5
8BA
  8
0
  6
BYBLOCK
 62
     0
 10
18.674978
 20
-3.994829
 30
0.0
 11
18.674978
 21
-2.424855
 31
0.0
  0
LINE
  5
8BB
  8
0
  6
BYBLOCK
 62
     0
 10
19.205061
 20
-4.119826
 30
0.0
 11
18.799975
 21
-4.119826
 31
0.0
  0
ARC
  5
8BC
  8
0
  6
BYBLOCK
 62
     0
 10
18.799975
 20
-3.994829
 30
0.0
 40
0.124997
 50
180.0
 51
270.0
  0
LINE
  5
8BD
  8
0
  6
BYBLOCK
 62
     0
 10
20.774972
 20
-6.043107
 30
0.0
 11
20.774972
 21
-4.679753
 31
0.0
  0
LINE
  5
8BE
  8
0
  6
BYBLOCK
 62
     0
 10
20.971822
 20
-6.043107
 30
0.0
 11
20.971822
 21
-4.679753
 31
0.0
  0
LINE
  5
8BF
  8
0
  6
BYBLOCK
 62
     0
 10
22.295003
 20
-6.0
 30
0.0
 11
22.295003
 21
-4.41
 31
0.0
  0
LINE
  5
8C0
  8
0
 10
20.774972
 20
-6.043107
 30
0.0
 11
20.971822
 21
-6.043107
 31
0.0
  0
LINE
  5
8C1
  8
0
  6
BYBLOCK
 62
     0
 10
22.614998
 20
-5.76
 30
0.0
 11
22.295003
 21
-5.76
 31
0.0
  0
LINE
  5
8C2
  8
0
  6
BYBLOCK
 62
     0
 10
22.614998
 20
-6.0
 30
0.0
 11
22.295003
 21
-6.0
 31
0.0
  0
LINE
  5
8C3
  8
0
  6
BYBLOCK
 62
     0
 10
22.295003
 20
-4.41
 30
0.0
 11
19.495235
 21
-4.41
 31
0.0
  0
ARC
  5
8C4
  8
0
  6
BYBLOCK
 62
     0
 10
21.274972
 20
-4.679753
 30
0.0
 40
0.30315
 50
117.064445
 51
180.0
  0
LINE
  5
8C5
  8
0
  6
BYBLOCK
 62
     0
 10
19.495235
 20
-4.41
 30
0.0
 11
19.205061
 21
-4.119826
 31
0.0
  0
ARC
  5
8C6
  8
0
  6
BYBLOCK
 62
     0
 10
21.274972
 20
-4.679753
 30
0.0
 40
0.5
 50
147.322707
 51
180.0
  0
LINE
  5
8C7
  8
0
  6
BYBLOCK
 62
     0
 10
21.335013
 20
-2.17
 30
0.0
 11
17.294998
 21
-2.17
 31
0.0
  0
LINE
  5
8C8
  8
0
  6
BYBLOCK
 62
     0
 10
21.335013
 20
-1.77
 30
0.0
 11
17.294998
 21
-1.77
 31
0.0
  0
LINE
  5
8C9
  8
0
  6
BYBLOCK
 62
     0
 10
18.549981
 20
-2.299858
 30
0.0
 11
17.419995
 21
-2.299858
 31
0.0
  0
ARC
  5
8CA
  8
0
  6
BYBLOCK
 62
     0
 10
17.419995
 20
-2.174861
 30
0.0
 40
0.124997
 50
180.0
 51
270.0
  0
ARC
  5
8CB
  8
0
  6
BYBLOCK
 62
     0
 10
18.549981
 20
-2.424855
 30
0.0
 40
0.124997
 50
360.0
 51
90.0
  0
LINE
  5
8CC
  8
0
  6
BYBLOCK
 62
     0
 10
22.614998
 20
-1.62
 30
0.0
 11
20.835013
 21
-1.62
 31
0.0
  0
LINE
  5
8CD
  8
0
  6
BYBLOCK
 62
     0
 10
22.614998
 20
-2.32
 30
0.0
 11
20.835013
 21
-2.32
 31
0.0
  0
LINE
  5
8CE
  8
0
  6
BYBLOCK
 62
     0
 10
20.835013
 20
-2.17
 30
0.0
 11
20.835013
 21
-2.32
 31
0.0
  0
LINE
  5
8CF
  8
0
  6
BYBLOCK
 62
     0
 10
21.135013
 20
-2.17
 30
0.0
 11
21.135013
 21
-2.32
 31
0.0
  0
LINE
  5
8D0
  8
0
  6
BYBLOCK
 62
     0
 10
21.135013
 20
-1.62
 30
0.0
 11
21.135013
 21
-1.77
 31
0.0
  0
LINE
  5
8D1
  8
0
  6
BYBLOCK
 62
     0
 10
20.835013
 20
-1.62
 30
0.0
 11
20.835013
 21
-1.77
 31
0.0
  0
LINE
  5
8D2
  8
0
  6
BYBLOCK
 62
     0
 10
21.335013
 20
-1.77
 30
0.0
 11
21.335013
 21
-2.17
 31
0.0
  0
LINE
  5
8D3
  8
0
  6
BYBLOCK
 62
     0
 10
21.335013
 20
-2.58256
 30
0.0
 11
22.614998
 21
-2.58256
 31
0.0
  0
LINE
  5
8D4
  8
0
  6
BYBLOCK
 62
     0
 10
21.335013
 20
-2.32
 30
0.0
 11
21.335013
 21
-2.58256
 31
0.0
  0
LINE
  5
8D5
  8
0
  6
BYBLOCK
 62
     0
 10
21.335013
 20
-1.35724
 30
0.0
 11
22.614998
 21
-1.35724
 31
0.0
  0
LINE
  5
8D6
  8
0
  6
BYBLOCK
 62
     0
 10
21.335013
 20
-1.35724
 30
0.0
 11
21.335013
 21
-1.62
 31
0.0
  0
LINE
  5
8D7
  8
0
  6
BYBLOCK
 62
     0
 10
21.335013
 20
1.35744
 30
0.0
 11
22.614998
 21
1.35744
 31
0.0
  0
LINE
  5
8D8
  8
0
  6
BYBLOCK
 62
     0
 10
28.704974
 20
-0.84989
 30
0.0
 11
28.704974
 21
-5.95
 31
0.0
  0
LINE
  5
8D9
  8
0
  6
BYBLOCK
 62
     0
 10
28.614974
 20
-5.57
 30
0.0
 11
25.564974
 21
-5.57
 31
0.0
  0
LINE
  5
8DA
  8
0
  6
BYBLOCK
 62
     0
 10
25.564974
 20
-5.57
 30
0.0
 11
24.487431
 21
-5.76
 31
0.0
  0
LINE
  5
8DB
  8
0
  6
BYBLOCK
 62
     0
 10
28.614974
 20
-5.57
 30
0.0
 11
28.614974
 21
-5.95
 31
0.0
  0
LINE
  5
8DC
  8
0
  6
BYBLOCK
 62
     0
 10
28.774972
 20
-5.95
 30
0.0
 11
28.614974
 21
-5.95
 31
0.0
  0
LINE
  5
8DD
  8
0
  6
BYBLOCK
 62
     0
 10
28.704974
 20
-4.480003
 30
0.0
 11
28.774972
 21
-4.480003
 31
0.0
  0
LINE
  5
8DE
  8
0
  6
BYBLOCK
 62
     0
 10
27.909998
 20
0.43
 30
0.0
 11
27.089998
 21
0.43
 31
0.0
  0
LINE
  5
8DF
  8
0
  6
BYBLOCK
 62
     0
 10
26.809998
 20
-0.43
 30
0.0
 11
27.909998
 21
-0.43
 31
0.0
  0
ARC
  5
8E0
  8
0
  6
BYBLOCK
 62
     0
 10
27.089998
 20
0.0
 30
0.0
 40
0.43
 50
90.0
 51
180.0
  0
ARC
  5
8E1
  8
0
  6
BYBLOCK
 62
     0
 10
26.809998
 20
-0.28
 30
0.0
 40
0.15
 50
180.0
 51
270.0
  0
LINE
  5
8E2
  8
0
  6
BYBLOCK
 62
     0
 10
26.659998
 20
0.0
 30
0.0
 11
26.659998
 21
-0.28
 31
0.0
  0
LINE
  5
8E3
  8
0
  6
BYBLOCK
 62
     0
 10
28.744972
 20
0.85009
 30
0.0
 11
28.744972
 21
-0.84989
 31
0.0
  0
ARC
  5
8E4
  8
0
  6
BYBLOCK
 62
     0
 10
27.909998
 20
0.0
 30
0.0
 40
0.43
 50
270.0
 51
90.0
  0
LINE
  5
8E5
  8
0
  6
BYBLOCK
 62
     0
 10
28.744972
 20
-0.84989
 30
0.0
 11
28.704974
 21
-0.84989
 31
0.0
  0
LINE
  5
8E6
  8
0
  6
BYBLOCK
 62
     0
 10
28.744972
 20
0.85009
 30
0.0
 11
28.704974
 21
0.85009
 31
0.0
  0
LINE
  5
8E7
  8
0
  6
BYBLOCK
 62
     0
 10
22.295003
 20
5.95
 30
0.0
 11
26.43303
 21
5.95
 31
0.0
  0
LINE
  5
8E8
  8
0
  6
BYBLOCK
 62
     0
 10
23.474028
 20
5.95
 30
0.0
 11
23.589498
 21
6.1
 31
0.0
  0
LINE
  5
8E9
  8
0
  6
BYBLOCK
 62
     0
 10
22.614998
 20
5.200012
 30
0.0
 11
28.704974
 21
5.200012
 31
0.0
  0
LINE
  5
8EA
  8
0
  6
BYBLOCK
 62
     0
 10
19.205061
 20
4.120026
 30
0.0
 11
18.799975
 21
4.120026
 31
0.0
  0
LINE
  5
8EB
  8
0
  6
BYBLOCK
 62
     0
 10
21.335013
 20
1.77
 30
0.0
 11
17.294998
 21
1.77
 31
0.0
  0
LINE
  5
8EC
  8
0
  6
BYBLOCK
 62
     0
 10
21.335013
 20
2.17
 30
0.0
 11
17.294998
 21
2.17
 31
0.0
  0
LINE
  5
8ED
  8
0
  6
BYBLOCK
 62
     0
 10
18.674978
 20
3.995029
 30
0.0
 11
18.674978
 21
2.425055
 31
0.0
  0
LINE
  5
8EE
  8
0
  6
BYBLOCK
 62
     0
 10
18.549981
 20
2.300058
 30
0.0
 11
17.419995
 21
2.300058
 31
0.0
  0
ARC
  5
8EF
  8
0
  6
BYBLOCK
 62
     0
 10
17.419995
 20
2.175061
 30
0.0
 40
0.124997
 50
90.0
 51
180.0
  0
ARC
  5
8F0
  8
0
  6
BYBLOCK
 62
     0
 10
18.549981
 20
2.425055
 30
0.0
 40
0.124997
 50
270.0
 51
0.0
  0
ARC
  5
8F1
  8
0
  6
BYBLOCK
 62
     0
 10
18.799975
 20
3.995029
 30
0.0
 40
0.124997
 50
90.0
 51
180.0
  0
LINE
  5
8F2
  8
0
  6
BYBLOCK
 62
     0
 10
22.614998
 20
2.32
 30
0.0
 11
20.835013
 21
2.32
 31
0.0
  0
LINE
  5
8F3
  8
0
  6
BYBLOCK
 62
     0
 10
22.614998
 20
1.62
 30
0.0
 11
20.835013
 21
1.62
 31
0.0
  0
LINE
  5
8F4
  8
0
  6
BYBLOCK
 62
     0
 10
20.835013
 20
1.77
 30
0.0
 11
20.835013
 21
1.62
 31
0.0
  0
LINE
  5
8F5
  8
0
  6
BYBLOCK
 62
     0
 10
21.135013
 20
1.77
 30
0.0
 11
21.135013
 21
1.62
 31
0.0
  0
LINE
  5
8F6
  8
0
  6
BYBLOCK
 62
     0
 10
20.835013
 20
2.32
 30
0.0
 11
20.835013
 21
2.17
 31
0.0
  0
LINE
  5
8F7
  8
0
  6
BYBLOCK
 62
     0
 10
21.135013
 20
2.32
 30
0.0
 11
21.135013
 21
2.17
 31
0.0
  0
LINE
  5
8F8
  8
0
  6
BYBLOCK
 62
     0
 10
21.335013
 20
2.58276
 30
0.0
 11
22.614998
 21
2.58276
 31
0.0
  0
LINE
  5
8F9
  8
0
  6
BYBLOCK
 62
     0
 10
21.335013
 20
2.17
 30
0.0
 11
21.335013
 21
1.77
 31
0.0
  0
LINE
  5
8FA
  8
0
  6
BYBLOCK
 62
     0
 10
21.335013
 20
2.58276
 30
0.0
 11
21.335013
 21
2.32
 31
0.0
  0
LINE
  5
8FB
  8
0
  6
BYBLOCK
 62
     0
 10
22.295003
 20
4.41
 30
0.0
 11
19.495035
 21
4.41
 31
0.0
  0
LINE
  5
8FC
  8
0
  6
BYBLOCK
 62
     0
 10
20.971822
 20
6.043307
 30
0.0
 11
20.971822
 21
4.679953
 31
0.0
  0
LINE
  5
8FD
  8
0
  6
BYBLOCK
 62
     0
 10
20.774972
 20
6.043307
 30
0.0
 11
20.774972
 21
4.679953
 31
0.0
  0
LINE
  5
8FE
  8
0
  6
BYBLOCK
 62
     0
 10
19.495035
 20
4.41
 30
0.0
 11
19.205061
 21
4.120026
 31
0.0
  0
ARC
  5
8FF
  8
0
  6
BYBLOCK
 62
     0
 10
21.274972
 20
4.679953
 30
0.0
 40
0.30315
 50
180.0
 51
242.935555
  0
ARC
  5
900
  8
0
  6
BYBLOCK
 62
     0
 10
21.274972
 20
4.679953
 30
0.0
 40
0.5
 50
180.0
 51
212.677293
  0
LINE
  5
901
  8
0
 10
20.774972
 20
6.043307
 30
0.0
 11
20.971822
 21
6.043307
 31
0.0
  0
LINE
  5
902
  8
0
  6
BYBLOCK
 62
     0
 10
22.295003
 20
5.95
 30
0.0
 11
22.295003
 21
4.41
 31
0.0
  0
LINE
  5
903
  8
0
  6
BYBLOCK
 62
     0
 10
22.730201
 20
5.200012
 30
0.0
 11
22.730201
 21
5.95
 31
0.0
  0
LINE
  5
904
  8
0
  6
BYBLOCK
 62
     0
 10
27.716542
 20
5.655007
 30
0.0
 11
27.932537
 21
5.655007
 31
0.0
  0
LINE
  5
905
  8
0
  6
BYBLOCK
 62
     0
 10
27.932537
 20
5.655007
 30
0.0
 11
26.728023
 21
5.655007
 31
0.0
  0
LINE
  5
906
  8
0
  6
BYBLOCK
 62
     0
 10
23.589498
 20
6.1
 30
0.0
 11
24.339498
 21
6.1
 31
0.0
  0
LINE
  5
907
  8
0
  6
BYBLOCK
 62
     0
 10
24.454968
 20
5.95
 30
0.0
 11
24.339498
 21
6.1
 31
0.0
  0
LINE
  5
908
  8
0
  6
BYBLOCK
 62
     0
 10
26.43303
 20
5.95
 30
0.0
 11
26.728023
 21
5.655007
 31
0.0
  0
LINE
  5
909
  8
0
  6
BYBLOCK
 62
     0
 10
28.704974
 20
4.40022
 30
0.0
 11
28.774972
 21
4.40022
 31
0.0
  0
LINE
  5
90A
  8
0
  6
BYBLOCK
 62
     0
 10
28.604974
 20
5.95
 30
0.0
 11
28.604974
 21
5.455012
 31
0.0
  0
LINE
  5
90B
  8
0
  6
BYBLOCK
 62
     0
 10
27.932537
 20
5.655007
 30
0.0
 11
28.132532
 21
5.455012
 31
0.0
  0
LINE
  5
90C
  8
0
  6
BYBLOCK
 62
     0
 10
28.132532
 20
5.455012
 30
0.0
 11
28.704974
 21
5.455012
 31
0.0
  0
LINE
  5
90D
  8
0
  6
BYBLOCK
 62
     0
 10
28.604974
 20
5.95
 30
0.0
 11
28.774972
 21
5.95
 31
0.0
  0
ENDSEC
  0
EOF
