  0
SECTION
  2
HEADER
  9
$ACADVER
  1
AC1009
  9
$INSBASE
 10
5.150875
 20
0.0
 30
0.0
  9
$EXTMIN
 10
-4.330732
 20
-5.08586
 30
0.0
  9
$EXTMAX
 10
28.498894
 20
5.080169
 30
0.0
  9
$LIMMIN
 10
0.0
 20
0.0
  9
$LIMMAX
 10
12.0
 20
9.0
  9
$ORTHOMODE
 70
     1
  9
$REGENMODE
 70
     1
  9
$FILLMODE
 70
     1
  9
$QTEXTMODE
 70
     0
  9
$MIRRTEXT
 70
     1
  9
$DRAGMODE
 70
     2
  9
$LTSCALE
 40
1.0
  9
$OSMODE
 70
     0
  9
$ATTMODE
 70
     1
  9
$TEXTSIZE
 40
0.2
  9
$TRACEWID
 40
0.05
  9
$TEXTSTYLE
  7
STANDARD
  9
$CLAYER
  8
0
  9
$CELTYPE
  6
BYLAYER
  9
$CECOLOR
 62
   256
  9
$DIMSCALE
 40
1.0
  9
$DIMASZ
 40
0.18
  9
$DIMEXO
 40
0.0625
  9
$DIMDLI
 40
0.38
  9
$DIMRND
 40
0.0
  9
$DIMDLE
 40
0.0
  9
$DIMEXE
 40
0.18
  9
$DIMTP
 40
0.0
  9
$DIMTM
 40
0.0
  9
$DIMTXT
 40
0.18
  9
$DIMCEN
 40
0.09
  9
$DIMTSZ
 40
0.0
  9
$DIMTOL
 70
     0
  9
$DIMLIM
 70
     0
  9
$DIMTIH
 70
     1
  9
$DIMTOH
 70
     1
  9
$DIMSE1
 70
     0
  9
$DIMSE2
 70
     0
  9
$DIMTAD
 70
     0
  9
$DIMZIN
 70
     0
  9
$DIMBLK
  1

  9
$DIMASO
 70
     1
  9
$DIMSHO
 70
     1
  9
$DIMPOST
  1

  9
$DIMAPOST
  1

  9
$DIMALT
 70
     0
  9
$DIMALTD
 70
     2
  9
$DIMALTF
 40
25.4
  9
$DIMLFAC
 40
1.0
  9
$DIMTOFL
 70
     0
  9
$DIMTVP
 40
0.0
  9
$DIMTIX
 70
     0
  9
$DIMSOXD
 70
     0
  9
$DIMSAH
 70
     0
  9
$DIMBLK1
  1

  9
$DIMBLK2
  1

  9
$DIMSTYLE
  2
STANDARD
  9
$DIMCLRD
 70
     0
  9
$DIMCLRE
 70
     0
  9
$DIMCLRT
 70
     0
  9
$DIMTFAC
 40
1.0
  9
$DIMGAP
 40
0.09
  9
$LUNITS
 70
     2
  9
$LUPREC
 70
     4
  9
$SKETCHINC
 40
0.1
  9
$FILLETRAD
 40
0.0
  9
$AUNITS
 70
     0
  9
$AUPREC
 70
     0
  9
$MENU
  1
acad
  9
$ELEVATION
 40
0.0
  9
$PELEVATION
 40
0.0
  9
$THICKNESS
 40
0.0
  9
$LIMCHECK
 70
     0
  9
$BLIPMODE
 70
     1
  9
$CHAMFERA
 40
0.0
  9
$CHAMFERB
 40
0.0
  9
$SKPOLY
 70
     0
  9
$TDCREATE
 40
2451127.564125
  9
$TDUPDATE
 40
2451129.675414
  9
$TDINDWG
 40
0.218074
  9
$TDUSRTIMER
 40
0.218074
  9
$USRTIMER
 70
     1
  9
$ANGBASE
 50
0.0
  9
$ANGDIR
 70
     0
  9
$PDMODE
 70
     0
  9
$PDSIZE
 40
0.0
  9
$PLINEWID
 40
0.0
  9
$COORDS
 70
     1
  9
$SPLFRAME
 70
     0
  9
$SPLINETYPE
 70
     6
  9
$SPLINESEGS
 70
     8
  9
$ATTDIA
 70
     0
  9
$ATTREQ
 70
     1
  9
$HANDLING
 70
     1
  9
$HANDSEED
  5
31E
  9
$SURFTAB1
 70
     6
  9
$SURFTAB2
 70
     6
  9
$SURFTYPE
 70
     6
  9
$SURFU
 70
     6
  9
$SURFV
 70
     6
  9
$UCSNAME
  2

  9
$UCSORG
 10
0.0
 20
0.0
 30
0.0
  9
$UCSXDIR
 10
1.0
 20
0.0
 30
0.0
  9
$UCSYDIR
 10
0.0
 20
1.0
 30
0.0
  9
$PUCSNAME
  2

  9
$PUCSORG
 10
0.0
 20
0.0
 30
0.0
  9
$PUCSXDIR
 10
1.0
 20
0.0
 30
0.0
  9
$PUCSYDIR
 10
0.0
 20
1.0
 30
0.0
  9
$USERI1
 70
     0
  9
$USERI2
 70
     0
  9
$USERI3
 70
     0
  9
$USERI4
 70
     0
  9
$USERI5
 70
     0
  9
$USERR1
 40
0.0
  9
$USERR2
 40
0.0
  9
$USERR3
 40
0.0
  9
$USERR4
 40
0.0
  9
$USERR5
 40
0.0
  9
$WORLDVIEW
 70
     1
  9
$SHADEDGE
 70
     3
  9
$SHADEDIF
 70
    70
  9
$TILEMODE
 70
     1
  9
$MAXACTVP
 70
    16
  9
$PLIMCHECK
 70
     0
  9
$PEXTMIN
 10
1.000000E+020
 20
1.000000E+020
 30
1.000000E+020
  9
$PEXTMAX
 10
-1.000000E+020
 20
-1.000000E+020
 30
-1.000000E+020
  9
$PLIMMIN
 10
0.0
 20
0.0
  9
$PLIMMAX
 10
12.0
 20
9.0
  9
$UNITMODE
 70
     0
  9
$VISRETAIN
 70
     0
  9
$PLINEGEN
 70
     0
  9
$PSLTSCALE
 70
     1
  0
ENDSEC
  0
SECTION
  2
TABLES
  0
TABLE
  2
VPORT
 70
     2
  0
VPORT
  2
*ACTIVE
 70
     0
 10
0.0
 20
0.0
 11
1.0
 21
1.0
 12
12.084081
 22
-0.002845
 13
0.0
 23
0.0
 14
1.0
 24
1.0
 15
0.0
 25
0.0
 16
0.0
 26
0.0
 36
1.0
 17
0.0
 27
0.0
 37
0.0
 40
21.694342
 41
1.603066
 42
50.0
 43
0.0
 44
0.0
 50
0.0
 51
0.0
 71
     0
 72
 20000
 73
     1
 74
     0
 75
     0
 76
     0
 77
     0
 78
     0
  0
ENDTAB
  0
TABLE
  2
LTYPE
 70
     2
  0
LTYPE
  2
CONTINUOUS
 70
     0
  3
Solid line
 72
    65
 73
     0
 40
0.0
  0
LTYPE
  2
HIDDEN
 70
     0
  3
__ __ __ __ __ __ __ __ __ __ __ __ __ __ __ __
 72
    65
 73
     2
 40
0.375
 49
0.25
 49
-0.125
  0
ENDTAB
  0
TABLE
  2
LAYER
 70
     1
  0
LAYER
  2
0
 70
     0
 62
     7
  6
CONTINUOUS
  0
ENDTAB
  0
TABLE
  2
STYLE
 70
     1
  0
STYLE
  2
STANDARD
 70
     0
 40
0.0
 41
1.0
 50
0.0
 71
     0
 42
0.2
  3
txt
  4

  0
ENDTAB
  0
TABLE
  2
VIEW
 70
     0
  0
ENDTAB
  0
TABLE
  2
UCS
 70
     0
  0
ENDTAB
  0
TABLE
  2
APPID
 70
     1
  0
APPID
  2
ACAD
 70
     0
  0
ENDTAB
  0
TABLE
  2
DIMSTYLE
 70
     1
  0
DIMSTYLE
  2
STANDARD
 70
     0
  3

  4

  5

  6

  7

 40
1.0
 41
0.18
 42
0.0625
 43
0.38
 44
0.18
 45
0.0
 46
0.0
 47
0.0
 48
0.0
140
0.18
141
0.09
142
0.0
143
25.4
144
1.0
145
0.0
146
1.0
147
0.09
 71
     0
 72
     0
 73
     1
 74
     1
 75
     0
 76
     0
 77
     0
 78
     0
170
     0
171
     2
172
     0
173
     0
174
     0
175
     0
176
     0
177
     0
178
     0
  0
ENDTAB
  0
ENDSEC
  0
SECTION
  2
BLOCKS
  0
BLOCK
  8
0
  2
$MODEL_SPACE
 70
     0
 10
0.0
 20
0.0
 30
0.0
  3
$MODEL_SPACE
  1

  0
ENDBLK
  5
6
  8
0
  0
BLOCK
 67
     1
  8
0
  2
$PAPER_SPACE
 70
     0
 10
0.0
 20
0.0
 30
0.0
  3
$PAPER_SPACE
  1

  0
ENDBLK
  5
9
 67
     1
  8
0
  0
ENDSEC
  0
SECTION
  2
ENTITIES
  0
LINE
  5
1D
  8
0
  6
BYBLOCK
 62
     0
 10
3.929902
 20
-3.88
 30
0.0
 11
6.371849
 21
-3.88
 31
0.0
  0
LINE
  5
1E
  8
0
  6
BYBLOCK
 62
     0
 10
3.929902
 20
3.88
 30
0.0
 11
6.371849
 21
3.88
 31
0.0
  0
LINE
  5
1F
  8
0
  6
BYBLOCK
 62
     0
 10
4.509939
 20
3.48
 30
0.0
 11
5.789939
 21
3.48
 31
0.0
  0
LINE
  5
20
  8
0
  6
BYBLOCK
 62
     0
 10
4.509939
 20
2.38
 30
0.0
 11
5.789939
 21
2.38
 31
0.0
  0
LINE
  5
21
  8
0
  6
BYBLOCK
 62
     0
 10
4.509939
 20
1.98
 30
0.0
 11
5.789939
 21
1.98
 31
0.0
  0
LINE
  5
22
  8
0
  6
BYBLOCK
 62
     0
 10
4.509939
 20
-2.38
 30
0.0
 11
5.789939
 21
-2.38
 31
0.0
  0
LINE
  5
23
  8
0
  6
BYBLOCK
 62
     0
 10
4.509939
 20
-1.98
 30
0.0
 11
5.789939
 21
-1.98
 31
0.0
  0
LINE
  5
24
  8
0
  6
BYBLOCK
 62
     0
 10
4.509939
 20
-3.48
 30
0.0
 11
5.789939
 21
-3.48
 31
0.0
  0
LINE
  5
25
  8
0
  6
BYBLOCK
 62
     0
 10
2.315
 20
5.08
 30
0.0
 11
3.905
 21
5.08
 31
0.0
  0
LINE
  5
26
  8
0
  6
BYBLOCK
 62
     0
 10
2.134947
 20
2.960026
 30
0.0
 11
4.084898
 21
2.960026
 31
0.0
  0
LINE
  5
27
  8
0
  6
BYBLOCK
 62
     0
 10
2.134947
 20
1.680058
 30
0.0
 11
4.084898
 21
1.680058
 31
0.0
  0
CIRCLE
  5
28
  8
0
  6
BYBLOCK
 62
     0
 10
3.58
 20
2.584649
 30
0.0
 40
0.19
  0
LINE
  5
29
  8
0
  6
BYBLOCK
 62
     0
 10
3.834898
 20
0.680058
 30
0.0
 11
2.434898
 21
0.680058
 31
0.0
  0
LINE
  5
2A
  8
0
  6
BYBLOCK
 62
     0
 10
3.834898
 20
-0.819942
 30
0.0
 11
2.434898
 21
-0.819942
 31
0.0
  0
CIRCLE
  5
2B
  8
0
  6
BYBLOCK
 62
     0
 10
3.58
 20
-2.584649
 30
0.0
 40
0.19
  0
LINE
  5
2C
  8
0
  6
BYBLOCK
 62
     0
 10
2.134947
 20
-1.679858
 30
0.0
 11
4.084898
 21
-1.679858
 31
0.0
  0
LINE
  5
2D
  8
0
  6
BYBLOCK
 62
     0
 10
2.134947
 20
-2.959826
 30
0.0
 11
4.084898
 21
-2.959826
 31
0.0
  0
LINE
  5
2E
  8
0
  6
HIDDEN
 62
     0
 10
2.341941
 20
-4.6
 30
0.0
 11
3.905
 21
-4.6
 31
0.0
  0
LINE
  5
30
  8
0
  6
BYBLOCK
 62
     0
 10
2.315
 20
-5.08
 30
0.0
 11
3.905
 21
-5.08
 31
0.0
  0
LINE
  5
31
  8
0
  6
BYBLOCK
 62
     0
 10
-0.75
 20
1.25
 30
0.0
 11
-0.75
 21
-1.25
 31
0.0
  0
LINE
  5
32
  8
0
  6
BYBLOCK
 62
     0
 10
0.75
 20
-1.25
 30
0.0
 11
0.75
 21
1.25
 31
0.0
  0
LINE
  5
33
  8
0
  6
BYBLOCK
 62
     0
 10
2.434898
 20
0.680058
 30
0.0
 11
2.434898
 21
-0.819942
 31
0.0
  0
LINE
  5
34
  8
0
  6
BYBLOCK
 62
     0
 10
2.134947
 20
2.960026
 30
0.0
 11
2.134947
 21
-2.959826
 31
0.0
  0
LINE
  5
35
  8
0
  6
BYBLOCK
 62
     0
 10
-2.254898
 20
0.680058
 30
0.0
 11
-2.254898
 21
-0.949942
 31
0.0
  0
LINE
  5
36
  8
0
  6
BYBLOCK
 62
     0
 10
-4.293348
 20
-0.436501
 30
0.0
 11
-4.084898
 21
-0.79988
 31
0.0
  0
LINE
  5
37
  8
0
  6
BYBLOCK
 62
     0
 10
-3.884898
 20
0.680058
 30
0.0
 11
-3.884898
 21
-0.949942
 31
0.0
  0
LINE
  5
38
  8
0
  6
BYBLOCK
 62
     0
 10
-4.084898
 20
-0.2
 30
0.0
 11
-4.084898
 21
-2.959826
 31
0.0
  0
LINE
  5
39
  8
0
  6
BYBLOCK
 62
     0
 10
-0.974976
 20
2.960026
 30
0.0
 11
-0.974976
 21
-2.959826
 31
0.0
  0
LINE
  5
3A
  8
0
  6
BYBLOCK
 62
     0
 10
-2.134947
 20
2.960026
 30
0.0
 11
-2.134947
 21
-2.959826
 31
0.0
  0
LINE
  5
3B
  8
0
  6
BYBLOCK
 62
     0
 10
0.974976
 20
2.960026
 30
0.0
 11
0.974976
 21
-2.959826
 31
0.0
  0
LINE
  5
3C
  8
0
  6
BYBLOCK
 62
     0
 10
-1.730099
 20
-2.853581
 30
0.0
 11
-1.730099
 21
-3.566029
 31
0.0
  0
LINE
  5
3D
  8
0
  6
BYBLOCK
 62
     0
 10
-1.390122
 20
-2.853581
 30
0.0
 11
-1.390122
 21
-3.566029
 31
0.0
  0
LINE
  5
3E
  8
0
  6
BYBLOCK
 62
     0
 10
-1.390122
 20
-3.566029
 30
0.0
 11
-1.730099
 21
-3.566029
 31
0.0
  0
LINE
  5
3F
  8
0
  6
BYBLOCK
 62
     0
 10
-1.390122
 20
-2.853581
 30
0.0
 11
-1.730099
 21
-2.853581
 31
0.0
  0
LINE
  5
40
  8
0
  6
BYBLOCK
 62
     0
 10
-3.884898
 20
-0.949942
 30
0.0
 11
-2.254898
 21
-0.949942
 31
0.0
  0
LINE
  5
41
  8
0
  6
BYBLOCK
 62
     0
 10
-4.084898
 20
-1.679858
 30
0.0
 11
-2.134947
 21
-1.679858
 31
0.0
  0
LINE
  5
42
  8
0
  6
BYBLOCK
 62
     0
 10
-4.084898
 20
-2.959826
 30
0.0
 11
-2.134947
 21
-2.959826
 31
0.0
  0
CIRCLE
  5
43
  8
0
 10
-3.11
 20
-4.525
 30
0.0
 40
0.246063
  0
LINE
  5
44
  8
0
  6
HIDDEN
 62
     0
 10
-3.929902
 20
-4.6
 30
0.0
 11
-2.342
 21
-4.6
 31
0.0
  0
LINE
  5
45
  8
0
  6
BYBLOCK
 62
     0
 10
-3.905
 20
-5.08
 30
0.0
 11
-2.315
 21
-5.08
 31
0.0
  0
LINE
  5
46
  8
0
  6
BYBLOCK
 62
     0
 10
-3.929902
 20
-3.25
 30
0.0
 11
-3.929902
 21
-4.6
 31
0.0
  0
LINE
  5
47
  8
0
  6
BYBLOCK
 62
     0
 10
-3.905
 20
-2.959826
 30
0.0
 11
-3.905
 21
-5.08
 31
0.0
  0
CIRCLE
  5
48
  8
0
  6
BYBLOCK
 62
     0
 10
-3.58
 20
-2.584649
 30
0.0
 40
0.19
  0
LINE
  5
49
  8
0
  6
BYBLOCK
 62
     0
 10
-3.929902
 20
-3.25
 30
0.0
 11
-3.929902
 21
-3.585
 31
0.0
  0
LINE
  5
4A
  8
0
  6
BYBLOCK
 62
     0
 10
-4.084898
 20
-3.25
 30
0.0
 11
-3.897403
 21
-3.25
 31
0.0
  0
LINE
  5
4B
  8
0
  6
BYBLOCK
 62
     0
 10
-3.914902
 20
-2.959826
 30
0.0
 11
-3.914902
 21
-3.25
 31
0.0
  0
LINE
  5
4C
  8
0
  6
BYBLOCK
 62
     0
 10
-4.084898
 20
-2.959826
 30
0.0
 11
-4.084898
 21
-3.25
 31
0.0
  0
CIRCLE
  5
4D
  8
0
 62
     1
 10
2.167105
 20
-4.331969
 30
0.0
 40
0.177165
  0
CIRCLE
  5
4E
  8
0
 62
     1
 10
-2.163604
 20
-4.331969
 30
0.0
 40
0.177165
  0
CIRCLE
  5
4F
  8
0
 10
3.11
 20
-4.525
 30
0.0
 40
0.246063
  0
LINE
  5
50
  8
0
  6
BYBLOCK
 62
     0
 10
2.315
 20
-2.959826
 30
0.0
 11
2.315
 21
-5.08
 31
0.0
  0
CIRCLE
  5
51
  8
0
  6
BYBLOCK
 62
     0
 10
-1.318016
 20
-4.246579
 30
0.0
 40
0.139997
  0
CIRCLE
  5
52
  8
0
 10
0.0
 20
-4.525
 30
0.0
 40
0.246063
  0
CIRCLE
  5
53
  8
0
  6
BYBLOCK
 62
     0
 10
-1.791824
 20
-4.246579
 30
0.0
 40
0.139997
  0
LINE
  5
54
  8
0
  6
BYBLOCK
 62
     0
 10
-0.795
 20
-2.959826
 30
0.0
 11
-0.795
 21
-5.08
 31
0.0
  0
LINE
  5
55
  8
0
  6
BYBLOCK
 62
     0
 10
-2.024908
 20
-1.89982
 30
0.0
 11
-2.024908
 21
-4.549862
 31
0.0
  0
LINE
  5
56
  8
0
  6
BYBLOCK
 62
     0
 10
-1.084932
 20
-1.89982
 30
0.0
 11
-1.084932
 21
-4.549862
 31
0.0
  0
LINE
  5
57
  8
0
  6
BYBLOCK
 62
     0
 10
-2.315
 20
-2.959826
 30
0.0
 11
-2.315
 21
-5.08
 31
0.0
  0
LINE
  5
58
  8
0
  6
BYBLOCK
 62
     0
 10
0.795
 20
-2.959826
 30
0.0
 11
0.795
 21
-5.08
 31
0.0
  0
LINE
  5
59
  8
0
  6
BYBLOCK
 62
     0
 10
-0.795
 20
-5.08
 30
0.0
 11
0.795
 21
-5.08
 31
0.0
  0
LINE
  5
5A
  8
0
  6
HIDDEN
 62
     0
 10
-1.988
 20
-4.6
 30
0.0
 11
1.98795
 21
-4.6
 31
0.0
  0
LINE
  5
5B
  8
0
  6
BYBLOCK
 62
     0
 10
-1.922277
 20
-5.06
 30
0.0
 11
-1.187646
 21
-5.06
 31
0.0
  0
LINE
  5
5C
  8
0
  6
BYBLOCK
 62
     0
 10
-1.084932
 20
-4.549862
 30
0.0
 11
-2.024908
 21
-4.549862
 31
0.0
  0
LINE
  5
5D
  8
0
  6
BYBLOCK
 62
     0
 10
-1.922277
 20
-5.06
 30
0.0
 11
-2.322981
 21
-4.6
 31
0.0
  0
LINE
  5
5E
  8
0
  6
BYBLOCK
 62
     0
 10
-1.187646
 20
-5.06
 30
0.0
 11
-0.786941
 21
-4.6
 31
0.0
  0
LINE
  5
5F
  8
0
  6
BYBLOCK
 62
     0
 10
2.039439
 20
-4.9255
 30
0.0
 11
2.315
 21
-4.9255
 31
0.0
  0
LINE
  5
60
  8
0
  6
BYBLOCK
 62
     0
 10
1.922277
 20
-5.06
 30
0.0
 11
2.322981
 21
-4.6
 31
0.0
  0
LINE
  5
61
  8
0
  6
BYBLOCK
 62
     0
 10
1.187646
 20
-5.06
 30
0.0
 11
1.922277
 21
-5.06
 31
0.0
  0
LINE
  5
62
  8
0
  6
BYBLOCK
 62
     0
 10
1.187646
 20
-5.06
 30
0.0
 11
0.786941
 21
-4.6
 31
0.0
  0
LINE
  5
63
  8
0
  6
BYBLOCK
 62
     0
 10
0.795
 20
-4.9255
 30
0.0
 11
1.070483
 21
-4.9255
 31
0.0
  0
LINE
  5
64
  8
0
  6
BYBLOCK
 62
     0
 10
-0.75
 20
-1.25
 30
0.0
 11
0.75
 21
-1.25
 31
0.0
  0
CIRCLE
  5
65
  8
0
  6
BYBLOCK
 62
     0
 10
0.47
 20
-2.584649
 30
0.0
 40
0.19
  0
LINE
  5
66
  8
0
  6
BYBLOCK
 62
     0
 10
-0.974976
 20
-2.959826
 30
0.0
 11
0.974976
 21
-2.959826
 31
0.0
  0
LINE
  5
67
  8
0
  6
BYBLOCK
 62
     0
 10
-0.974976
 20
-1.679858
 30
0.0
 11
0.974976
 21
-1.679858
 31
0.0
  0
CIRCLE
  5
68
  8
0
  6
BYBLOCK
 62
     0
 10
-0.47
 20
-2.584649
 30
0.0
 40
0.19
  0
CIRCLE
  5
69
  8
0
  6
BYBLOCK
 62
     0
 10
-2.64
 20
-2.584649
 30
0.0
 40
0.19
  0
CIRCLE
  5
6A
  8
0
  6
BYBLOCK
 62
     0
 10
-1.318016
 20
-2.554858
 30
0.0
 40
0.139997
  0
CIRCLE
  5
6B
  8
0
  6
BYBLOCK
 62
     0
 10
-1.318016
 20
-3.894824
 30
0.0
 40
0.139997
  0
CIRCLE
  5
6C
  8
0
  6
BYBLOCK
 62
     0
 10
-1.791824
 20
-3.894824
 30
0.0
 40
0.139997
  0
LINE
  5
6D
  8
0
  6
BYBLOCK
 62
     0
 10
-1.457975
 20
-4.249815
 30
0.0
 11
-1.651865
 21
-4.249815
 31
0.0
  0
LINE
  5
6E
  8
0
  6
BYBLOCK
 62
     0
 10
-2.322442
 20
-3.25
 30
0.0
 11
-2.134947
 21
-3.25
 31
0.0
  0
LINE
  5
6F
  8
0
  6
BYBLOCK
 62
     0
 10
-2.304942
 20
-2.959826
 30
0.0
 11
-2.304942
 21
-3.25
 31
0.0
  0
LINE
  5
70
  8
0
  6
BYBLOCK
 62
     0
 10
-2.134947
 20
-2.959826
 30
0.0
 11
-2.134947
 21
-3.25
 31
0.0
  0
CIRCLE
  5
71
  8
0
  6
BYBLOCK
 62
     0
 10
-1.791824
 20
-2.554858
 30
0.0
 40
0.139997
  0
LINE
  5
72
  8
0
  6
BYBLOCK
 62
     0
 10
-1.084932
 20
-4.249815
 30
0.0
 11
-1.178057
 21
-4.249815
 31
0.0
  0
LINE
  5
73
  8
0
  6
BYBLOCK
 62
     0
 10
-0.974976
 20
-3.25
 30
0.0
 11
-0.795
 21
-3.25
 31
0.0
  0
LINE
  5
74
  8
0
  6
BYBLOCK
 62
     0
 10
-0.974976
 20
-2.959826
 30
0.0
 11
-0.974976
 21
-3.25
 31
0.0
  0
LINE
  5
75
  8
0
  6
BYBLOCK
 62
     0
 10
-0.80498
 20
-2.959826
 30
0.0
 11
-0.80498
 21
-3.25
 31
0.0
  0
CIRCLE
  5
76
  8
0
  6
BYBLOCK
 62
     0
 10
-1.318016
 20
-2.203102
 30
0.0
 40
0.139997
  0
LINE
  5
77
  8
0
  6
BYBLOCK
 62
     0
 10
-1.084932
 20
-1.89982
 30
0.0
 11
-2.024908
 21
-1.89982
 31
0.0
  0
LINE
  5
78
  8
0
  6
BYBLOCK
 62
     0
 10
-1.099973
 20
-1.122372
 30
0.0
 11
-2.00995
 21
-1.122372
 31
0.0
  0
LINE
  5
79
  8
0
  6
BYBLOCK
 62
     0
 10
-1.099973
 20
-0.962376
 30
0.0
 11
-2.00995
 21
-0.962376
 31
0.0
  0
CIRCLE
  5
7A
  8
0
  6
BYBLOCK
 62
     0
 10
-1.791824
 20
-2.203102
 30
0.0
 40
0.139997
  0
LINE
  5
7B
  8
0
  6
BYBLOCK
 62
     0
 10
-1.931783
 20
-2.199866
 30
0.0
 11
-2.024908
 21
-2.199866
 31
0.0
  0
LINE
  5
7C
  8
0
  6
BYBLOCK
 62
     0
 10
-1.457975
 20
-2.199866
 30
0.0
 11
-1.651865
 21
-2.199866
 31
0.0
  0
ARC
  5
7D
  8
0
  6
BYBLOCK
 62
     0
 10
-2.00995
 20
-0.837379
 30
0.0
 40
0.124997
 50
180.0
 51
270.0
  0
ARC
  5
7E
  8
0
  6
BYBLOCK
 62
     0
 10
-2.00995
 20
-1.247369
 30
0.0
 40
0.124997
 50
90.0
 51
180.0
  0
LINE
  5
7F
  8
0
  6
BYBLOCK
 62
     0
 10
-1.084932
 20
-2.199866
 30
0.0
 11
-1.178057
 21
-2.199866
 31
0.0
  0
ARC
  5
80
  8
0
  6
BYBLOCK
 62
     0
 10
-1.099973
 20
-0.837379
 30
0.0
 40
0.124997
 50
270.0
 51
0.0
  0
ARC
  5
81
  8
0
  6
BYBLOCK
 62
     0
 10
-1.099973
 20
-1.247369
 30
0.0
 40
0.124997
 50
0.0
 51
90.0
  0
CIRCLE
  5
82
  8
0
  6
BYBLOCK
 62
     0
 10
2.64
 20
-2.584649
 30
0.0
 40
0.19
  0
LINE
  5
83
  8
0
  6
BYBLOCK
 62
     0
 10
0.795
 20
-3.25
 30
0.0
 11
0.974976
 21
-3.25
 31
0.0
  0
LINE
  5
84
  8
0
  6
BYBLOCK
 62
     0
 10
0.80498
 20
-2.959826
 30
0.0
 11
0.80498
 21
-3.25
 31
0.0
  0
LINE
  5
85
  8
0
  6
BYBLOCK
 62
     0
 10
0.974976
 20
-2.959826
 30
0.0
 11
0.974976
 21
-3.25
 31
0.0
  0
LINE
  5
86
  8
0
  6
BYBLOCK
 62
     0
 10
2.134947
 20
-3.25
 30
0.0
 11
2.322442
 21
-3.25
 31
0.0
  0
LINE
  5
87
  8
0
  6
BYBLOCK
 62
     0
 10
2.304942
 20
-2.959826
 30
0.0
 11
2.304942
 21
-3.25
 31
0.0
  0
LINE
  5
88
  8
0
  6
BYBLOCK
 62
     0
 10
2.134947
 20
-2.959826
 30
0.0
 11
2.134947
 21
-3.25
 31
0.0
  0
ARC
  5
89
  8
0
  6
BYBLOCK
 62
     0
 10
2.00995
 20
-0.837379
 30
0.0
 40
0.124997
 50
270.0
 51
0.0
  0
ARC
  5
8A
  8
0
  6
BYBLOCK
 62
     0
 10
2.00995
 20
-1.247369
 30
0.0
 40
0.124997
 50
0.0
 51
90.0
  0
LINE
  5
8B
  8
0
  6
BYBLOCK
 62
     0
 10
2.00995
 20
-0.962376
 30
0.0
 11
1.099972
 21
-0.962376
 31
0.0
  0
LINE
  5
8C
  8
0
  6
BYBLOCK
 62
     0
 10
2.00995
 20
-1.122372
 30
0.0
 11
1.099973
 21
-1.122372
 31
0.0
  0
ARC
  5
8D
  8
0
  6
BYBLOCK
 62
     0
 10
1.099972
 20
-0.837379
 30
0.0
 40
0.124997
 50
180.0
 51
270.0
  0
ARC
  5
8E
  8
0
  6
BYBLOCK
 62
     0
 10
1.099973
 20
-1.247369
 30
0.0
 40
0.124997
 50
90.0
 51
180.0
  0
LINE
  5
8F
  8
0
  6
BYBLOCK
 62
     0
 10
-3.905
 20
5.08
 30
0.0
 11
-2.315
 21
5.08
 31
0.0
  0
LINE
  5
90
  8
0
  6
BYBLOCK
 62
     0
 10
-4.084898
 20
2.960026
 30
0.0
 11
-2.134947
 21
2.960026
 31
0.0
  0
LINE
  5
91
  8
0
  6
BYBLOCK
 62
     0
 10
-4.084898
 20
1.680058
 30
0.0
 11
-2.134947
 21
1.680058
 31
0.0
  0
LINE
  5
92
  8
0
  6
BYBLOCK
 62
     0
 10
-3.884898
 20
0.680058
 30
0.0
 11
-2.254898
 21
0.680058
 31
0.0
  0
LINE
  5
93
  8
0
  6
BYBLOCK
 62
     0
 10
-3.929902
 20
4.6
 30
0.0
 11
-3.929902
 21
3.25
 31
0.0
  0
LINE
  5
94
  8
0
  6
BYBLOCK
 62
     0
 10
-3.905
 20
2.959826
 30
0.0
 11
-3.905
 21
5.08
 31
0.0
  0
LINE
  5
95
  8
0
  6
BYBLOCK
 62
     0
 10
-4.084898
 20
2.960026
 30
0.0
 11
-4.084898
 21
0.2
 31
0.0
  0
LINE
  5
96
  8
0
  6
BYBLOCK
 62
     0
 10
-4.293348
 20
0.436701
 30
0.0
 11
-4.084898
 21
0.80008
 31
0.0
  0
ARC
  5
97
  8
0
  6
BYBLOCK
 62
     0
 10
-4.084898
 20
0.0
 30
0.0
 40
0.2
 50
270.0
 51
90.0
  0
LINE
  5
98
  8
0
  6
BYBLOCK
 62
     0
 10
-4.210957
 20
-0.090704
 30
0.0
 11
-3.994194
 21
0.12606
 31
0.0
  0
LINE
  5
99
  8
0
  6
BYBLOCK
 62
     0
 10
-4.175602
 20
-0.12606
 30
0.0
 11
-3.958838
 21
0.090704
 31
0.0
  0
CIRCLE
  5
9A
  8
0
  6
BYBLOCK
 62
     0
 10
-4.084898
 20
0.0
 30
0.0
 40
0.1553
  0
LINE
  5
9B
  8
0
  6
BYBLOCK
 62
     0
 10
-4.329958
 20
0.348315
 30
0.0
 11
-4.329958
 21
-0.348115
 31
0.0
  0
LINE
  5
9C
  8
0
  6
BYBLOCK
 62
     0
 10
-4.329958
 20
-0.2
 30
0.0
 11
-4.084898
 21
-0.2
 31
0.0
  0
LINE
  5
9D
  8
0
  6
BYBLOCK
 62
     0
 10
-4.329958
 20
-0.35
 30
0.0
 11
-4.084898
 21
-0.35
 31
0.0
  0
ARC
  5
9E
  8
0
  6
BYBLOCK
 62
     0
 10
-4.204962
 20
-0.348115
 30
0.0
 40
0.124997
 50
180.0
 51
225.0
  0
LINE
  5
9F
  8
0
  6
BYBLOCK
 62
     0
 10
-4.329958
 20
0.2
 30
0.0
 11
-4.084898
 21
0.2
 31
0.0
  0
LINE
  5
A0
  8
0
  6
BYBLOCK
 62
     0
 10
-4.329958
 20
0.35
 30
0.0
 11
-4.084898
 21
0.35
 31
0.0
  0
ARC
  5
A1
  8
0
  6
BYBLOCK
 62
     0
 10
-4.204962
 20
0.348315
 30
0.0
 40
0.124997
 50
135.0
 51
180.0
  0
LINE
  5
A2
  8
0
  6
BYBLOCK
 62
     0
 10
-4.084898
 20
3.25
 30
0.0
 11
-3.897403
 21
3.25
 31
0.0
  0
LINE
  5
A3
  8
0
  6
BYBLOCK
 62
     0
 10
-4.084898
 20
3.25
 30
0.0
 11
-4.084898
 21
2.960026
 31
0.0
  0
LINE
  5
A4
  8
0
  6
BYBLOCK
 62
     0
 10
-3.914902
 20
3.25
 30
0.0
 11
-3.914902
 21
2.960026
 31
0.0
  0
CIRCLE
  5
A5
  8
0
  6
BYBLOCK
 62
     0
 10
-3.58
 20
2.584649
 30
0.0
 40
0.19
  0
LINE
  5
A6
  8
0
  6
BYBLOCK
 62
     0
 10
-3.929902
 20
4.6
 30
0.0
 11
-3.905
 21
4.6
 31
0.0
  0
LINE
  5
A7
  8
0
  6
BYBLOCK
 62
     0
 10
2.315
 20
2.959826
 30
0.0
 11
2.315
 21
5.08
 31
0.0
  0
LINE
  5
A8
  8
0
  6
BYBLOCK
 62
     0
 10
-0.795
 20
2.959826
 30
0.0
 11
-0.795
 21
5.08
 31
0.0
  0
LINE
  5
A9
  8
0
  6
BYBLOCK
 62
     0
 10
-2.315
 20
2.959826
 30
0.0
 11
-2.315
 21
5.08
 31
0.0
  0
LINE
  5
AA
  8
0
  6
BYBLOCK
 62
     0
 10
0.795
 20
2.959826
 30
0.0
 11
0.795
 21
5.08
 31
0.0
  0
LINE
  5
AB
  8
0
  6
BYBLOCK
 62
     0
 10
0.75
 20
1.25
 30
0.0
 11
-0.75
 21
1.25
 31
0.0
  0
LINE
  5
AC
  8
0
  6
BYBLOCK
 62
     0
 10
-0.974976
 20
2.960026
 30
0.0
 11
0.974976
 21
2.960026
 31
0.0
  0
LINE
  5
AD
  8
0
  6
BYBLOCK
 62
     0
 10
-0.974976
 20
1.680058
 30
0.0
 11
0.974976
 21
1.680058
 31
0.0
  0
CIRCLE
  5
AE
  8
0
  6
BYBLOCK
 62
     0
 10
0.47
 20
2.584649
 30
0.0
 40
0.19
  0
LINE
  5
AF
  8
0
  6
BYBLOCK
 62
     0
 10
-1.099973
 20
0.962576
 30
0.0
 11
-2.00995
 21
0.962576
 31
0.0
  0
LINE
  5
B0
  8
0
  6
BYBLOCK
 62
     0
 10
-1.099973
 20
1.122572
 30
0.0
 11
-2.00995
 21
1.122572
 31
0.0
  0
ARC
  5
B1
  8
0
  6
BYBLOCK
 62
     0
 10
-2.00995
 20
0.837579
 30
0.0
 40
0.124997
 50
90.0
 51
180.0
  0
ARC
  5
B2
  8
0
  6
BYBLOCK
 62
     0
 10
-2.00995
 20
1.247569
 30
0.0
 40
0.124997
 50
180.0
 51
270.0
  0
ARC
  5
B3
  8
0
  6
BYBLOCK
 62
     0
 10
-1.099973
 20
0.837579
 30
0.0
 40
0.124997
 50
0.0
 51
90.0
  0
ARC
  5
B4
  8
0
  6
BYBLOCK
 62
     0
 10
-1.099973
 20
1.247569
 30
0.0
 40
0.124997
 50
270.0
 51
0.0
  0
CIRCLE
  5
B5
  8
0
  6
BYBLOCK
 62
     0
 10
-1.288711
 20
2.75
 30
0.0
 40
0.151199
  0
LINE
  5
B6
  8
0
  6
BYBLOCK
 62
     0
 10
-2.322442
 20
3.25
 30
0.0
 11
-0.80498
 21
3.25
 31
0.0
  0
CIRCLE
  5
B7
  8
0
  6
BYBLOCK
 62
     0
 10
-2.64
 20
2.584649
 30
0.0
 40
0.19
  0
LINE
  5
B8
  8
0
  6
BYBLOCK
 62
     0
 10
-2.304942
 20
3.25
 30
0.0
 11
-2.304942
 21
2.960026
 31
0.0
  0
CIRCLE
  5
B9
  8
0
  6
BYBLOCK
 62
     0
 10
-1.838711
 20
2.75
 30
0.0
 40
0.151199
  0
LINE
  5
BA
  8
0
  6
BYBLOCK
 62
     0
 10
-2.134947
 20
3.25
 30
0.0
 11
-2.134947
 21
2.960026
 31
0.0
  0
CIRCLE
  5
BB
  8
0
  6
BYBLOCK
 62
     0
 10
-0.47
 20
2.584649
 30
0.0
 40
0.19
  0
LINE
  5
BC
  8
0
  6
BYBLOCK
 62
     0
 10
-0.974976
 20
3.25
 30
0.0
 11
-0.974976
 21
2.960026
 31
0.0
  0
LINE
  5
BD
  8
0
  6
BYBLOCK
 62
     0
 10
-0.80498
 20
3.25
 30
0.0
 11
-0.80498
 21
2.960026
 31
0.0
  0
ARC
  5
BE
  8
0
  6
BYBLOCK
 62
     0
 10
2.00995
 20
0.837579
 30
0.0
 40
0.124997
 50
0.0
 51
90.0
  0
ARC
  5
BF
  8
0
  6
BYBLOCK
 62
     0
 10
2.00995
 20
1.247569
 30
0.0
 40
0.124997
 50
270.0
 51
0.0
  0
LINE
  5
C0
  8
0
  6
BYBLOCK
 62
     0
 10
2.00995
 20
0.962576
 30
0.0
 11
1.099973
 21
0.962576
 31
0.0
  0
LINE
  5
C1
  8
0
  6
BYBLOCK
 62
     0
 10
2.00995
 20
1.122572
 30
0.0
 11
1.099972
 21
1.122572
 31
0.0
  0
ARC
  5
C2
  8
0
  6
BYBLOCK
 62
     0
 10
1.099973
 20
0.837579
 30
0.0
 40
0.124997
 50
90.0
 51
180.0
  0
ARC
  5
C3
  8
0
  6
BYBLOCK
 62
     0
 10
1.099972
 20
1.247569
 30
0.0
 40
0.124997
 50
180.0
 51
270.0
  0
LINE
  5
C4
  8
0
  6
BYBLOCK
 62
     0
 10
0.80498
 20
3.25
 30
0.0
 11
2.304942
 21
3.25
 31
0.0
  0
LINE
  5
C5
  8
0
  6
BYBLOCK
 62
     0
 10
0.80498
 20
3.25
 30
0.0
 11
0.80498
 21
2.960026
 31
0.0
  0
LINE
  5
C6
  8
0
  6
BYBLOCK
 62
     0
 10
0.974976
 20
3.25
 30
0.0
 11
0.974976
 21
2.960026
 31
0.0
  0
CIRCLE
  5
C7
  8
0
  6
BYBLOCK
 62
     0
 10
2.64
 20
2.584649
 30
0.0
 40
0.19
  0
LINE
  5
C8
  8
0
  6
BYBLOCK
 62
     0
 10
2.304942
 20
3.25
 30
0.0
 11
2.304942
 21
2.960026
 31
0.0
  0
LINE
  5
C9
  8
0
  6
BYBLOCK
 62
     0
 10
2.134947
 20
3.25
 30
0.0
 11
2.134947
 21
2.960026
 31
0.0
  0
LINE
  5
CA
  8
0
  6
BYBLOCK
 62
     0
 10
-0.795
 20
5.08
 30
0.0
 11
0.795
 21
5.08
 31
0.0
  0
LINE
  5
CB
  8
0
  6
HIDDEN
 62
     0
 10
0.67953
 20
4.8
 30
0.0
 11
-0.67953
 21
4.8
 31
0.0
  0
LINE
  5
CC
  8
0
  6
BYBLOCK
 62
     0
 10
-2.315
 20
4.6
 30
0.0
 11
-0.795
 21
4.6
 31
0.0
  0
CIRCLE
  5
CD
  8
0
 62
     1
 10
-2.163604
 20
4.329449
 30
0.0
 40
0.177165
  0
LINE
  5
CE
  8
0
  6
HIDDEN
 62
     0
 10
-0.795
 20
4.6
 30
0.0
 11
-0.67953
 21
4.8
 31
0.0
  0
CIRCLE
  5
CF
  8
0
 62
     1
 10
2.167105
 20
4.329449
 30
0.0
 40
0.177165
  0
LINE
  5
D0
  8
0
  6
BYBLOCK
 62
     0
 10
0.795
 20
4.6
 30
0.0
 11
2.315
 21
4.6
 31
0.0
  0
LINE
  5
D1
  8
0
  6
HIDDEN
 62
     0
 10
0.795
 20
4.6
 30
0.0
 11
0.67953
 21
4.8
 31
0.0
  0
LINE
  5
D2
  8
0
  6
BYBLOCK
 62
     0
 10
14.134898
 20
0.680058
 30
0.0
 11
14.134898
 21
-0.819942
 31
0.0
  0
LINE
  5
D3
  8
0
  6
BYBLOCK
 62
     0
 10
12.734898
 20
0.680058
 30
0.0
 11
12.734898
 21
-0.819942
 31
0.0
  0
LINE
  5
D4
  8
0
  6
BYBLOCK
 62
     0
 10
8.045102
 20
0.680058
 30
0.0
 11
8.045102
 21
-0.949942
 31
0.0
  0
LINE
  5
D5
  8
0
  6
BYBLOCK
 62
     0
 10
6.415102
 20
0.680058
 30
0.0
 11
6.415102
 21
-0.949942
 31
0.0
  0
LINE
  5
D6
  8
0
  6
BYBLOCK
 62
     0
 10
4.293348
 20
-0.436501
 30
0.0
 11
4.084898
 21
-0.79988
 31
0.0
  0
LINE
  5
D7
  8
0
  6
BYBLOCK
 62
     0
 10
3.834898
 20
0.680058
 30
0.0
 11
3.834898
 21
-0.819942
 31
0.0
  0
LINE
  5
D8
  8
0
  6
BYBLOCK
 62
     0
 10
4.084898
 20
-0.2
 30
0.0
 11
4.084898
 21
-2.959826
 31
0.0
  0
LINE
  5
D9
  8
0
  6
BYBLOCK
 62
     0
 10
5.889939
 20
3.88
 30
0.0
 11
5.889939
 21
-3.88
 31
0.0
  0
LINE
  5
DA
  8
0
  6
BYBLOCK
 62
     0
 10
4.409939
 20
3.88
 30
0.0
 11
4.409939
 21
-3.88
 31
0.0
  0
LINE
  5
DB
  8
0
  6
BYBLOCK
 62
     0
 10
4.509939
 20
3.88
 30
0.0
 11
4.509939
 21
-3.88
 31
0.0
  0
LINE
  5
DC
  8
0
  6
BYBLOCK
 62
     0
 10
5.789939
 20
3.88
 30
0.0
 11
5.789939
 21
-3.88
 31
0.0
  0
LINE
  5
DD
  8
0
  6
BYBLOCK
 62
     0
 10
3.929902
 20
-3.25
 30
0.0
 11
3.929902
 21
-4.6
 31
0.0
  0
LINE
  5
DE
  8
0
  6
BYBLOCK
 62
     0
 10
3.905
 20
-2.959826
 30
0.0
 11
3.905
 21
-5.08
 31
0.0
  0
LINE
  5
DF
  8
0
  6
BYBLOCK
 62
     0
 10
3.905
 20
-4.6
 30
0.0
 11
3.929902
 21
-4.6
 31
0.0
  0
LINE
  5
E0
  8
0
  6
BYBLOCK
 62
     0
 10
6.415102
 20
-0.949942
 30
0.0
 11
8.045102
 21
-0.949942
 31
0.0
  0
LINE
  5
E1
  8
0
  6
BYBLOCK
 62
     0
 10
3.929902
 20
-3.48
 30
0.0
 11
4.409939
 21
-3.48
 31
0.0
  0
LINE
  5
E2
  8
0
  6
BYBLOCK
 62
     0
 10
3.929902
 20
-3.25
 30
0.0
 11
3.929902
 21
-3.585
 31
0.0
  0
LINE
  5
E3
  8
0
  6
BYBLOCK
 62
     0
 10
3.897403
 20
-3.25
 30
0.0
 11
4.084898
 21
-3.25
 31
0.0
  0
LINE
  5
E4
  8
0
  6
BYBLOCK
 62
     0
 10
4.084898
 20
-2.959826
 30
0.0
 11
4.084898
 21
-3.25
 31
0.0
  0
LINE
  5
E5
  8
0
  6
BYBLOCK
 62
     0
 10
3.914902
 20
-2.959826
 30
0.0
 11
3.914902
 21
-3.25
 31
0.0
  0
LINE
  5
E6
  8
0
  6
BYBLOCK
 62
     0
 10
8.911628
 20
-2.853581
 30
0.0
 11
8.571652
 21
-2.853581
 31
0.0
  0
LINE
  5
E7
  8
0
  6
BYBLOCK
 62
     0
 10
8.911628
 20
-3.566029
 30
0.0
 11
8.571652
 21
-3.566029
 31
0.0
  0
LINE
  5
E8
  8
0
  6
BYBLOCK
 62
     0
 10
8.571652
 20
-2.853581
 30
0.0
 11
8.571652
 21
-3.566029
 31
0.0
  0
LINE
  5
E9
  8
0
  6
BYBLOCK
 62
     0
 10
8.911628
 20
-2.853581
 30
0.0
 11
8.911628
 21
-3.566029
 31
0.0
  0
LINE
  5
EA
  8
0
  6
BYBLOCK
 62
     0
 10
14.134898
 20
-0.819942
 30
0.0
 11
12.734898
 21
-0.819942
 31
0.0
  0
LINE
  5
EB
  8
0
  6
BYBLOCK
 62
     0
 10
3.905
 20
2.959826
 30
0.0
 11
3.905
 21
5.08
 31
0.0
  0
LINE
  5
EC
  8
0
  6
BYBLOCK
 62
     0
 10
3.929902
 20
4.6
 30
0.0
 11
3.929902
 21
3.25
 31
0.0
  0
LINE
  5
ED
  8
0
  6
BYBLOCK
 62
     0
 10
6.415102
 20
0.680058
 30
0.0
 11
8.045102
 21
0.680058
 31
0.0
  0
LINE
  5
EE
  8
0
  6
BYBLOCK
 62
     0
 10
4.084898
 20
3.25
 30
0.0
 11
4.084898
 21
0.2
 31
0.0
  0
LINE
  5
EF
  8
0
  6
BYBLOCK
 62
     0
 10
4.293348
 20
0.436701
 30
0.0
 11
4.084898
 21
0.80008
 31
0.0
  0
LINE
  5
F0
  8
0
  6
BYBLOCK
 62
     0
 10
4.175602
 20
-0.12606
 30
0.0
 11
3.958838
 21
0.090704
 31
0.0
  0
ARC
  5
F1
  8
0
  6
BYBLOCK
 62
     0
 10
4.084898
 20
0.0
 30
0.0
 40
0.2
 50
90.0
 51
270.0
  0
CIRCLE
  5
F2
  8
0
  6
BYBLOCK
 62
     0
 10
4.084898
 20
0.0
 30
0.0
 40
0.1553
  0
LINE
  5
F3
  8
0
  6
BYBLOCK
 62
     0
 10
4.210957
 20
-0.090704
 30
0.0
 11
3.994194
 21
0.12606
 31
0.0
  0
LINE
  5
F4
  8
0
  6
BYBLOCK
 62
     0
 10
4.329958
 20
0.348315
 30
0.0
 11
4.329958
 21
-0.348115
 31
0.0
  0
LINE
  5
F5
  8
0
  6
BYBLOCK
 62
     0
 10
4.329958
 20
-0.2
 30
0.0
 11
4.084898
 21
-0.2
 31
0.0
  0
LINE
  5
F6
  8
0
  6
BYBLOCK
 62
     0
 10
4.329958
 20
-0.35
 30
0.0
 11
4.084898
 21
-0.35
 31
0.0
  0
ARC
  5
F7
  8
0
  6
BYBLOCK
 62
     0
 10
4.204962
 20
-0.348115
 30
0.0
 40
0.124997
 50
315.0
 51
0.0
  0
LINE
  5
F8
  8
0
  6
BYBLOCK
 62
     0
 10
4.329958
 20
0.2
 30
0.0
 11
4.084898
 21
0.2
 31
0.0
  0
LINE
  5
F9
  8
0
  6
BYBLOCK
 62
     0
 10
4.329958
 20
0.35
 30
0.0
 11
4.084898
 21
0.35
 31
0.0
  0
ARC
  5
FA
  8
0
  6
BYBLOCK
 62
     0
 10
4.204962
 20
0.348315
 30
0.0
 40
0.124997
 50
0.0
 51
45.0
  0
LINE
  5
FB
  8
0
  6
BYBLOCK
 62
     0
 10
3.929902
 20
3.25
 30
0.0
 11
4.084898
 21
3.25
 31
0.0
  0
LINE
  5
FC
  8
0
  6
BYBLOCK
 62
     0
 10
3.914902
 20
3.25
 30
0.0
 11
3.914902
 21
2.960026
 31
0.0
  0
LINE
  5
FD
  8
0
  6
BYBLOCK
 62
     0
 10
3.929902
 20
3.48
 30
0.0
 11
4.409939
 21
3.48
 31
0.0
  0
LINE
  5
FE
  8
0
  6
BYBLOCK
 62
     0
 10
3.905
 20
4.6
 30
0.0
 11
3.929902
 21
4.6
 31
0.0
  0
LINE
  5
FF
  8
0
  6
BYBLOCK
 62
     0
 10
14.134898
 20
0.680058
 30
0.0
 11
12.734898
 21
0.680058
 31
0.0
  0
CIRCLE
  5
100
  8
0
 10
-3.10825
 20
4.525
 30
0.0
 40
0.246063
  0
CIRCLE
  5
101
  8
0
 10
0.00175
 20
4.525
 30
0.0
 40
0.246063
  0
CIRCLE
  5
102
  8
0
 10
3.11175
 20
4.525
 30
0.0
 40
0.246063
  0
LINE
  5
103
  8
0
  6
BYBLOCK
 62
     0
 10
11.05175
 20
-1.25
 30
0.0
 11
11.05175
 21
1.25
 31
0.0
  0
LINE
  5
104
  8
0
  6
BYBLOCK
 62
     0
 10
9.55175
 20
1.25
 30
0.0
 11
9.55175
 21
-1.25
 31
0.0
  0
LINE
  5
105
  8
0
  6
BYBLOCK
 62
     0
 10
14.595098
 20
-0.436501
 30
0.0
 11
14.386648
 21
-0.79988
 31
0.0
  0
LINE
  5
106
  8
0
  6
BYBLOCK
 62
     0
 10
14.386648
 20
-0.2
 30
0.0
 11
14.386648
 21
-2.959826
 31
0.0
  0
LINE
  5
107
  8
0
  6
BYBLOCK
 62
     0
 10
11.276726
 20
2.960026
 30
0.0
 11
11.276726
 21
-2.959826
 31
0.0
  0
LINE
  5
108
  8
0
  6
BYBLOCK
 62
     0
 10
12.436697
 20
2.960026
 30
0.0
 11
12.436697
 21
-2.959826
 31
0.0
  0
LINE
  5
109
  8
0
  6
BYBLOCK
 62
     0
 10
9.326775
 20
2.960026
 30
0.0
 11
9.326775
 21
-2.959826
 31
0.0
  0
LINE
  5
10A
  8
0
  6
BYBLOCK
 62
     0
 10
6.008403
 20
-0.436501
 30
0.0
 11
6.216853
 21
-0.79988
 31
0.0
  0
LINE
  5
10B
  8
0
  6
BYBLOCK
 62
     0
 10
6.216853
 20
-0.2
 30
0.0
 11
6.216853
 21
-2.959826
 31
0.0
  0
LINE
  5
10C
  8
0
  6
BYBLOCK
 62
     0
 10
8.166804
 20
2.960026
 30
0.0
 11
8.166804
 21
-2.959826
 31
0.0
  0
LINE
  5
10D
  8
0
  6
BYBLOCK
 62
     0
 10
9.55175
 20
-1.25
 30
0.0
 11
11.05175
 21
-1.25
 31
0.0
  0
LINE
  5
10E
  8
0
  6
BYBLOCK
 62
     0
 10
9.326775
 20
-2.959826
 30
0.0
 11
11.276726
 21
-2.959826
 31
0.0
  0
LINE
  5
10F
  8
0
  6
BYBLOCK
 62
     0
 10
9.326775
 20
-1.679858
 30
0.0
 11
11.276726
 21
-1.679858
 31
0.0
  0
CIRCLE
  5
110
  8
0
 10
10.30175
 20
-4.525
 30
0.0
 40
0.246063
  0
LINE
  5
111
  8
0
  6
BYBLOCK
 62
     0
 10
9.50675
 20
-5.08
 30
0.0
 11
11.09675
 21
-5.08
 31
0.0
  0
LINE
  5
112
  8
0
  6
HIDDEN
 62
     0
 10
8.31375
 20
-4.6
 30
0.0
 11
12.289701
 21
-4.6
 31
0.0
  0
CIRCLE
  5
113
  8
0
 62
     1
 10
8.138146
 20
-4.331969
 30
0.0
 40
0.177165
  0
CIRCLE
  5
114
  8
0
  6
BYBLOCK
 62
     0
 10
8.983734
 20
-4.246579
 30
0.0
 40
0.139997
  0
CIRCLE
  5
115
  8
0
 10
7.19175
 20
-4.525
 30
0.0
 40
0.246063
  0
LINE
  5
116
  8
0
  6
BYBLOCK
 62
     0
 10
6.371849
 20
-3.25
 30
0.0
 11
6.371849
 21
-4.6
 31
0.0
  0
CIRCLE
  5
117
  8
0
  6
BYBLOCK
 62
     0
 10
8.509927
 20
-4.246579
 30
0.0
 40
0.139997
  0
LINE
  5
118
  8
0
  6
BYBLOCK
 62
     0
 10
7.98675
 20
-2.959826
 30
0.0
 11
7.98675
 21
-5.08
 31
0.0
  0
LINE
  5
119
  8
0
  6
BYBLOCK
 62
     0
 10
6.39675
 20
-2.959826
 30
0.0
 11
6.39675
 21
-5.08
 31
0.0
  0
LINE
  5
11A
  8
0
  6
BYBLOCK
 62
     0
 10
9.216819
 20
-1.89982
 30
0.0
 11
9.216819
 21
-4.549862
 31
0.0
  0
LINE
  5
11B
  8
0
  6
BYBLOCK
 62
     0
 10
8.276842
 20
-1.89982
 30
0.0
 11
8.276842
 21
-4.549862
 31
0.0
  0
LINE
  5
11C
  8
0
  6
BYBLOCK
 62
     0
 10
9.50675
 20
-2.959826
 30
0.0
 11
9.50675
 21
-5.08
 31
0.0
  0
LINE
  5
11D
  8
0
  6
HIDDEN
 62
     0
 10
6.371849
 20
-4.6
 30
0.0
 11
7.95975
 21
-4.6
 31
0.0
  0
LINE
  5
11E
  8
0
  6
BYBLOCK
 62
     0
 10
6.39675
 20
-5.08
 30
0.0
 11
7.98675
 21
-5.08
 31
0.0
  0
LINE
  5
11F
  8
0
  6
BYBLOCK
 62
     0
 10
8.379474
 20
-5.06
 30
0.0
 11
9.114105
 21
-5.06
 31
0.0
  0
LINE
  5
120
  8
0
  6
BYBLOCK
 62
     0
 10
9.216819
 20
-4.549862
 30
0.0
 11
8.276842
 21
-4.549862
 31
0.0
  0
LINE
  5
121
  8
0
  6
BYBLOCK
 62
     0
 10
8.379474
 20
-5.06
 30
0.0
 11
7.978769
 21
-4.6
 31
0.0
  0
LINE
  5
122
  8
0
  6
BYBLOCK
 62
     0
 10
9.114105
 20
-5.06
 30
0.0
 11
9.514809
 21
-4.6
 31
0.0
  0
LINE
  5
123
  8
0
  6
BYBLOCK
 62
     0
 10
6.216853
 20
-2.959826
 30
0.0
 11
8.166804
 21
-2.959826
 31
0.0
  0
LINE
  5
124
  8
0
  6
BYBLOCK
 62
     0
 10
6.216853
 20
-1.679858
 30
0.0
 11
8.166804
 21
-1.679858
 31
0.0
  0
CIRCLE
  5
125
  8
0
  6
BYBLOCK
 62
     0
 10
6.72175
 20
-2.584649
 30
0.0
 40
0.19
  0
LINE
  5
126
  8
0
  6
BYBLOCK
 62
     0
 10
5.889939
 20
-3.48
 30
0.0
 11
6.371849
 21
-3.48
 31
0.0
  0
LINE
  5
127
  8
0
  6
BYBLOCK
 62
     0
 10
6.216853
 20
-3.25
 30
0.0
 11
6.404348
 21
-3.25
 31
0.0
  0
LINE
  5
128
  8
0
  6
BYBLOCK
 62
     0
 10
6.216853
 20
-2.959826
 30
0.0
 11
6.216853
 21
-3.25
 31
0.0
  0
LINE
  5
129
  8
0
  6
BYBLOCK
 62
     0
 10
6.386848
 20
-2.959826
 30
0.0
 11
6.386848
 21
-3.25
 31
0.0
  0
CIRCLE
  5
12A
  8
0
  6
BYBLOCK
 62
     0
 10
9.83175
 20
-2.584649
 30
0.0
 40
0.19
  0
CIRCLE
  5
12B
  8
0
  6
BYBLOCK
 62
     0
 10
7.66175
 20
-2.584649
 30
0.0
 40
0.19
  0
LINE
  5
12C
  8
0
  6
BYBLOCK
 62
     0
 10
8.843775
 20
-4.249815
 30
0.0
 11
8.649886
 21
-4.249815
 31
0.0
  0
CIRCLE
  5
12D
  8
0
  6
BYBLOCK
 62
     0
 10
8.509927
 20
-3.894824
 30
0.0
 40
0.139997
  0
LINE
  5
12E
  8
0
  6
BYBLOCK
 62
     0
 10
7.979308
 20
-3.25
 30
0.0
 11
8.166804
 21
-3.25
 31
0.0
  0
LINE
  5
12F
  8
0
  6
BYBLOCK
 62
     0
 10
8.166804
 20
-2.959826
 30
0.0
 11
8.166804
 21
-3.25
 31
0.0
  0
LINE
  5
130
  8
0
  6
BYBLOCK
 62
     0
 10
7.996808
 20
-2.959826
 30
0.0
 11
7.996808
 21
-3.25
 31
0.0
  0
CIRCLE
  5
131
  8
0
  6
BYBLOCK
 62
     0
 10
8.509927
 20
-2.554858
 30
0.0
 40
0.139997
  0
CIRCLE
  5
132
  8
0
  6
BYBLOCK
 62
     0
 10
8.983734
 20
-3.894824
 30
0.0
 40
0.139997
  0
LINE
  5
133
  8
0
  6
BYBLOCK
 62
     0
 10
9.216819
 20
-4.249815
 30
0.0
 11
9.123694
 21
-4.249815
 31
0.0
  0
LINE
  5
134
  8
0
  6
BYBLOCK
 62
     0
 10
9.326775
 20
-3.25
 30
0.0
 11
9.50675
 21
-3.25
 31
0.0
  0
LINE
  5
135
  8
0
  6
BYBLOCK
 62
     0
 10
9.496771
 20
-2.959826
 30
0.0
 11
9.496771
 21
-3.25
 31
0.0
  0
LINE
  5
136
  8
0
  6
BYBLOCK
 62
     0
 10
9.326775
 20
-2.959826
 30
0.0
 11
9.326775
 21
-3.25
 31
0.0
  0
CIRCLE
  5
137
  8
0
  6
BYBLOCK
 62
     0
 10
8.983734
 20
-2.554858
 30
0.0
 40
0.139997
  0
LINE
  5
138
  8
0
  6
BYBLOCK
 62
     0
 10
8.843775
 20
-2.199866
 30
0.0
 11
8.649886
 21
-2.199866
 31
0.0
  0
LINE
  5
139
  8
0
  6
BYBLOCK
 62
     0
 10
9.216819
 20
-1.89982
 30
0.0
 11
8.276842
 21
-1.89982
 31
0.0
  0
LINE
  5
13A
  8
0
  6
BYBLOCK
 62
     0
 10
9.201778
 20
-1.122372
 30
0.0
 11
8.291801
 21
-1.122372
 31
0.0
  0
LINE
  5
13B
  8
0
  6
BYBLOCK
 62
     0
 10
9.201778
 20
-0.962376
 30
0.0
 11
8.291801
 21
-0.962376
 31
0.0
  0
CIRCLE
  5
13C
  8
0
  6
BYBLOCK
 62
     0
 10
8.509927
 20
-2.203102
 30
0.0
 40
0.139997
  0
LINE
  5
13D
  8
0
  6
BYBLOCK
 62
     0
 10
8.369967
 20
-2.199866
 30
0.0
 11
8.276842
 21
-2.199866
 31
0.0
  0
ARC
  5
13E
  8
0
  6
BYBLOCK
 62
     0
 10
8.291801
 20
-0.837379
 30
0.0
 40
0.124997
 50
180.0
 51
270.0
  0
ARC
  5
13F
  8
0
  6
BYBLOCK
 62
     0
 10
8.291801
 20
-1.247369
 30
0.0
 40
0.124997
 50
90.0
 51
180.0
  0
LINE
  5
140
  8
0
  6
BYBLOCK
 62
     0
 10
9.216819
 20
-2.199866
 30
0.0
 11
9.123694
 21
-2.199866
 31
0.0
  0
CIRCLE
  5
141
  8
0
  6
BYBLOCK
 62
     0
 10
8.983734
 20
-2.203102
 30
0.0
 40
0.139997
  0
ARC
  5
142
  8
0
  6
BYBLOCK
 62
     0
 10
9.201778
 20
-0.837379
 30
0.0
 40
0.124997
 50
270.0
 51
0.0
  0
ARC
  5
143
  8
0
  6
BYBLOCK
 62
     0
 10
9.201778
 20
-1.247369
 30
0.0
 40
0.124997
 50
0.0
 51
90.0
  0
CIRCLE
  5
144
  8
0
 62
     1
 10
12.468855
 20
-4.331969
 30
0.0
 40
0.177165
  0
LINE
  5
145
  8
0
  6
BYBLOCK
 62
     0
 10
14.231652
 20
-3.25
 30
0.0
 11
14.231652
 21
-4.6
 31
0.0
  0
CIRCLE
  5
146
  8
0
 10
13.41175
 20
-4.525
 30
0.0
 40
0.246063
  0
LINE
  5
147
  8
0
  6
BYBLOCK
 62
     0
 10
12.61675
 20
-2.959826
 30
0.0
 11
12.61675
 21
-5.08
 31
0.0
  0
LINE
  5
148
  8
0
  6
BYBLOCK
 62
     0
 10
11.09675
 20
-2.959826
 30
0.0
 11
11.09675
 21
-5.08
 31
0.0
  0
LINE
  5
149
  8
0
  6
BYBLOCK
 62
     0
 10
14.20675
 20
-2.959826
 30
0.0
 11
14.20675
 21
-5.08
 31
0.0
  0
LINE
  5
14A
  8
0
  6
HIDDEN
 62
     0
 10
12.643692
 20
-4.6
 30
0.0
 11
14.20675
 21
-4.6
 31
0.0
  0
LINE
  5
14B
  8
0
  6
BYBLOCK
 62
     0
 10
12.61675
 20
-5.08
 30
0.0
 11
14.20675
 21
-5.08
 31
0.0
  0
LINE
  5
14C
  8
0
  6
BYBLOCK
 62
     0
 10
11.489396
 20
-5.06
 30
0.0
 11
12.224027
 21
-5.06
 31
0.0
  0
LINE
  5
14D
  8
0
  6
BYBLOCK
 62
     0
 10
11.09675
 20
-4.9255
 30
0.0
 11
11.372233
 21
-4.9255
 31
0.0
  0
LINE
  5
14E
  8
0
  6
BYBLOCK
 62
     0
 10
11.489396
 20
-5.06
 30
0.0
 11
11.088692
 21
-4.6
 31
0.0
  0
LINE
  5
14F
  8
0
  6
BYBLOCK
 62
     0
 10
12.224027
 20
-5.06
 30
0.0
 11
12.624731
 21
-4.6
 31
0.0
  0
LINE
  5
150
  8
0
  6
BYBLOCK
 62
     0
 10
12.34119
 20
-4.9255
 30
0.0
 11
12.61675
 21
-4.9255
 31
0.0
  0
LINE
  5
151
  8
0
  6
BYBLOCK
 62
     0
 10
14.20675
 20
-4.6
 30
0.0
 11
14.231652
 21
-4.6
 31
0.0
  0
CIRCLE
  5
152
  8
0
  6
BYBLOCK
 62
     0
 10
13.88175
 20
-2.584649
 30
0.0
 40
0.19
  0
LINE
  5
153
  8
0
  6
BYBLOCK
 62
     0
 10
12.436697
 20
-1.679858
 30
0.0
 11
14.386648
 21
-1.679858
 31
0.0
  0
LINE
  5
154
  8
0
  6
BYBLOCK
 62
     0
 10
12.436697
 20
-2.959826
 30
0.0
 11
14.386648
 21
-2.959826
 31
0.0
  0
CIRCLE
  5
155
  8
0
  6
BYBLOCK
 62
     0
 10
12.94175
 20
-2.584649
 30
0.0
 40
0.19
  0
CIRCLE
  5
156
  8
0
  6
BYBLOCK
 62
     0
 10
10.77175
 20
-2.584649
 30
0.0
 40
0.19
  0
LINE
  5
157
  8
0
  6
BYBLOCK
 62
     0
 10
11.09675
 20
-3.25
 30
0.0
 11
11.276726
 21
-3.25
 31
0.0
  0
LINE
  5
158
  8
0
  6
BYBLOCK
 62
     0
 10
11.10673
 20
-2.959826
 30
0.0
 11
11.10673
 21
-3.25
 31
0.0
  0
LINE
  5
159
  8
0
  6
BYBLOCK
 62
     0
 10
11.276726
 20
-2.959826
 30
0.0
 11
11.276726
 21
-3.25
 31
0.0
  0
LINE
  5
15A
  8
0
  6
BYBLOCK
 62
     0
 10
12.436697
 20
-3.25
 30
0.0
 11
12.624192
 21
-3.25
 31
0.0
  0
LINE
  5
15B
  8
0
  6
BYBLOCK
 62
     0
 10
12.606693
 20
-2.959826
 30
0.0
 11
12.606693
 21
-3.25
 31
0.0
  0
LINE
  5
15C
  8
0
  6
BYBLOCK
 62
     0
 10
12.436697
 20
-2.959826
 30
0.0
 11
12.436697
 21
-3.25
 31
0.0
  0
LINE
  5
15D
  8
0
  6
BYBLOCK
 62
     0
 10
12.3117
 20
-0.962376
 30
0.0
 11
11.401723
 21
-0.962376
 31
0.0
  0
LINE
  5
15E
  8
0
  6
BYBLOCK
 62
     0
 10
12.3117
 20
-1.122372
 30
0.0
 11
11.401723
 21
-1.122372
 31
0.0
  0
ARC
  5
15F
  8
0
  6
BYBLOCK
 62
     0
 10
11.401723
 20
-0.837379
 30
0.0
 40
0.124997
 50
180.0
 51
270.0
  0
ARC
  5
160
  8
0
  6
BYBLOCK
 62
     0
 10
11.401723
 20
-1.247369
 30
0.0
 40
0.124997
 50
90.0
 51
180.0
  0
ARC
  5
161
  8
0
  6
BYBLOCK
 62
     0
 10
12.3117
 20
-0.837379
 30
0.0
 40
0.124997
 50
270.0
 51
0.0
  0
ARC
  5
162
  8
0
  6
BYBLOCK
 62
     0
 10
12.3117
 20
-1.247369
 30
0.0
 40
0.124997
 50
0.0
 51
90.0
  0
LINE
  5
163
  8
0
  6
BYBLOCK
 62
     0
 10
14.199153
 20
-3.25
 30
0.0
 11
14.386648
 21
-3.25
 31
0.0
  0
LINE
  5
164
  8
0
  6
BYBLOCK
 62
     0
 10
14.216653
 20
-2.959826
 30
0.0
 11
14.216653
 21
-3.25
 31
0.0
  0
LINE
  5
165
  8
0
  6
BYBLOCK
 62
     0
 10
14.386648
 20
-2.959826
 30
0.0
 11
14.386648
 21
-3.25
 31
0.0
  0
LINE
  5
166
  8
0
  6
BYBLOCK
 62
     0
 10
11.05175
 20
1.25
 30
0.0
 11
9.55175
 21
1.25
 31
0.0
  0
LINE
  5
167
  8
0
  6
HIDDEN
 62
     0
 10
10.98128
 20
4.8
 30
0.0
 11
9.62222
 21
4.8
 31
0.0
  0
LINE
  5
168
  8
0
  6
BYBLOCK
 62
     0
 10
9.50675
 20
5.08
 30
0.0
 11
11.09675
 21
5.08
 31
0.0
  0
LINE
  5
169
  8
0
  6
BYBLOCK
 62
     0
 10
9.326775
 20
2.960026
 30
0.0
 11
11.276726
 21
2.960026
 31
0.0
  0
LINE
  5
16A
  8
0
  6
BYBLOCK
 62
     0
 10
9.326775
 20
1.680058
 30
0.0
 11
11.276726
 21
1.680058
 31
0.0
  0
LINE
  5
16B
  8
0
  6
BYBLOCK
 62
     0
 10
6.371849
 20
4.6
 30
0.0
 11
6.371849
 21
3.25
 31
0.0
  0
LINE
  5
16C
  8
0
  6
BYBLOCK
 62
     0
 10
6.39675
 20
2.959826
 30
0.0
 11
6.39675
 21
5.08
 31
0.0
  0
LINE
  5
16D
  8
0
  6
BYBLOCK
 62
     0
 10
7.98675
 20
2.959826
 30
0.0
 11
7.98675
 21
5.08
 31
0.0
  0
LINE
  5
16E
  8
0
  6
BYBLOCK
 62
     0
 10
9.50675
 20
2.959826
 30
0.0
 11
9.50675
 21
5.08
 31
0.0
  0
LINE
  5
16F
  8
0
  6
BYBLOCK
 62
     0
 10
6.216853
 20
2.960026
 30
0.0
 11
8.166804
 21
2.960026
 31
0.0
  0
LINE
  5
170
  8
0
  6
BYBLOCK
 62
     0
 10
6.216853
 20
1.680058
 30
0.0
 11
8.166804
 21
1.680058
 31
0.0
  0
LINE
  5
171
  8
0
  6
BYBLOCK
 62
     0
 10
6.216853
 20
2.960026
 30
0.0
 11
6.216853
 21
0.2
 31
0.0
  0
LINE
  5
172
  8
0
  6
BYBLOCK
 62
     0
 10
6.008403
 20
0.436701
 30
0.0
 11
6.216853
 21
0.80008
 31
0.0
  0
LINE
  5
173
  8
0
  6
BYBLOCK
 62
     0
 10
6.090793
 20
-0.090704
 30
0.0
 11
6.307557
 21
0.12606
 31
0.0
  0
CIRCLE
  5
174
  8
0
  6
BYBLOCK
 62
     0
 10
6.216853
 20
0.0
 30
0.0
 40
0.1553
  0
ARC
  5
175
  8
0
  6
BYBLOCK
 62
     0
 10
6.216853
 20
0.0
 30
0.0
 40
0.2
 50
270.0
 51
90.0
  0
LINE
  5
176
  8
0
  6
BYBLOCK
 62
     0
 10
6.126148
 20
-0.12606
 30
0.0
 11
6.342912
 21
0.090704
 31
0.0
  0
LINE
  5
177
  8
0
  6
BYBLOCK
 62
     0
 10
5.971792
 20
0.348315
 30
0.0
 11
5.971792
 21
-0.348115
 31
0.0
  0
LINE
  5
178
  8
0
  6
BYBLOCK
 62
     0
 10
5.971792
 20
-0.2
 30
0.0
 11
6.216853
 21
-0.2
 31
0.0
  0
LINE
  5
179
  8
0
  6
BYBLOCK
 62
     0
 10
5.971792
 20
-0.35
 30
0.0
 11
6.216853
 21
-0.35
 31
0.0
  0
ARC
  5
17A
  8
0
  6
BYBLOCK
 62
     0
 10
6.096789
 20
-0.348115
 30
0.0
 40
0.124997
 50
180.0
 51
225.0
  0
LINE
  5
17B
  8
0
  6
BYBLOCK
 62
     0
 10
5.971792
 20
0.35
 30
0.0
 11
6.216853
 21
0.35
 31
0.0
  0
ARC
  5
17C
  8
0
  6
BYBLOCK
 62
     0
 10
6.096789
 20
0.348315
 30
0.0
 40
0.124997
 50
135.0
 51
180.0
  0
LINE
  5
17D
  8
0
  6
BYBLOCK
 62
     0
 10
5.971792
 20
0.2
 30
0.0
 11
6.216853
 21
0.2
 31
0.0
  0
LINE
  5
17E
  8
0
  6
BYBLOCK
 62
     0
 10
6.216853
 20
3.25
 30
0.0
 11
6.404348
 21
3.25
 31
0.0
  0
LINE
  5
17F
  8
0
  6
BYBLOCK
 62
     0
 10
6.216853
 20
3.25
 30
0.0
 11
6.216853
 21
2.960026
 31
0.0
  0
CIRCLE
  5
180
  8
0
  6
BYBLOCK
 62
     0
 10
6.72175
 20
2.584649
 30
0.0
 40
0.19
  0
LINE
  5
181
  8
0
  6
BYBLOCK
 62
     0
 10
6.386848
 20
3.25
 30
0.0
 11
6.386848
 21
2.960026
 31
0.0
  0
LINE
  5
182
  8
0
  6
BYBLOCK
 62
     0
 10
9.201778
 20
0.962576
 30
0.0
 11
8.291801
 21
0.962576
 31
0.0
  0
LINE
  5
183
  8
0
  6
BYBLOCK
 62
     0
 10
9.201778
 20
1.122572
 30
0.0
 11
8.291801
 21
1.122572
 31
0.0
  0
ARC
  5
184
  8
0
  6
BYBLOCK
 62
     0
 10
8.291801
 20
0.837579
 30
0.0
 40
0.124997
 50
90.0
 51
180.0
  0
ARC
  5
185
  8
0
  6
BYBLOCK
 62
     0
 10
8.291801
 20
1.247569
 30
0.0
 40
0.124997
 50
180.0
 51
270.0
  0
ARC
  5
186
  8
0
  6
BYBLOCK
 62
     0
 10
9.201778
 20
0.837579
 30
0.0
 40
0.124997
 50
0.0
 51
90.0
  0
ARC
  5
187
  8
0
  6
BYBLOCK
 62
     0
 10
9.201778
 20
1.247569
 30
0.0
 40
0.124997
 50
270.0
 51
0.0
  0
LINE
  5
188
  8
0
  6
BYBLOCK
 62
     0
 10
7.979308
 20
3.25
 30
0.0
 11
9.496771
 21
3.25
 31
0.0
  0
CIRCLE
  5
189
  8
0
  6
BYBLOCK
 62
     0
 10
7.66175
 20
2.584649
 30
0.0
 40
0.19
  0
CIRCLE
  5
18A
  8
0
  6
BYBLOCK
 62
     0
 10
8.463039
 20
2.75
 30
0.0
 40
0.151199
  0
LINE
  5
18B
  8
0
  6
BYBLOCK
 62
     0
 10
8.166804
 20
3.25
 30
0.0
 11
8.166804
 21
2.960026
 31
0.0
  0
LINE
  5
18C
  8
0
  6
BYBLOCK
 62
     0
 10
7.996808
 20
3.25
 30
0.0
 11
7.996808
 21
2.960026
 31
0.0
  0
CIRCLE
  5
18D
  8
0
  6
BYBLOCK
 62
     0
 10
9.83175
 20
2.584649
 30
0.0
 40
0.19
  0
CIRCLE
  5
18E
  8
0
  6
BYBLOCK
 62
     0
 10
9.013039
 20
2.75
 30
0.0
 40
0.151199
  0
LINE
  5
18F
  8
0
  6
BYBLOCK
 62
     0
 10
9.326775
 20
3.25
 30
0.0
 11
9.326775
 21
2.960026
 31
0.0
  0
LINE
  5
190
  8
0
  6
BYBLOCK
 62
     0
 10
9.496771
 20
3.25
 30
0.0
 11
9.496771
 21
2.960026
 31
0.0
  0
LINE
  5
191
  8
0
  6
BYBLOCK
 62
     0
 10
6.39675
 20
5.08
 30
0.0
 11
7.98675
 21
5.08
 31
0.0
  0
LINE
  5
192
  8
0
  6
BYBLOCK
 62
     0
 10
5.889939
 20
3.48
 30
0.0
 11
6.371849
 21
3.48
 31
0.0
  0
LINE
  5
193
  8
0
  6
BYBLOCK
 62
     0
 10
6.371849
 20
4.6
 30
0.0
 11
6.39675
 21
4.6
 31
0.0
  0
LINE
  5
194
  8
0
  6
BYBLOCK
 62
     0
 10
7.98675
 20
4.6
 30
0.0
 11
9.50675
 21
4.6
 31
0.0
  0
CIRCLE
  5
195
  8
0
 62
     1
 10
8.138146
 20
4.329449
 30
0.0
 40
0.177165
  0
LINE
  5
196
  8
0
  6
HIDDEN
 62
     0
 10
9.50675
 20
4.6
 30
0.0
 11
9.62222
 21
4.8
 31
0.0
  0
LINE
  5
197
  8
0
  6
BYBLOCK
 62
     0
 10
14.231652
 20
4.6
 30
0.0
 11
14.231652
 21
3.25
 31
0.0
  0
LINE
  5
198
  8
0
  6
BYBLOCK
 62
     0
 10
11.09675
 20
2.959826
 30
0.0
 11
11.09675
 21
5.08
 31
0.0
  0
LINE
  5
199
  8
0
  6
BYBLOCK
 62
     0
 10
12.61675
 20
2.959826
 30
0.0
 11
12.61675
 21
5.08
 31
0.0
  0
LINE
  5
19A
  8
0
  6
BYBLOCK
 62
     0
 10
14.20675
 20
2.959826
 30
0.0
 11
14.20675
 21
5.08
 31
0.0
  0
LINE
  5
19B
  8
0
  6
BYBLOCK
 62
     0
 10
12.436697
 20
2.960026
 30
0.0
 11
14.386648
 21
2.960026
 31
0.0
  0
LINE
  5
19C
  8
0
  6
BYBLOCK
 62
     0
 10
12.436697
 20
1.680058
 30
0.0
 11
14.386648
 21
1.680058
 31
0.0
  0
CIRCLE
  5
19D
  8
0
  6
BYBLOCK
 62
     0
 10
13.88175
 20
2.584649
 30
0.0
 40
0.19
  0
LINE
  5
19E
  8
0
  6
BYBLOCK
 62
     0
 10
12.3117
 20
0.962576
 30
0.0
 11
11.401723
 21
0.962576
 31
0.0
  0
LINE
  5
19F
  8
0
  6
BYBLOCK
 62
     0
 10
12.3117
 20
1.122572
 30
0.0
 11
11.401723
 21
1.122572
 31
0.0
  0
ARC
  5
1A0
  8
0
  6
BYBLOCK
 62
     0
 10
11.401723
 20
0.837579
 30
0.0
 40
0.124997
 50
90.0
 51
180.0
  0
ARC
  5
1A1
  8
0
  6
BYBLOCK
 62
     0
 10
11.401723
 20
1.247569
 30
0.0
 40
0.124997
 50
180.0
 51
270.0
  0
ARC
  5
1A2
  8
0
  6
BYBLOCK
 62
     0
 10
12.3117
 20
0.837579
 30
0.0
 40
0.124997
 50
0.0
 51
90.0
  0
ARC
  5
1A3
  8
0
  6
BYBLOCK
 62
     0
 10
12.3117
 20
1.247569
 30
0.0
 40
0.124997
 50
270.0
 51
0.0
  0
LINE
  5
1A4
  8
0
  6
BYBLOCK
 62
     0
 10
11.10673
 20
3.25
 30
0.0
 11
12.606693
 21
3.25
 31
0.0
  0
CIRCLE
  5
1A5
  8
0
  6
BYBLOCK
 62
     0
 10
10.77175
 20
2.584649
 30
0.0
 40
0.19
  0
LINE
  5
1A6
  8
0
  6
BYBLOCK
 62
     0
 10
11.10673
 20
3.25
 30
0.0
 11
11.10673
 21
2.960026
 31
0.0
  0
LINE
  5
1A7
  8
0
  6
BYBLOCK
 62
     0
 10
11.276726
 20
3.25
 30
0.0
 11
11.276726
 21
2.960026
 31
0.0
  0
CIRCLE
  5
1A8
  8
0
  6
BYBLOCK
 62
     0
 10
12.94175
 20
2.584649
 30
0.0
 40
0.19
  0
LINE
  5
1A9
  8
0
  6
BYBLOCK
 62
     0
 10
12.606693
 20
3.25
 30
0.0
 11
12.606693
 21
2.960026
 31
0.0
  0
LINE
  5
1AA
  8
0
  6
BYBLOCK
 62
     0
 10
12.436697
 20
3.25
 30
0.0
 11
12.436697
 21
2.960026
 31
0.0
  0
LINE
  5
1AB
  8
0
  6
BYBLOCK
 62
     0
 10
14.386648
 20
3.25
 30
0.0
 11
14.386648
 21
0.2
 31
0.0
  0
LINE
  5
1AC
  8
0
  6
BYBLOCK
 62
     0
 10
14.595098
 20
0.436701
 30
0.0
 11
14.386648
 21
0.80008
 31
0.0
  0
CIRCLE
  5
1AD
  8
0
  6
BYBLOCK
 62
     0
 10
14.386648
 20
0.0
 30
0.0
 40
0.1553
  0
ARC
  5
1AE
  8
0
  6
BYBLOCK
 62
     0
 10
14.386648
 20
0.0
 30
0.0
 40
0.2
 50
90.0
 51
270.0
  0
LINE
  5
1AF
  8
0
  6
BYBLOCK
 62
     0
 10
14.477352
 20
-0.12606
 30
0.0
 11
14.260589
 21
0.090704
 31
0.0
  0
LINE
  5
1B0
  8
0
  6
BYBLOCK
 62
     0
 10
14.512708
 20
-0.090704
 30
0.0
 11
14.295944
 21
0.12606
 31
0.0
  0
LINE
  5
1B1
  8
0
  6
BYBLOCK
 62
     0
 10
14.631709
 20
0.348315
 30
0.0
 11
14.631709
 21
-0.348115
 31
0.0
  0
LINE
  5
1B2
  8
0
  6
BYBLOCK
 62
     0
 10
14.631709
 20
-0.2
 30
0.0
 11
14.386648
 21
-0.2
 31
0.0
  0
LINE
  5
1B3
  8
0
  6
BYBLOCK
 62
     0
 10
14.631709
 20
-0.35
 30
0.0
 11
14.386648
 21
-0.35
 31
0.0
  0
ARC
  5
1B4
  8
0
  6
BYBLOCK
 62
     0
 10
14.506712
 20
-0.348115
 30
0.0
 40
0.124997
 50
315.0
 51
0.0
  0
LINE
  5
1B5
  8
0
  6
BYBLOCK
 62
     0
 10
14.631709
 20
0.35
 30
0.0
 11
14.386648
 21
0.35
 31
0.0
  0
ARC
  5
1B6
  8
0
  6
BYBLOCK
 62
     0
 10
14.506712
 20
0.348315
 30
0.0
 40
0.124997
 50
0.0
 51
45.0
  0
LINE
  5
1B7
  8
0
  6
BYBLOCK
 62
     0
 10
14.631709
 20
0.2
 30
0.0
 11
14.386648
 21
0.2
 31
0.0
  0
LINE
  5
1B8
  8
0
  6
BYBLOCK
 62
     0
 10
14.231652
 20
3.25
 30
0.0
 11
14.386648
 21
3.25
 31
0.0
  0
LINE
  5
1B9
  8
0
  6
BYBLOCK
 62
     0
 10
14.216653
 20
3.25
 30
0.0
 11
14.216653
 21
2.960026
 31
0.0
  0
LINE
  5
1BA
  8
0
  6
BYBLOCK
 62
     0
 10
12.61675
 20
5.08
 30
0.0
 11
14.20675
 21
5.08
 31
0.0
  0
LINE
  5
1BB
  8
0
  6
BYBLOCK
 62
     0
 10
11.09675
 20
4.6
 30
0.0
 11
12.61675
 21
4.6
 31
0.0
  0
LINE
  5
1BC
  8
0
  6
HIDDEN
 62
     0
 10
11.09675
 20
4.6
 30
0.0
 11
10.98128
 21
4.8
 31
0.0
  0
CIRCLE
  5
1BD
  8
0
 62
     1
 10
12.468855
 20
4.329449
 30
0.0
 40
0.177165
  0
LINE
  5
1BE
  8
0
  6
BYBLOCK
 62
     0
 10
14.20675
 20
4.6
 30
0.0
 11
14.231652
 21
4.6
 31
0.0
  0
CIRCLE
  5
1BF
  8
0
 10
10.303501
 20
4.525
 30
0.0
 40
0.246063
  0
CIRCLE
  5
1C0
  8
0
 10
7.193501
 20
4.525
 30
0.0
 40
0.246063
  0
CIRCLE
  5
1C1
  8
0
 10
13.413501
 20
4.525
 30
0.0
 40
0.246063
  0
LINE
  5
1C9
  8
0
 10
-3.19825
 20
4.525
 30
0.0
 11
-3.01825
 21
4.525
 31
0.0
  0
LINE
  5
1CA
  8
0
 10
-3.10825
 20
4.435
 30
0.0
 11
-3.10825
 21
4.615
 31
0.0
  0
LINE
  5
1CB
  8
0
 10
-2.253604
 20
4.329449
 30
0.0
 11
-2.073604
 21
4.329449
 31
0.0
  0
LINE
  5
1CC
  8
0
 10
-2.163604
 20
4.239449
 30
0.0
 11
-2.163604
 21
4.419449
 31
0.0
  0
LINE
  5
1CD
  8
0
 10
-0.08825
 20
4.525
 30
0.0
 11
0.09175
 21
4.525
 31
0.0
  0
LINE
  5
1CE
  8
0
 10
0.00175
 20
4.435
 30
0.0
 11
0.00175
 21
4.615
 31
0.0
  0
LINE
  5
1CF
  8
0
 10
2.077105
 20
4.329449
 30
0.0
 11
2.257105
 21
4.329449
 31
0.0
  0
LINE
  5
1D0
  8
0
 10
2.167105
 20
4.239449
 30
0.0
 11
2.167105
 21
4.419449
 31
0.0
  0
LINE
  5
1D1
  8
0
 10
3.02175
 20
4.525
 30
0.0
 11
3.20175
 21
4.525
 31
0.0
  0
LINE
  5
1D2
  8
0
 10
3.11175
 20
4.435
 30
0.0
 11
3.11175
 21
4.615
 31
0.0
  0
LINE
  5
1D3
  8
0
 10
7.103501
 20
4.525
 30
0.0
 11
7.283501
 21
4.525
 31
0.0
  0
LINE
  5
1D4
  8
0
 10
7.193501
 20
4.435
 30
0.0
 11
7.193501
 21
4.615
 31
0.0
  0
LINE
  5
1D5
  8
0
 10
8.048146
 20
4.329449
 30
0.0
 11
8.228146
 21
4.329449
 31
0.0
  0
LINE
  5
1D6
  8
0
 10
8.138146
 20
4.239449
 30
0.0
 11
8.138146
 21
4.419449
 31
0.0
  0
LINE
  5
1D7
  8
0
 10
10.213501
 20
4.525
 30
0.0
 11
10.393501
 21
4.525
 31
0.0
  0
LINE
  5
1D8
  8
0
 10
10.303501
 20
4.435
 30
0.0
 11
10.303501
 21
4.615
 31
0.0
  0
LINE
  5
1D9
  8
0
 10
12.378855
 20
4.329449
 30
0.0
 11
12.558855
 21
4.329449
 31
0.0
  0
LINE
  5
1DA
  8
0
 10
12.468855
 20
4.239449
 30
0.0
 11
12.468855
 21
4.419449
 31
0.0
  0
LINE
  5
1DB
  8
0
 10
13.323501
 20
4.525
 30
0.0
 11
13.503501
 21
4.525
 31
0.0
  0
LINE
  5
1DC
  8
0
 10
13.413501
 20
4.435
 30
0.0
 11
13.413501
 21
4.615
 31
0.0
  0
LINE
  5
1DD
  8
0
 10
-3.2
 20
-4.525
 30
0.0
 11
-3.02
 21
-4.525
 31
0.0
  0
LINE
  5
1DE
  8
0
 10
-3.11
 20
-4.615
 30
0.0
 11
-3.11
 21
-4.435
 31
0.0
  0
LINE
  5
1DF
  8
0
 10
-2.253604
 20
-4.331969
 30
0.0
 11
-2.073604
 21
-4.331969
 31
0.0
  0
LINE
  5
1E0
  8
0
 10
-2.163604
 20
-4.421969
 30
0.0
 11
-2.163604
 21
-4.241969
 31
0.0
  0
LINE
  5
1E1
  8
0
 10
-0.09
 20
-4.525
 30
0.0
 11
0.09
 21
-4.525
 31
0.0
  0
LINE
  5
1E2
  8
0
 10
0.0
 20
-4.615
 30
0.0
 11
0.0
 21
-4.435
 31
0.0
  0
LINE
  5
1E3
  8
0
 10
2.077105
 20
-4.331969
 30
0.0
 11
2.257105
 21
-4.331969
 31
0.0
  0
LINE
  5
1E4
  8
0
 10
2.167105
 20
-4.421969
 30
0.0
 11
2.167105
 21
-4.241969
 31
0.0
  0
LINE
  5
1E5
  8
0
 10
3.02
 20
-4.525
 30
0.0
 11
3.2
 21
-4.525
 31
0.0
  0
LINE
  5
1E6
  8
0
 10
3.11
 20
-4.615
 30
0.0
 11
3.11
 21
-4.435
 31
0.0
  0
LINE
  5
1E7
  8
0
 10
7.10175
 20
-4.525
 30
0.0
 11
7.28175
 21
-4.525
 31
0.0
  0
LINE
  5
1E8
  8
0
 10
7.19175
 20
-4.615
 30
0.0
 11
7.19175
 21
-4.435
 31
0.0
  0
LINE
  5
1E9
  8
0
 10
8.048146
 20
-4.331969
 30
0.0
 11
8.228146
 21
-4.331969
 31
0.0
  0
LINE
  5
1EA
  8
0
 10
8.138146
 20
-4.421969
 30
0.0
 11
8.138146
 21
-4.241969
 31
0.0
  0
LINE
  5
1EB
  8
0
 10
10.21175
 20
-4.525
 30
0.0
 11
10.39175
 21
-4.525
 31
0.0
  0
LINE
  5
1EC
  8
0
 10
10.30175
 20
-4.615
 30
0.0
 11
10.30175
 21
-4.435
 31
0.0
  0
LINE
  5
1ED
  8
0
 10
12.378855
 20
-4.331969
 30
0.0
 11
12.558855
 21
-4.331969
 31
0.0
  0
LINE
  5
1EE
  8
0
 10
12.468855
 20
-4.421969
 30
0.0
 11
12.468855
 21
-4.241969
 31
0.0
  0
LINE
  5
1EF
  8
0
 10
13.32175
 20
-4.525
 30
0.0
 11
13.50175
 21
-4.525
 31
0.0
  0
LINE
  5
1F0
  8
0
 10
13.41175
 20
-4.615
 30
0.0
 11
13.41175
 21
-4.435
 31
0.0
  0
LINE
  5
285
  8
0
  6
BYBLOCK
 62
     0
 10
19.386648
 20
1.555061
 30
0.0
 11
19.386648
 21
-1.554861
 31
0.0
  0
LINE
  5
286
  8
0
  6
BYBLOCK
 62
     0
 10
22.601664
 20
3.25
 30
0.0
 11
22.601664
 21
-3.25
 31
0.0
  0
LINE
  5
287
  8
0
  6
BYBLOCK
 62
     0
 10
28.198525
 20
4.6
 30
0.0
 11
28.198525
 21
0.40009
 31
0.0
  0
LINE
  5
288
  8
0
  6
BYBLOCK
 62
     0
 10
23.221648
 20
4.105012
 30
0.0
 11
23.221648
 21
-5.06
 31
0.0
  0
LINE
  5
289
  8
0
  6
BYBLOCK
 62
     0
 10
28.271522
 20
-4.6
 30
0.0
 11
23.456287
 21
-4.6
 31
0.0
  0
ARC
  5
28B
  8
0
  6
BYBLOCK
 62
     0
 10
22.271522
 20
-3.698553
 30
0.0
 40
0.25
 50
135.0
 51
180.0
  0
LINE
  5
28C
  8
0
  6
BYBLOCK
 62
     0
 10
23.021653
 20
-5.06
 30
0.0
 11
23.021653
 21
-3.25
 31
0.0
  0
ARC
  5
28D
  8
0
  6
BYBLOCK
 62
     0
 10
22.271522
 20
-3.698553
 30
0.0
 40
0.5
 50
135.0
 51
180.0
  0
LINE
  5
299
  8
0
  6
BYBLOCK
 62
     0
 10
22.021522
 20
-5.08
 30
0.0
 11
22.021522
 21
-3.698553
 31
0.0
  0
LINE
  5
29A
  8
0
 10
21.771522
 20
-5.08
 30
0.0
 11
21.771522
 21
-3.698553
 31
0.0
  0
LINE
  5
29B
  8
0
  6
BYBLOCK
 62
     0
 10
22.021522
 20
-5.08
 30
0.0
 11
21.771522
 21
-5.08
 31
0.0
  0
LINE
  5
29C
  8
0
  6
HIDDEN
 62
     0
 10
21.771522
 20
-5.085
 30
0.0
 11
21.853605
 21
-5.085
 31
0.0
  0
LINE
  5
2AC
  8
0
  6
BYBLOCK
 62
     0
 10
23.221648
 20
-5.06
 30
0.0
 11
23.021653
 21
-5.06
 31
0.0
  0
LINE
  5
2AD
  8
0
  6
BYBLOCK
 62
     0
 10
23.456287
 20
-4.6
 30
0.0
 11
23.221648
 21
-4.193594
 31
0.0
  0
LINE
  5
2AE
  8
0
  6
BYBLOCK
 62
     0
 10
23.601648
 20
-4.71
 30
0.0
 11
23.221648
 21
-4.71
 31
0.0
  0
LINE
  5
2B0
  8
0
  6
BYBLOCK
 62
     0
 10
23.221648
 20
-4.6
 30
0.0
 11
23.021653
 21
-4.6
 31
0.0
  0
LINE
  5
2B1
  8
0
  6
BYBLOCK
 62
     0
 10
23.601648
 20
-4.6
 30
0.0
 11
23.601648
 21
-4.71
 31
0.0
  0
LINE
  5
2B2
  8
0
  6
BYBLOCK
 62
     0
 10
22.201664
 20
0.2
 30
0.0
 11
19.386648
 21
0.2
 31
0.0
  0
LINE
  5
2B3
  8
0
  6
BYBLOCK
 62
     0
 10
22.201664
 20
-0.2
 30
0.0
 11
19.386648
 21
-0.2
 31
0.0
  0
LINE
  5
2B4
  8
0
  6
BYBLOCK
 62
     0
 10
20.986885
 20
-3.25
 30
0.0
 11
20.696711
 21
-2.959826
 31
0.0
  0
LINE
  5
2B5
  8
0
  6
BYBLOCK
 62
     0
 10
20.166628
 20
-2.834829
 30
0.0
 11
20.166628
 21
-1.804855
 31
0.0
  0
LINE
  5
2B6
  8
0
  6
BYBLOCK
 62
     0
 10
20.696711
 20
-2.959826
 30
0.0
 11
20.291625
 21
-2.959826
 31
0.0
  0
ARC
  5
2B7
  8
0
  6
BYBLOCK
 62
     0
 10
20.291625
 20
-2.834829
 30
0.0
 40
0.124997
 50
180.0
 51
270.0
  0
LINE
  5
2B9
  8
0
  6
BYBLOCK
 62
     0
 10
20.041631
 20
-1.679858
 30
0.0
 11
19.511645
 21
-1.679858
 31
0.0
  0
ARC
  5
2BB
  8
0
  6
BYBLOCK
 62
     0
 10
19.511645
 20
-1.554861
 30
0.0
 40
0.124997
 50
180.0
 51
270.0
  0
ARC
  5
2BC
  8
0
  6
BYBLOCK
 62
     0
 10
20.041631
 20
-1.804855
 30
0.0
 40
0.124997
 50
360.0
 51
90.0
  0
LINE
  5
2BD
  8
0
  6
BYBLOCK
 62
     0
 10
23.021653
 20
-3.25
 30
0.0
 11
20.986885
 21
-3.25
 31
0.0
  0
LINE
  5
2BE
  8
0
  6
BYBLOCK
 62
     0
 10
21.917969
 20
-3.345
 30
0.0
 11
22.012969
 21
-3.25
 31
0.0
  0
LINE
  5
2BF
  8
0
  6
BYBLOCK
 62
     0
 10
22.094745
 20
-3.521777
 30
0.0
 11
22.366522
 21
-3.25
 31
0.0
  0
LINE
  5
2C0
  8
0
  6
BYBLOCK
 62
     0
 10
22.201664
 20
0.80008
 30
0.0
 11
23.221648
 21
0.80008
 31
0.0
  0
LINE
  5
2C1
  8
0
  6
BYBLOCK
 62
     0
 10
22.201664
 20
-0.79988
 30
0.0
 11
23.221648
 21
-0.79988
 31
0.0
  0
LINE
  5
2C2
  8
0
  6
BYBLOCK
 62
     0
 10
23.221648
 20
-0.35
 30
0.0
 11
21.701664
 21
-0.35
 31
0.0
  0
LINE
  5
2C3
  8
0
  6
BYBLOCK
 62
     0
 10
23.221648
 20
0.35
 30
0.0
 11
21.701664
 21
0.35
 31
0.0
  0
LINE
  5
2C4
  8
0
  6
BYBLOCK
 62
     0
 10
22.001664
 20
0.35
 30
0.0
 11
22.001664
 21
0.2
 31
0.0
  0
LINE
  5
2C5
  8
0
  6
BYBLOCK
 62
     0
 10
21.701664
 20
0.35
 30
0.0
 11
21.701664
 21
0.2
 31
0.0
  0
LINE
  5
2C6
  8
0
  6
BYBLOCK
 62
     0
 10
22.201664
 20
-0.35
 30
0.0
 11
22.201664
 21
-0.79988
 31
0.0
  0
LINE
  5
2C7
  8
0
  6
BYBLOCK
 62
     0
 10
21.701664
 20
-0.2
 30
0.0
 11
21.701664
 21
-0.35
 31
0.0
  0
LINE
  5
2C8
  8
0
  6
BYBLOCK
 62
     0
 10
22.001664
 20
-0.2
 30
0.0
 11
22.001664
 21
-0.35
 31
0.0
  0
LINE
  5
2C9
  8
0
  6
BYBLOCK
 62
     0
 10
22.201664
 20
0.2
 30
0.0
 11
22.201664
 21
-0.2
 31
0.0
  0
LINE
  5
2CA
  8
0
  6
BYBLOCK
 62
     0
 10
22.201664
 20
0.80008
 30
0.0
 11
22.201664
 21
0.35
 31
0.0
  0
LINE
  5
2CB
  8
0
  6
BYBLOCK
 62
     0
 10
28.198525
 20
-0.39989
 30
0.0
 11
28.198525
 21
-4.6
 31
0.0
  0
LINE
  5
2CC
  8
0
  6
BYBLOCK
 62
     0
 10
28.49689
 20
-4.312
 30
0.0
 11
27.786683
 21
-4.312
 31
0.0
  0
LINE
  5
2CD
  8
0
  6
BYBLOCK
 62
     0
 10
28.271522
 20
-3.884803
 30
0.0
 11
28.271522
 21
-4.6
 31
0.0
  0
LINE
  5
2CE
  8
0
  6
BYBLOCK
 62
     0
 10
28.198525
 20
-3.884803
 30
0.0
 11
28.271522
 21
-3.884803
 31
0.0
  0
ARC
  5
2CF
  8
0
  6
BYBLOCK
 62
     0
 10
27.731648
 20
0.0
 30
0.0
 40
0.295
 50
270.0
 51
90.0
  0
ARC
  5
2D0
  8
0
  6
BYBLOCK
 62
     0
 10
26.791648
 20
0.0
 30
0.0
 40
0.295
 50
90.0
 51
270.0
  0
LINE
  5
2D1
  8
0
  6
BYBLOCK
 62
     0
 10
27.731648
 20
-0.295
 30
0.0
 11
26.791648
 21
-0.295
 31
0.0
  0
LINE
  5
2D2
  8
0
  6
BYBLOCK
 62
     0
 10
27.731648
 20
0.295
 30
0.0
 11
26.791648
 21
0.295
 31
0.0
  0
LINE
  5
2D3
  8
0
  6
BYBLOCK
 62
     0
 10
28.241522
 20
0.40009
 30
0.0
 11
28.241522
 21
-0.39989
 31
0.0
  0
LINE
  5
2D4
  8
0
  6
BYBLOCK
 62
     0
 10
28.241522
 20
-0.39989
 30
0.0
 11
28.198525
 21
-0.39989
 31
0.0
  0
LINE
  5
2D5
  8
0
  6
BYBLOCK
 62
     0
 10
28.241522
 20
0.40009
 30
0.0
 11
28.198525
 21
0.40009
 31
0.0
  0
LINE
  5
2D6
  8
0
  6
BYBLOCK
 62
     0
 10
23.221648
 20
4.105012
 30
0.0
 11
24.721575
 21
4.105012
 31
0.0
  0
LINE
  5
2D7
  8
0
  6
BYBLOCK
 62
     0
 10
23.021653
 20
4.6
 30
0.0
 11
25.926581
 21
4.6
 31
0.0
  0
LINE
  5
2D8
  8
0
  6
BYBLOCK
 62
     0
 10
23.909849
 20
4.8
 30
0.0
 11
24.659849
 21
4.8
 31
0.0
  0
LINE
  5
2D9
  8
0
  6
BYBLOCK
 62
     0
 10
20.986685
 20
3.25
 30
0.0
 11
20.696711
 21
2.960026
 31
0.0
  0
LINE
  5
2DA
  8
0
  6
BYBLOCK
 62
     0
 10
20.166628
 20
2.835029
 30
0.0
 11
20.166628
 21
1.805055
 31
0.0
  0
LINE
  5
2DB
  8
0
  6
BYBLOCK
 62
     0
 10
20.041631
 20
1.680058
 30
0.0
 11
19.511645
 21
1.680058
 31
0.0
  0
ARC
  5
2DC
  8
0
  6
BYBLOCK
 62
     0
 10
19.511645
 20
1.555061
 30
0.0
 40
0.124997
 50
90.0
 51
180.0
  0
ARC
  5
2DD
  8
0
  6
BYBLOCK
 62
     0
 10
20.041631
 20
1.805055
 30
0.0
 40
0.124997
 50
270.0
 51
0.0
  0
LINE
  5
2DE
  8
0
  6
BYBLOCK
 62
     0
 10
20.696711
 20
2.960026
 30
0.0
 11
20.291625
 21
2.960026
 31
0.0
  0
ARC
  5
2DF
  8
0
  6
BYBLOCK
 62
     0
 10
20.291625
 20
2.835029
 30
0.0
 40
0.124997
 50
90.0
 51
180.0
  0
LINE
  5
2E0
  8
0
  6
BYBLOCK
 62
     0
 10
23.021653
 20
4.6
 30
0.0
 11
23.021653
 21
3.25
 31
0.0
  0
LINE
  5
2E1
  8
0
  6
BYBLOCK
 62
     0
 10
22.021522
 20
5.08
 30
0.0
 11
22.021522
 21
3.698553
 31
0.0
  0
LINE
  5
2E2
  8
0
  6
BYBLOCK
 62
     0
 10
21.771522
 20
3.698553
 30
0.0
 11
21.771522
 21
5.08
 31
0.0
  0
LINE
  5
2E3
  8
0
  6
BYBLOCK
 62
     0
 10
21.771522
 20
5.08
 30
0.0
 11
21.771522
 21
3.698553
 31
0.0
  0
LINE
  5
2E4
  8
0
  6
BYBLOCK
 62
     0
 10
23.021653
 20
3.25
 30
0.0
 11
20.986685
 21
3.25
 31
0.0
  0
LINE
  5
2E5
  8
0
  6
BYBLOCK
 62
     0
 10
22.094745
 20
3.521777
 30
0.0
 11
22.366522
 21
3.25
 31
0.0
  0
ARC
  5
2E6
  8
0
  6
BYBLOCK
 62
     0
 10
22.271522
 20
3.698553
 30
0.0
 40
0.5
 50
180.0
 51
225.0
  0
LINE
  5
2E7
  8
0
  6
BYBLOCK
 62
     0
 10
21.917969
 20
3.345
 30
0.0
 11
22.012969
 21
3.25
 31
0.0
  0
ARC
  5
2E8
  8
0
  6
BYBLOCK
 62
     0
 10
22.271522
 20
3.698553
 30
0.0
 40
0.25
 50
180.0
 51
225.0
  0
LINE
  5
2FB
  8
0
  6
BYBLOCK
 62
     0
 10
22.021522
 20
5.08
 30
0.0
 11
21.771522
 21
5.08
 31
0.0
  0
LINE
  5
2FD
  8
0
  6
BYBLOCK
 62
     0
 10
23.204705
 20
4.74
 30
0.0
 11
23.51422
 21
4.74
 31
0.0
  0
LINE
  5
2FE
  8
0
  6
BYBLOCK
 62
     0
 10
23.204705
 20
4.74
 30
0.0
 11
23.204705
 21
4.6
 31
0.0
  0
LINE
  5
300
  8
0
  6
BYBLOCK
 62
     0
 10
23.336851
 20
4.105012
 30
0.0
 11
23.336851
 21
4.6
 31
0.0
  0
LINE
  5
301
  8
0
  6
BYBLOCK
 62
     0
 10
23.794379
 20
4.6
 30
0.0
 11
23.909849
 21
4.8
 31
0.0
  0
LINE
  5
302
  8
0
  6
BYBLOCK
 62
     0
 10
23.51422
 20
4.74
 30
0.0
 11
23.756707
 21
4.6
 31
0.0
  0
LINE
  5
303
  8
0
  6
BYBLOCK
 62
     0
 10
28.49689
 20
4.322
 30
0.0
 11
27.773805
 21
4.322
 31
0.0
  0
LINE
  5
304
  8
0
  6
BYBLOCK
 62
     0
 10
27.626082
 20
4.105012
 30
0.0
 11
28.198525
 21
4.105012
 31
0.0
  0
LINE
  5
305
  8
0
  6
BYBLOCK
 62
     0
 10
27.626082
 20
4.105012
 30
0.0
 11
27.626082
 21
3.930017
 31
0.0
  0
LINE
  5
306
  8
0
  6
BYBLOCK
 62
     0
 10
24.721575
 20
4.105012
 30
0.0
 11
25.282456
 21
3.930017
 31
0.0
  0
LINE
  5
307
  8
0
  6
BYBLOCK
 62
     0
 10
27.626082
 20
3.930017
 30
0.0
 11
25.282456
 21
3.930017
 31
0.0
  0
LINE
  5
308
  8
0
  6
BYBLOCK
 62
     0
 10
25.926581
 20
4.6
 30
0.0
 11
26.221573
 21
4.305007
 31
0.0
  0
LINE
  5
309
  8
0
  6
BYBLOCK
 62
     0
 10
24.775319
 20
4.6
 30
0.0
 11
24.659849
 21
4.8
 31
0.0
  0
LINE
  5
30A
  8
0
  6
BYBLOCK
 62
     0
 10
27.426087
 20
4.305007
 30
0.0
 11
26.221573
 21
4.305007
 31
0.0
  0
LINE
  5
30B
  8
0
  6
BYBLOCK
 62
     0
 10
27.210092
 20
4.305007
 30
0.0
 11
27.426087
 21
4.305007
 31
0.0
  0
LINE
  5
30C
  8
0
  6
BYBLOCK
 62
     0
 10
27.426087
 20
4.305007
 30
0.0
 11
27.626082
 21
4.105012
 31
0.0
  0
LINE
  5
30D
  8
0
  6
BYBLOCK
 62
     0
 10
28.271522
 20
4.6
 30
0.0
 11
28.271522
 21
3.80502
 31
0.0
  0
LINE
  5
30E
  8
0
  6
BYBLOCK
 62
     0
 10
28.198525
 20
3.80502
 30
0.0
 11
28.271522
 21
3.80502
 31
0.0
  0
LINE
  5
30F
  8
0
  6
BYBLOCK
 62
     0
 10
28.098525
 20
4.6
 30
0.0
 11
28.271522
 21
4.6
 31
0.0
  0
LINE
  5
310
  8
0
  6
BYBLOCK
 62
     0
 10
28.098525
 20
4.6
 30
0.0
 11
28.098525
 21
4.105012
 31
0.0
  0
ENDSEC
  0
EOF
