  0
SECTION
  2
HEADER
  9
$ACADVER
  1
AC1009
  9
$INSBASE
 10
0.0
 20
0.0
 30
0.0
  9
$EXTMIN
 10
-14.009535
 20
-9.766372
 30
-0.001526
  9
$EXTMAX
 10
33.15392
 20
9.636084
 30
0.0
  9
$LIMMIN
 10
0.0
 20
0.0
  9
$LIMMAX
 10
12.0
 20
9.0
  9
$ORTHOMODE
 70
     1
  9
$REGENMODE
 70
     1
  9
$FILLMODE
 70
     1
  9
$QTEXTMODE
 70
     0
  9
$MIRRTEXT
 70
     1
  9
$DRAGMODE
 70
     2
  9
$LTSCALE
 40
1.0
  9
$OSMODE
 70
     0
  9
$ATTMODE
 70
     1
  9
$TEXTSIZE
 40
0.2
  9
$TRACEWID
 40
0.05
  9
$TEXTSTYLE
  7
STANDARD
  9
$CLAYER
  8
0
  9
$CELTYPE
  6
BYLAYER
  9
$CECOLOR
 62
   256
  9
$DIMSCALE
 40
1.0
  9
$DIMASZ
 40
0.18
  9
$DIMEXO
 40
0.0625
  9
$DIMDLI
 40
0.38
  9
$DIMRND
 40
0.0
  9
$DIMDLE
 40
0.0
  9
$DIMEXE
 40
0.18
  9
$DIMTP
 40
0.0
  9
$DIMTM
 40
0.0
  9
$DIMTXT
 40
0.18
  9
$DIMCEN
 40
0.09
  9
$DIMTSZ
 40
0.0
  9
$DIMTOL
 70
     0
  9
$DIMLIM
 70
     0
  9
$DIMTIH
 70
     1
  9
$DIMTOH
 70
     1
  9
$DIMSE1
 70
     0
  9
$DIMSE2
 70
     0
  9
$DIMTAD
 70
     0
  9
$DIMZIN
 70
     0
  9
$DIMBLK
  1

  9
$DIMASO
 70
     1
  9
$DIMSHO
 70
     1
  9
$DIMPOST
  1

  9
$DIMAPOST
  1

  9
$DIMALT
 70
     0
  9
$DIMALTD
 70
     2
  9
$DIMALTF
 40
25.4
  9
$DIMLFAC
 40
1.0
  9
$DIMTOFL
 70
     0
  9
$DIMTVP
 40
0.0
  9
$DIMTIX
 70
     0
  9
$DIMSOXD
 70
     0
  9
$DIMSAH
 70
     0
  9
$DIMBLK1
  1

  9
$DIMBLK2
  1

  9
$DIMSTYLE
  2
STANDARD
  9
$DIMCLRD
 70
     0
  9
$DIMCLRE
 70
     0
  9
$DIMCLRT
 70
     0
  9
$DIMTFAC
 40
1.0
  9
$DIMGAP
 40
0.09
  9
$LUNITS
 70
     2
  9
$LUPREC
 70
     4
  9
$SKETCHINC
 40
0.1
  9
$FILLETRAD
 40
0.0
  9
$AUNITS
 70
     0
  9
$AUPREC
 70
     0
  9
$MENU
  1
acad
  9
$ELEVATION
 40
0.0
  9
$PELEVATION
 40
0.0
  9
$THICKNESS
 40
0.0
  9
$LIMCHECK
 70
     0
  9
$BLIPMODE
 70
     1
  9
$CHAMFERA
 40
0.0
  9
$CHAMFERB
 40
0.0
  9
$SKPOLY
 70
     0
  9
$TDCREATE
 40
2451127.583675
  9
$TDUPDATE
 40
2451129.623
  9
$TDINDWG
 40
0.068901
  9
$TDUSRTIMER
 40
0.068901
  9
$USRTIMER
 70
     1
  9
$ANGBASE
 50
0.0
  9
$ANGDIR
 70
     0
  9
$PDMODE
 70
     0
  9
$PDSIZE
 40
0.0
  9
$PLINEWID
 40
0.0
  9
$COORDS
 70
     1
  9
$SPLFRAME
 70
     0
  9
$SPLINETYPE
 70
     6
  9
$SPLINESEGS
 70
     8
  9
$ATTDIA
 70
     0
  9
$ATTREQ
 70
     1
  9
$HANDLING
 70
     1
  9
$HANDSEED
  5
1594
  9
$SURFTAB1
 70
     6
  9
$SURFTAB2
 70
     6
  9
$SURFTYPE
 70
     6
  9
$SURFU
 70
     6
  9
$SURFV
 70
     6
  9
$UCSNAME
  2

  9
$UCSORG
 10
0.0
 20
0.0
 30
0.0
  9
$UCSXDIR
 10
1.0
 20
0.0
 30
0.0
  9
$UCSYDIR
 10
0.0
 20
1.0
 30
0.0
  9
$PUCSNAME
  2

  9
$PUCSORG
 10
0.0
 20
0.0
 30
0.0
  9
$PUCSXDIR
 10
1.0
 20
0.0
 30
0.0
  9
$PUCSYDIR
 10
0.0
 20
1.0
 30
0.0
  9
$USERI1
 70
     0
  9
$USERI2
 70
     0
  9
$USERI3
 70
     0
  9
$USERI4
 70
     0
  9
$USERI5
 70
     0
  9
$USERR1
 40
0.0
  9
$USERR2
 40
0.0
  9
$USERR3
 40
0.0
  9
$USERR4
 40
0.0
  9
$USERR5
 40
0.0
  9
$WORLDVIEW
 70
     1
  9
$SHADEDGE
 70
     3
  9
$SHADEDIF
 70
    70
  9
$TILEMODE
 70
     1
  9
$MAXACTVP
 70
    16
  9
$PLIMCHECK
 70
     0
  9
$PEXTMIN
 10
1.000000E+020
 20
1.000000E+020
 30
1.000000E+020
  9
$PEXTMAX
 10
-1.000000E+020
 20
-1.000000E+020
 30
-1.000000E+020
  9
$PLIMMIN
 10
0.0
 20
0.0
  9
$PLIMMAX
 10
12.0
 20
9.0
  9
$UNITMODE
 70
     0
  9
$VISRETAIN
 70
     0
  9
$PLINEGEN
 70
     0
  9
$PSLTSCALE
 70
     1
  0
ENDSEC
  0
SECTION
  2
TABLES
  0
TABLE
  2
VPORT
 70
     2
  0
VPORT
  2
*ACTIVE
 70
     0
 10
0.0
 20
0.0
 11
1.0
 21
1.0
 12
9.572192
 22
-0.065144
 13
0.0
 23
0.0
 14
1.0
 24
1.0
 15
0.0
 25
0.0
 16
0.0
 26
0.0
 36
1.0
 17
0.0
 27
0.0
 37
0.0
 40
31.166365
 41
1.603066
 42
50.0
 43
0.0
 44
0.0
 50
0.0
 51
0.0
 71
     0
 72
 20000
 73
     1
 74
     0
 75
     0
 76
     0
 77
     0
 78
     1
  0
ENDTAB
  0
TABLE
  2
LTYPE
 70
     3
  0
LTYPE
  2
CONTINUOUS
 70
     0
  3
Solid line
 72
    65
 73
     0
 40
0.0
  0
LTYPE
  2
HIDDEN
 70
     0
  3
__ __ __ __ __ __ __ __ __ __ __ __ __ __ __ __
 72
    65
 73
     2
 40
0.375
 49
0.25
 49
-0.125
  0
LTYPE
  2
CENTER
 70
     0
  3
____ _ ____ _ ____ _ ____ _ ____ _ ____ _ ____ 
 72
    65
 73
     4
 40
2.0
 49
1.25
 49
-0.25
 49
0.25
 49
-0.25
  0
ENDTAB
  0
TABLE
  2
LAYER
 70
     1
  0
LAYER
  2
0
 70
     0
 62
     7
  6
CONTINUOUS
  0
ENDTAB
  0
TABLE
  2
STYLE
 70
     1
  0
STYLE
  2
STANDARD
 70
     0
 40
0.0
 41
1.0
 50
0.0
 71
     0
 42
0.2
  3
txt
  4

  0
ENDTAB
  0
TABLE
  2
VIEW
 70
     0
  0
ENDTAB
  0
TABLE
  2
UCS
 70
     0
  0
ENDTAB
  0
TABLE
  2
APPID
 70
     1
  0
APPID
  2
ACAD
 70
     0
  0
ENDTAB
  0
TABLE
  2
DIMSTYLE
 70
     1
  0
DIMSTYLE
  2
STANDARD
 70
     0
  3

  4

  5

  6

  7

 40
1.0
 41
0.18
 42
0.0625
 43
0.38
 44
0.18
 45
0.0
 46
0.0
 47
0.0
 48
0.0
140
0.18
141
0.09
142
0.0
143
25.4
144
1.0
145
0.0
146
1.0
147
0.09
 71
     0
 72
     0
 73
     1
 74
     1
 75
     0
 76
     0
 77
     0
 78
     0
170
     0
171
     2
172
     0
173
     0
174
     0
175
     0
176
     0
177
     0
178
     0
  0
ENDTAB
  0
ENDSEC
  0
SECTION
  2
BLOCKS
  0
BLOCK
  8
0
  2
$MODEL_SPACE
 70
     0
 10
0.0
 20
0.0
 30
0.0
  3
$MODEL_SPACE
  1

  0
ENDBLK
  5
1C
  8
0
  0
BLOCK
 67
     1
  8
0
  2
$PAPER_SPACE
 70
     0
 10
0.0
 20
0.0
 30
0.0
  3
$PAPER_SPACE
  1

  0
ENDBLK
  5
19
 67
     1
  8
0
  0
ENDSEC
  0
SECTION
  2
ENTITIES
  0
LINE
  5
591
  8
0
  6
BYBLOCK
 62
     0
 10
2.349882
 20
8.11432
 30
0.0
 11
-2.008808
 21
8.11432
 31
0.0
  0
LINE
  5
592
  8
0
  6
BYBLOCK
 62
     0
 10
0.98
 20
4.36432
 30
0.0
 11
-0.98
 21
4.36432
 31
0.0
  0
LINE
  5
595
  8
0
  6
BYBLOCK
 62
     0
 10
-0.98
 20
-2.995492
 30
0.0
 11
-0.98
 21
-7.635492
 31
0.0
  0
LINE
  5
59A
  8
0
  6
BYBLOCK
 62
     0
 10
-13.98
 20
-2.995492
 30
0.0
 11
-13.98
 21
-7.635492
 31
0.0
  0
LINE
  5
5C2
  8
0
  6
BYBLOCK
 62
     0
 10
-12.404109
 20
-8.385492
 30
0.0
 11
-13.48
 21
-8.385492
 31
0.0
  0
LINE
  5
5C4
  8
0
  6
BYBLOCK
 62
     0
 10
-13.98
 20
-7.635492
 30
0.0
 11
-12.404109
 21
-7.635492
 31
0.0
  0
LINE
  5
5C5
  8
0
  6
BYBLOCK
 62
     0
 10
-13.48
 20
-7.635492
 30
0.0
 11
-13.48
 21
-8.385492
 31
0.0
  0
LINE
  5
64D
  8
0
  6
BYBLOCK
 62
     0
 10
-1.48
 20
-7.635492
 30
0.0
 11
-1.48
 21
-8.385492
 31
0.0
  0
LINE
  5
64E
  8
0
  6
BYBLOCK
 62
     0
 10
-1.48
 20
-8.385492
 30
0.0
 11
-2.555891
 21
-8.385492
 31
0.0
  0
LINE
  5
64F
  8
0
  6
BYBLOCK
 62
     0
 10
-0.98
 20
-7.635492
 30
0.0
 11
-2.555891
 21
-7.635492
 31
0.0
  0
LINE
  5
653
  8
0
  6
BYBLOCK
 62
     0
 10
-1.64
 20
3.621918
 30
0.0
 11
-1.64
 21
5.648814
 31
0.0
  0
LINE
  5
654
  8
0
  6
HIDDEN
 62
     0
 10
-1.565
 20
5.86432
 30
0.0
 11
-1.565
 21
4.36432
 31
0.0
  0
LINE
  5
655
  8
0
  6
BYBLOCK
 62
     0
 10
-3.045046
 20
5.45772
 30
0.0
 11
-3.045046
 21
5.69772
 31
0.0
  0
LINE
  5
656
  8
0
  6
BYBLOCK
 62
     0
 10
-5.441601
 20
5.436882
 30
0.0
 11
-5.06871
 21
5.764354
 31
0.0
  0
LINE
  5
657
  8
0
  6
BYBLOCK
 62
     0
 10
-5.402095
 20
5.391723
 30
0.0
 11
-5.029032
 21
5.719346
 31
0.0
  0
CIRCLE
  5
658
  8
0
  6
BYBLOCK
 62
     0
 10
-5.235046
 20
5.57772
 30
0.0
 40
0.25
  0
CIRCLE
  5
659
  8
0
  6
BYBLOCK
 62
     0
 10
-5.235046
 20
5.57772
 30
0.0
 40
0.305
  0
LINE
  5
65A
  8
0
  6
BYBLOCK
 62
     0
 10
-7.425046
 20
5.45772
 30
0.0
 11
-7.425046
 21
5.69772
 31
0.0
  0
LINE
  5
65B
  8
0
  6
BYBLOCK
 62
     0
 10
-7.425046
 20
5.45772
 30
0.0
 11
-7.425046
 21
5.69772
 31
0.0
  0
LINE
  5
65C
  8
0
  6
BYBLOCK
 62
     0
 10
-7.540133
 20
5.45772
 30
0.0
 11
-7.540133
 21
5.69772
 31
0.0
  0
LINE
  5
65D
  8
0
  6
BYBLOCK
 62
     0
 10
-7.540133
 20
5.45772
 30
0.0
 11
-7.540133
 21
5.69772
 31
0.0
  0
LINE
  5
65E
  8
0
  6
BYBLOCK
 62
     0
 10
-2.159858
 20
5.86432
 30
0.0
 11
-2.159858
 21
1.130893
 31
0.0
  0
LINE
  5
65F
  8
0
  6
BYBLOCK
 62
     0
 10
-0.98
 20
2.901918
 30
0.0
 11
-0.98
 21
7.614508
 31
0.0
  0
LINE
  5
660
  8
0
  6
BYBLOCK
 62
     0
 10
-9.563084
 20
5.391723
 30
0.0
 11
-9.936147
 21
5.719346
 31
0.0
  0
LINE
  5
661
  8
0
  6
BYBLOCK
 62
     0
 10
-9.523579
 20
5.436882
 30
0.0
 11
-9.896469
 21
5.764354
 31
0.0
  0
CIRCLE
  5
662
  8
0
  6
BYBLOCK
 62
     0
 10
-9.730133
 20
5.57772
 30
0.0
 40
0.25
  0
CIRCLE
  5
663
  8
0
  6
BYBLOCK
 62
     0
 10
-9.730133
 20
5.57772
 30
0.0
 40
0.305
  0
LINE
  5
664
  8
0
  6
BYBLOCK
 62
     0
 10
-11.920133
 20
5.45772
 30
0.0
 11
-11.920133
 21
5.69772
 31
0.0
  0
LINE
  5
665
  8
0
  6
BYBLOCK
 62
     0
 10
-13.32
 20
3.621918
 30
0.0
 11
-13.32
 21
5.86432
 31
0.0
  0
LINE
  5
666
  8
0
  6
BYBLOCK
 62
     0
 10
-12.800142
 20
5.86432
 30
0.0
 11
-12.800142
 21
1.130893
 31
0.0
  0
LINE
  5
667
  8
0
  6
BYBLOCK
 62
     0
 10
-13.98
 20
2.901918
 30
0.0
 11
-13.98
 21
7.614508
 31
0.0
  0
LINE
  5
668
  8
0
  6
BYBLOCK
 62
     0
 10
-12.800142
 20
3.538466
 30
0.0
 11
-10.039573
 21
3.538466
 31
0.0
  0
ARC
  5
669
  8
0
  6
BYBLOCK
 62
     0
 10
-10.339621
 20
1.010866
 30
0.0
 40
0.060013
 50
90.0
 51
180.0
  0
LINE
  5
66A
  8
0
  6
BYBLOCK
 62
     0
 10
-8.987133
 20
5.19272
 30
0.0
 11
-10.473133
 21
5.19272
 31
0.0
  0
ARC
  5
66B
  8
0
  6
BYBLOCK
 62
     0
 10
-10.339621
 20
-0.589484
 30
0.0
 40
0.060013
 50
180.0
 51
270.0
  0
LINE
  5
66C
  8
0
  6
BYBLOCK
 62
     0
 10
-12.800142
 20
-3.543083
 30
0.0
 11
-10.039573
 21
-3.543083
 31
0.0
  0
LINE
  5
66E
  8
0
  6
BYBLOCK
 62
     0
 10
-8.987133
 20
-5.14343
 30
0.0
 11
-10.473133
 21
-5.14343
 31
0.0
  0
LINE
  5
66F
  8
0
  6
BYBLOCK
 62
     0
 10
-8.987133
 20
-5.91343
 30
0.0
 11
-10.473133
 21
-5.91343
 31
0.0
  0
LINE
  5
670
  8
0
  6
BYBLOCK
 62
     0
 10
-13.32
 20
-5.885305
 30
0.0
 11
-13.32
 21
-0.526143
 31
0.0
  0
LINE
  5
671
  8
0
  6
BYBLOCK
 62
     0
 10
-12.440081
 20
1.010866
 30
0.0
 11
-12.440081
 21
-0.589484
 31
0.0
  0
LINE
  5
672
  8
0
  6
BYBLOCK
 62
     0
 10
-12.800142
 20
-0.70951
 30
0.0
 11
-12.800142
 21
-5.885305
 31
0.0
  0
LINE
  5
673
  8
0
  6
BYBLOCK
 62
     0
 10
-13.32
 20
-5.885305
 30
0.0
 11
-10.512522
 21
-5.885305
 31
0.0
  0
ARC
  5
674
  8
0
  6
BYBLOCK
 62
     0
 10
-13.564563
 20
-5.189079
 30
0.0
 40
0.244563
 50
310.417438
 51
49.582562
  0
ARC
  5
675
  8
0
  6
BYBLOCK
 62
     0
 10
-13.630998
 20
-5.189079
 30
0.0
 40
0.244563
 50
130.417438
 51
229.582562
  0
LINE
  5
676
  8
0
  6
BYBLOCK
 62
     0
 10
-13.32
 20
-5.189079
 30
0.0
 11
-13.32
 21
-4.071906
 31
0.0
  0
LINE
  5
677
  8
0
  6
BYBLOCK
 62
     0
 10
-13.87556
 20
-5.189079
 30
0.0
 11
-13.87556
 21
-4.071906
 31
0.0
  0
LINE
  5
678
  8
0
  6
BYBLOCK
 62
     0
 10
-13.78956
 20
-5.375274
 30
0.0
 11
-13.406
 21
-5.375274
 31
0.0
  0
ARC
  5
679
  8
0
  6
BYBLOCK
 62
     0
 10
-14.16925
 20
-4.630492
 30
0.0
 40
0.84925
 50
333.992176
 51
26.007824
  0
ARC
  5
67A
  8
0
  6
BYBLOCK
 62
     0
 10
-13.02631
 20
-4.630492
 30
0.0
 40
0.84925
 50
153.992176
 51
206.007824
  0
LINE
  5
67B
  8
0
  6
BYBLOCK
 62
     0
 10
-13.78956
 20
-5.002883
 30
0.0
 11
-13.406
 21
-5.002883
 31
0.0
  0
ARC
  5
67C
  8
0
  6
BYBLOCK
 62
     0
 10
-13.564563
 20
-4.071906
 30
0.0
 40
0.244563
 50
310.417438
 51
49.582562
  0
ARC
  5
67D
  8
0
  6
BYBLOCK
 62
     0
 10
-13.630998
 20
-4.071906
 30
0.0
 40
0.244563
 50
130.417438
 51
229.582562
  0
LINE
  5
67E
  8
0
  6
BYBLOCK
 62
     0
 10
-13.78956
 20
-3.88571
 30
0.0
 11
-13.406
 21
-3.88571
 31
0.0
  0
LINE
  5
67F
  8
0
  6
BYBLOCK
 62
     0
 10
-13.78956
 20
-4.258101
 30
0.0
 11
-13.406
 21
-4.258101
 31
0.0
  0
ARC
  5
680
  8
0
  6
BYBLOCK
 62
     0
 10
-10.473133
 20
-5.19043
 30
0.0
 40
0.047
 50
90.0
 51
180.0
  0
LINE
  5
681
  8
0
  6
BYBLOCK
 62
     0
 10
-10.520133
 20
-5.40843
 30
0.0
 11
-11.920133
 21
-5.40843
 31
0.0
  0
LINE
  5
682
  8
0
  6
BYBLOCK
 62
     0
 10
-10.520133
 20
-5.64843
 30
0.0
 11
-11.920133
 21
-5.64843
 31
0.0
  0
LINE
  5
684
  8
0
  6
BYBLOCK
 62
     0
 10
-11.920133
 20
-5.64843
 30
0.0
 11
-11.920133
 21
-5.40843
 31
0.0
  0
LINE
  5
685
  8
0
  6
BYBLOCK
 62
     0
 10
-10.520133
 20
-5.86643
 30
0.0
 11
-10.520133
 21
-5.64843
 31
0.0
  0
ARC
  5
686
  8
0
  6
BYBLOCK
 62
     0
 10
-10.473133
 20
-5.86643
 30
0.0
 40
0.047
 50
180.0
 51
270.0
  0
LINE
  5
687
  8
0
  6
BYBLOCK
 62
     0
 10
-10.520133
 20
-5.40843
 30
0.0
 11
-10.520133
 21
-5.19043
 31
0.0
  0
LINE
  5
688
  8
0
  6
BYBLOCK
 62
     0
 10
-13.98
 20
-2.995492
 30
0.0
 11
-13.32
 21
-2.995492
 31
0.0
  0
ARC
  5
689
  8
0
  6
BYBLOCK
 62
     0
 10
-12.571637
 20
-0.475892
 30
0.0
 40
0.17381
 50
267.21111
 51
319.191257
  0
LINE
  5
68A
  8
0
  6
BYBLOCK
 62
     0
 10
-12.740129
 20
-0.649497
 30
0.0
 11
-12.580094
 21
-0.649497
 31
0.0
  0
ARC
  5
68B
  8
0
  6
BYBLOCK
 62
     0
 10
-12.740129
 20
-0.70951
 30
0.0
 40
0.060013
 50
90.0
 51
180.0
  0
LINE
  5
68C
  8
0
  6
BYBLOCK
 62
     0
 10
-10.693284
 20
3.106553
 30
0.0
 11
-10.693284
 21
1.830445
 31
0.0
  0
LINE
  5
68D
  8
0
  6
BYBLOCK
 62
     0
 10
-12.146431
 20
3.106553
 30
0.0
 11
-12.146431
 21
1.830445
 31
0.0
  0
LINE
  5
68E
  8
0
  6
BYBLOCK
 62
     0
 10
-13.133096
 20
0.541918
 30
0.0
 11
-13.133096
 21
2.901918
 31
0.0
  0
LINE
  5
68F
  8
0
  6
BYBLOCK
 62
     0
 10
-14.008096
 20
0.541918
 30
0.0
 11
-14.008096
 21
2.901918
 31
0.0
  0
LINE
  5
690
  8
0
  6
BYBLOCK
 62
     0
 10
-13.140238
 20
1.056706
 30
0.0
 11
-13.222172
 21
1.291172
 31
0.0
  0
ARC
  5
691
  8
0
  6
BYBLOCK
 62
     0
 10
-13.254082
 20
-0.239336
 30
0.0
 40
0.06
 50
321.135623
 51
0.0
  0
LINE
  5
692
  8
0
  6
BYBLOCK
 62
     0
 10
-13.140238
 20
-0.246974
 30
0.0
 11
-13.222172
 21
-0.481441
 31
0.0
  0
LINE
  5
693
  8
0
  6
BYBLOCK
 62
     0
 10
-13.133096
 20
1.531918
 30
0.0
 11
-14.008096
 21
1.531918
 31
0.0
  0
LINE
  5
694
  8
0
  6
BYBLOCK
 62
     0
 10
-13.133096
 20
0.971918
 30
0.0
 11
-14.008096
 21
0.971918
 31
0.0
  0
LINE
  5
695
  8
0
  6
BYBLOCK
 62
     0
 10
-13.133096
 20
0.541918
 30
0.0
 11
-14.008096
 21
0.541918
 31
0.0
  0
LINE
  5
696
  8
0
  6
BYBLOCK
 62
     0
 10
-13.194082
 20
1.049068
 30
0.0
 11
-13.194082
 21
-0.233498
 31
0.0
  0
LINE
  5
697
  8
0
  6
BYBLOCK
 62
     0
 10
-13.194082
 20
-0.239336
 30
0.0
 11
-13.194082
 21
1.04323
 31
0.0
  0
LINE
  5
698
  8
0
  6
BYBLOCK
 62
     0
 10
-13.315608
 20
-0.466143
 30
0.0
 11
-14.008096
 21
-0.466143
 31
0.0
  0
LINE
  5
699
  8
0
  6
BYBLOCK
 62
     0
 10
-13.315608
 20
-0.526143
 30
0.0
 11
-14.008096
 21
-0.526143
 31
0.0
  0
LINE
  5
69A
  8
0
  6
BYBLOCK
 62
     0
 10
-14.008096
 20
-0.526143
 30
0.0
 11
-14.008096
 21
-0.466143
 31
0.0
  0
ARC
  5
69B
  8
0
  6
BYBLOCK
 62
     0
 10
-13.315608
 20
-0.406143
 30
0.0
 40
0.06
 50
270.0
 51
321.135623
  0
LINE
  5
69C
  8
0
  6
BYBLOCK
 62
     0
 10
-13.194082
 20
-0.233498
 30
0.0
 11
-13.26889
 21
-0.443792
 31
0.0
  0
ARC
  5
69D
  8
0
  6
BYBLOCK
 62
     0
 10
-13.315608
 20
-0.406143
 30
0.0
 40
0.12
 50
270.0
 51
321.135623
  0
LINE
  5
69E
  8
0
  6
BYBLOCK
 62
     0
 10
-13.68625
 20
0.788918
 30
0.0
 11
-13.454941
 21
0.788918
 31
0.0
  0
LINE
  5
69F
  8
0
  6
BYBLOCK
 62
     0
 10
-13.68625
 20
0.724918
 30
0.0
 11
-13.454941
 21
0.724918
 31
0.0
  0
CIRCLE
  5
6A0
  8
0
  6
BYBLOCK
 62
     0
 10
-13.570596
 20
0.756918
 30
0.0
 40
0.12
  0
LINE
  5
6A1
  8
0
  6
BYBLOCK
 62
     0
 10
-13.948096
 20
1.406918
 30
0.0
 11
-13.388096
 21
1.406918
 31
0.0
  0
LINE
  5
6A2
  8
0
  6
BYBLOCK
 62
     0
 10
-13.948096
 20
1.156918
 30
0.0
 11
-13.388096
 21
1.156918
 31
0.0
  0
LINE
  5
6A3
  8
0
  6
BYBLOCK
 62
     0
 10
-13.315608
 20
1.275875
 30
0.0
 11
-14.008096
 21
1.275875
 31
0.0
  0
LINE
  5
6A4
  8
0
  6
BYBLOCK
 62
     0
 10
-13.315608
 20
1.335875
 30
0.0
 11
-14.008096
 21
1.335875
 31
0.0
  0
LINE
  5
6A5
  8
0
  6
BYBLOCK
 62
     0
 10
-14.008096
 20
1.335875
 30
0.0
 11
-14.008096
 21
1.275875
 31
0.0
  0
LINE
  5
6A6
  8
0
  6
BYBLOCK
 62
     0
 10
-13.948096
 20
1.156918
 30
0.0
 11
-13.948096
 21
1.406918
 31
0.0
  0
ARC
  5
6A7
  8
0
  6
BYBLOCK
 62
     0
 10
-13.315608
 20
1.215875
 30
0.0
 40
0.06
 50
38.864377
 51
90.0
  0
ARC
  5
6A8
  8
0
  6
BYBLOCK
 62
     0
 10
-13.315608
 20
1.215875
 30
0.0
 40
0.12
 50
38.864377
 51
90.0
  0
LINE
  5
6A9
  8
0
  6
BYBLOCK
 62
     0
 10
-13.388096
 20
1.156918
 30
0.0
 11
-13.388096
 21
1.406918
 31
0.0
  0
LINE
  5
6AA
  8
0
  6
BYBLOCK
 62
     0
 10
-13.194082
 20
1.04323
 30
0.0
 11
-13.26889
 21
1.253524
 31
0.0
  0
LINE
  5
6AB
  8
0
  6
BYBLOCK
 62
     0
 10
-13.68625
 20
1.974918
 30
0.0
 11
-13.454941
 21
1.974918
 31
0.0
  0
LINE
  5
6AC
  8
0
  6
BYBLOCK
 62
     0
 10
-13.68625
 20
2.038918
 30
0.0
 11
-13.454941
 21
2.038918
 31
0.0
  0
CIRCLE
  5
6AD
  8
0
  6
BYBLOCK
 62
     0
 10
-13.570596
 20
2.006918
 30
0.0
 40
0.12
  0
LINE
  5
6AE
  8
0
  6
BYBLOCK
 62
     0
 10
-13.140238
 20
-0.246974
 30
0.0
 11
-13.140238
 21
1.056706
 31
0.0
  0
LINE
  5
6AF
  8
0
  6
BYBLOCK
 62
     0
 10
-12.146431
 20
0.845868
 30
0.0
 11
-10.693284
 21
0.845868
 31
0.0
  0
LINE
  5
6B0
  8
0
  6
BYBLOCK
 62
     0
 10
-12.146431
 20
-0.430239
 30
0.0
 11
-10.693284
 21
-0.430239
 31
0.0
  0
LINE
  5
6B1
  8
0
  6
BYBLOCK
 62
     0
 10
-12.146431
 20
0.845868
 30
0.0
 11
-12.146431
 21
-0.430239
 31
0.0
  0
ARC
  5
6B2
  8
0
  6
BYBLOCK
 62
     0
 10
-13.260238
 20
-0.246974
 30
0.0
 40
0.12
 50
321.135623
 51
0.0
  0
LINE
  5
6B3
  8
0
  6
BYBLOCK
 62
     0
 10
-10.693284
 20
0.845868
 30
0.0
 11
-10.693284
 21
-0.430239
 31
0.0
  0
LINE
  5
6B4
  8
0
  6
BYBLOCK
 62
     0
 10
-12.146431
 20
1.830445
 30
0.0
 11
-10.693284
 21
1.830445
 31
0.0
  0
ARC
  5
6B5
  8
0
  6
BYBLOCK
 62
     0
 10
-12.571637
 20
0.897275
 30
0.0
 40
0.17381
 50
40.808743
 51
92.78889
  0
LINE
  5
6B6
  8
0
  6
BYBLOCK
 62
     0
 10
-12.740129
 20
1.07088
 30
0.0
 11
-12.580094
 21
1.07088
 31
0.0
  0
ARC
  5
6B7
  8
0
  6
BYBLOCK
 62
     0
 10
-12.740129
 20
1.130893
 30
0.0
 40
0.060013
 50
180.0
 51
270.0
  0
ARC
  5
6B8
  8
0
  6
BYBLOCK
 62
     0
 10
-12.740129
 20
1.130893
 30
0.0
 40
0.060013
 50
180.0
 51
270.0
  0
LINE
  5
6B9
  8
0
  6
BYBLOCK
 62
     0
 10
-13.163096
 20
3.021918
 30
0.0
 11
-13.978096
 21
3.021918
 31
0.0
  0
LINE
  5
6BA
  8
0
  6
BYBLOCK
 62
     0
 10
-13.133096
 20
2.901918
 30
0.0
 11
-14.008096
 21
2.901918
 31
0.0
  0
LINE
  5
6BB
  8
0
  6
BYBLOCK
 62
     0
 10
-13.600596
 20
3.021918
 30
0.0
 11
-13.600596
 21
3.271918
 31
0.0
  0
LINE
  5
6BC
  8
0
  6
BYBLOCK
 62
     0
 10
-13.193096
 20
3.021918
 30
0.0
 11
-13.193096
 21
3.621918
 31
0.0
  0
LINE
  5
6BD
  8
0
  6
BYBLOCK
 62
     0
 10
-13.540596
 20
3.021918
 30
0.0
 11
-13.540596
 21
3.621918
 31
0.0
  0
LINE
  5
6BE
  8
0
  6
BYBLOCK
 62
     0
 10
-13.616596
 20
3.021918
 30
0.0
 11
-13.616596
 21
3.271918
 31
0.0
  0
LINE
  5
6BF
  8
0
  6
BYBLOCK
 62
     0
 10
-13.948096
 20
3.021918
 30
0.0
 11
-13.948096
 21
3.271918
 31
0.0
  0
LINE
  5
6C0
  8
0
  6
BYBLOCK
 62
     0
 10
-13.932096
 20
3.021918
 30
0.0
 11
-13.932096
 21
3.271918
 31
0.0
  0
LINE
  5
6C1
  8
0
  6
BYBLOCK
 62
     0
 10
-13.978096
 20
2.901918
 30
0.0
 11
-13.978096
 21
3.021918
 31
0.0
  0
LINE
  5
6C2
  8
0
  6
BYBLOCK
 62
     0
 10
-13.570596
 20
2.901918
 30
0.0
 11
-13.570596
 21
3.021918
 31
0.0
  0
LINE
  5
6C3
  8
0
  6
BYBLOCK
 62
     0
 10
-13.758346
 20
3.215065
 30
0.0
 11
-13.758346
 21
3.078772
 31
0.0
  0
LINE
  5
6C4
  8
0
  6
BYBLOCK
 62
     0
 10
-13.790346
 20
3.215065
 30
0.0
 11
-13.790346
 21
3.078772
 31
0.0
  0
CIRCLE
  5
6C5
  8
0
  6
BYBLOCK
 62
     0
 10
-13.774346
 20
3.146918
 30
0.0
 40
0.07
  0
LINE
  5
6C6
  8
0
  6
BYBLOCK
 62
     0
 10
-13.600596
 20
3.271918
 30
0.0
 11
-13.948096
 21
3.271918
 31
0.0
  0
LINE
  5
6C7
  8
0
  6
BYBLOCK
 62
     0
 10
-13.193096
 20
3.621918
 30
0.0
 11
-13.540596
 21
3.621918
 31
0.0
  0
LINE
  5
6C8
  8
0
  6
BYBLOCK
 62
     0
 10
-13.193096
 20
3.371918
 30
0.0
 11
-13.540596
 21
3.371918
 31
0.0
  0
LINE
  5
6C9
  8
0
  6
BYBLOCK
 62
     0
 10
-13.209096
 20
3.371918
 30
0.0
 11
-13.209096
 21
3.621918
 31
0.0
  0
LINE
  5
6CA
  8
0
  6
BYBLOCK
 62
     0
 10
-13.524596
 20
3.371918
 30
0.0
 11
-13.524596
 21
3.621918
 31
0.0
  0
LINE
  5
6CB
  8
0
  6
BYBLOCK
 62
     0
 10
-13.350846
 20
3.565065
 30
0.0
 11
-13.350846
 21
3.428772
 31
0.0
  0
LINE
  5
6CC
  8
0
  6
BYBLOCK
 62
     0
 10
-13.382846
 20
3.565065
 30
0.0
 11
-13.382846
 21
3.428772
 31
0.0
  0
CIRCLE
  5
6CD
  8
0
  6
BYBLOCK
 62
     0
 10
-13.366846
 20
3.496918
 30
0.0
 40
0.07
  0
LINE
  5
6CE
  8
0
  6
BYBLOCK
 62
     0
 10
-12.146431
 20
3.106553
 30
0.0
 11
-10.693284
 21
3.106553
 31
0.0
  0
LINE
  5
6CF
  8
0
  6
BYBLOCK
 62
     0
 10
-13.163096
 20
2.901918
 30
0.0
 11
-13.163096
 21
3.021918
 31
0.0
  0
LINE
  5
6D0
  8
0
  6
BYBLOCK
 62
     0
 10
-10.520133
 20
5.45772
 30
0.0
 11
-11.920133
 21
5.45772
 31
0.0
  0
LINE
  5
6D1
  8
0
  6
BYBLOCK
 62
     0
 10
-12.42135
 20
4.149837
 30
0.0
 11
-10.418365
 21
4.149837
 31
0.0
  0
LINE
  5
6D2
  8
0
  6
BYBLOCK
 62
     0
 10
-12.42135
 20
5.187589
 30
0.0
 11
-10.418365
 21
5.187589
 31
0.0
  0
LINE
  5
6D3
  8
0
  6
BYBLOCK
 62
     0
 10
-12.42135
 20
5.187589
 30
0.0
 11
-12.42135
 21
4.149837
 31
0.0
  0
LINE
  5
6D4
  8
0
  6
BYBLOCK
 62
     0
 10
-10.418365
 20
5.187589
 30
0.0
 11
-10.418365
 21
4.149837
 31
0.0
  0
ARC
  5
6D5
  8
0
  6
BYBLOCK
 62
     0
 10
-10.473133
 20
5.23972
 30
0.0
 40
0.047
 50
180.0
 51
270.0
  0
LINE
  5
6D6
  8
0
  6
BYBLOCK
 62
     0
 10
-10.520133
 20
5.23972
 30
0.0
 11
-10.520133
 21
5.45772
 31
0.0
  0
LINE
  5
6D7
  8
0
  6
BYBLOCK
 62
     0
 10
-1.64
 20
-5.885305
 30
0.0
 11
-1.64
 21
-0.526143
 31
0.0
  0
LINE
  5
6D8
  8
0
  6
BYBLOCK
 62
     0
 10
-2.519919
 20
1.010866
 30
0.0
 11
-2.519919
 21
-0.589484
 31
0.0
  0
LINE
  5
6D9
  8
0
  6
BYBLOCK
 62
     0
 10
-4.560366
 20
1.010866
 30
0.0
 11
-4.560366
 21
-0.589484
 31
0.0
  0
LINE
  5
6DA
  8
0
  6
BYBLOCK
 62
     0
 10
-6.459777
 20
1.010866
 30
0.0
 11
-6.459777
 21
-0.589484
 31
0.0
  0
LINE
  5
6DB
  8
0
  6
BYBLOCK
 62
     0
 10
-8.500223
 20
1.010866
 30
0.0
 11
-8.500223
 21
-0.589484
 31
0.0
  0
LINE
  5
6DC
  8
0
  6
BYBLOCK
 62
     0
 10
-10.399634
 20
1.010866
 30
0.0
 11
-10.399634
 21
-0.589484
 31
0.0
  0
LINE
  5
6DD
  8
0
  6
BYBLOCK
 62
     0
 10
-5.785216
 20
2.589508
 30
0.0
 11
-5.785216
 21
-2.610492
 31
0.0
  0
LINE
  5
6DE
  8
0
  6
BYBLOCK
 62
     0
 10
-5.235216
 20
2.589508
 30
0.0
 11
-5.235216
 21
-2.610492
 31
0.0
  0
LINE
  5
6DF
  8
0
  6
BYBLOCK
 62
     0
 10
-9.175073
 20
2.589508
 30
0.0
 11
-9.175073
 21
-2.610492
 31
0.0
  0
LINE
  5
6E0
  8
0
  6
BYBLOCK
 62
     0
 10
-9.725073
 20
2.589508
 30
0.0
 11
-9.725073
 21
-2.610492
 31
0.0
  0
LINE
  5
6E1
  8
0
  6
BYBLOCK
 62
     0
 10
-4.860414
 20
-0.649497
 30
0.0
 11
-4.700379
 21
-0.649497
 31
0.0
  0
LINE
  5
6E2
  8
0
  6
BYBLOCK
 62
     0
 10
-4.920427
 20
-3.543083
 30
0.0
 11
-2.159858
 21
-3.543083
 31
0.0
  0
LINE
  5
6E3
  8
0
  6
BYBLOCK
 62
     0
 10
-5.978046
 20
-5.14343
 30
0.0
 11
-4.492046
 21
-5.14343
 31
0.0
  0
LINE
  5
6E4
  8
0
  6
BYBLOCK
 62
     0
 10
-5.978046
 20
-5.91343
 30
0.0
 11
-4.492046
 21
-5.91343
 31
0.0
  0
LINE
  5
6E6
  8
0
  6
BYBLOCK
 62
     0
 10
-4.920427
 20
-0.70951
 30
0.0
 11
-4.920427
 21
-5.14343
 31
0.0
  0
LINE
  5
6E7
  8
0
  6
BYBLOCK
 62
     0
 10
-6.099716
 20
-0.70951
 30
0.0
 11
-6.099716
 21
-5.40843
 31
0.0
  0
LINE
  5
6E8
  8
0
  6
BYBLOCK
 62
     0
 10
-8.860284
 20
-0.70951
 30
0.0
 11
-8.860284
 21
-5.40843
 31
0.0
  0
LINE
  5
6E9
  8
0
  6
BYBLOCK
 62
     0
 10
-10.039573
 20
-0.70951
 30
0.0
 11
-10.039573
 21
-5.14343
 31
0.0
  0
LINE
  5
6EA
  8
0
  6
BYBLOCK
 62
     0
 10
-7.540133
 20
-5.40843
 30
0.0
 11
-8.940133
 21
-5.40843
 31
0.0
  0
LINE
  5
6EB
  8
0
  6
BYBLOCK
 62
     0
 10
-7.540133
 20
-5.64843
 30
0.0
 11
-8.940133
 21
-5.64843
 31
0.0
  0
LINE
  5
6ED
  8
0
  6
BYBLOCK
 62
     0
 10
-8.948004
 20
-5.885305
 30
0.0
 11
-6.017175
 21
-5.885305
 31
0.0
  0
ARC
  5
6EE
  8
0
  6
BYBLOCK
 62
     0
 10
-8.987133
 20
-5.19043
 30
0.0
 40
0.047
 50
0.0
 51
90.0
  0
LINE
  5
6F0
  8
0
  6
BYBLOCK
 62
     0
 10
-9.523579
 20
-5.669268
 30
0.0
 11
-9.896469
 21
-5.341796
 31
0.0
  0
LINE
  5
6F1
  8
0
  6
BYBLOCK
 62
     0
 10
-9.563084
 20
-5.714427
 30
0.0
 11
-9.936147
 21
-5.386804
 31
0.0
  0
CIRCLE
  5
6F2
  8
0
  6
BYBLOCK
 62
     0
 10
-9.730133
 20
-5.52843
 30
0.0
 40
0.25
  0
CIRCLE
  5
6F3
  8
0
  6
BYBLOCK
 62
     0
 10
-9.730133
 20
-5.52843
 30
0.0
 40
0.305
  0
LINE
  5
6F5
  8
0
  6
BYBLOCK
 62
     0
 10
-8.860284
 20
-5.64843
 30
0.0
 11
-8.860284
 21
-5.885305
 31
0.0
  0
LINE
  5
6F6
  8
0
  6
BYBLOCK
 62
     0
 10
-8.940133
 20
-5.86643
 30
0.0
 11
-8.940133
 21
-5.64843
 31
0.0
  0
ARC
  5
6F7
  8
0
  6
BYBLOCK
 62
     0
 10
-8.987133
 20
-5.86643
 30
0.0
 40
0.047
 50
270.0
 51
0.0
  0
LINE
  5
6F8
  8
0
  6
BYBLOCK
 62
     0
 10
-8.940133
 20
-5.40843
 30
0.0
 11
-8.940133
 21
-5.19043
 31
0.0
  0
ARC
  5
6F9
  8
0
  6
BYBLOCK
 62
     0
 10
-5.978046
 20
-5.19043
 30
0.0
 40
0.047
 50
90.0
 51
180.0
  0
LINE
  5
6FA
  8
0
  6
BYBLOCK
 62
     0
 10
-7.425046
 20
-5.40843
 30
0.0
 11
-6.025046
 21
-5.40843
 31
0.0
  0
LINE
  5
6FB
  8
0
  6
BYBLOCK
 62
     0
 10
-7.425046
 20
-5.64843
 30
0.0
 11
-6.025046
 21
-5.64843
 31
0.0
  0
LINE
  5
6FD
  8
0
  6
BYBLOCK
 62
     0
 10
-7.425046
 20
-5.64843
 30
0.0
 11
-7.425046
 21
-5.40843
 31
0.0
  0
LINE
  5
6FE
  8
0
  6
BYBLOCK
 62
     0
 10
-7.425046
 20
-5.64843
 30
0.0
 11
-7.425046
 21
-5.40843
 31
0.0
  0
LINE
  5
6FF
  8
0
  6
BYBLOCK
 62
     0
 10
-7.540133
 20
-5.64843
 30
0.0
 11
-7.540133
 21
-5.40843
 31
0.0
  0
LINE
  5
700
  8
0
  6
BYBLOCK
 62
     0
 10
-7.540133
 20
-5.64843
 30
0.0
 11
-7.540133
 21
-5.40843
 31
0.0
  0
LINE
  5
701
  8
0
  6
BYBLOCK
 62
     0
 10
-6.025046
 20
-5.86643
 30
0.0
 11
-6.025046
 21
-5.64843
 31
0.0
  0
ARC
  5
702
  8
0
  6
BYBLOCK
 62
     0
 10
-5.978046
 20
-5.86643
 30
0.0
 40
0.047
 50
180.0
 51
270.0
  0
LINE
  5
703
  8
0
  6
BYBLOCK
 62
     0
 10
-6.104895
 20
-5.64843
 30
0.0
 11
-6.104895
 21
-5.885305
 31
0.0
  0
LINE
  5
704
  8
0
  6
BYBLOCK
 62
     0
 10
-6.025046
 20
-5.40843
 30
0.0
 11
-6.025046
 21
-5.19043
 31
0.0
  0
LINE
  5
705
  8
0
  6
BYBLOCK
 62
     0
 10
-5.402095
 20
-5.714427
 30
0.0
 11
-5.029032
 21
-5.386804
 31
0.0
  0
LINE
  5
706
  8
0
  6
BYBLOCK
 62
     0
 10
-5.441601
 20
-5.669268
 30
0.0
 11
-5.06871
 21
-5.341796
 31
0.0
  0
CIRCLE
  5
707
  8
0
  6
BYBLOCK
 62
     0
 10
-5.235046
 20
-5.52843
 30
0.0
 40
0.25
  0
CIRCLE
  5
708
  8
0
  6
BYBLOCK
 62
     0
 10
-5.235046
 20
-5.52843
 30
0.0
 40
0.305
  0
LINE
  5
709
  8
0
  6
BYBLOCK
 62
     0
 10
-8.860284
 20
-3.543083
 30
0.0
 11
-6.099716
 21
-3.543083
 31
0.0
  0
LINE
  5
70A
  8
0
  6
BYBLOCK
 62
     0
 10
-9.175073
 20
-2.610492
 30
0.0
 11
-9.725073
 21
-2.610492
 31
0.0
  0
ARC
  5
70B
  8
0
  6
BYBLOCK
 62
     0
 10
-10.099586
 20
-0.70951
 30
0.0
 40
0.060013
 50
0.0
 51
90.0
  0
LINE
  5
70C
  8
0
  6
BYBLOCK
 62
     0
 10
-10.099586
 20
-0.649497
 30
0.0
 11
-10.339621
 21
-0.649497
 31
0.0
  0
ARC
  5
70D
  8
0
  6
BYBLOCK
 62
     0
 10
-8.800271
 20
-0.70951
 30
0.0
 40
0.060013
 50
90.0
 51
180.0
  0
LINE
  5
70E
  8
0
  6
BYBLOCK
 62
     0
 10
-8.800271
 20
-0.649497
 30
0.0
 11
-8.640236
 21
-0.649497
 31
0.0
  0
ARC
  5
70F
  8
0
  6
BYBLOCK
 62
     0
 10
-8.631779
 20
-0.475892
 30
0.0
 40
0.17381
 50
267.21111
 51
319.191257
  0
LINE
  5
710
  8
0
  6
BYBLOCK
 62
     0
 10
-5.235216
 20
-2.610492
 30
0.0
 11
-5.785216
 21
-2.610492
 31
0.0
  0
LINE
  5
711
  8
0
  6
BYBLOCK
 62
     0
 10
-6.159729
 20
-0.649497
 30
0.0
 11
-6.399764
 21
-0.649497
 31
0.0
  0
ARC
  5
712
  8
0
  6
BYBLOCK
 62
     0
 10
-6.399764
 20
-0.589484
 30
0.0
 40
0.060013
 50
180.0
 51
270.0
  0
ARC
  5
713
  8
0
  6
BYBLOCK
 62
     0
 10
-6.159729
 20
-0.70951
 30
0.0
 40
0.060013
 50
0.0
 51
90.0
  0
ARC
  5
714
  8
0
  6
BYBLOCK
 62
     0
 10
-4.860414
 20
-0.70951
 30
0.0
 40
0.060013
 50
90.0
 51
180.0
  0
LINE
  5
715
  8
0
  6
BYBLOCK
 62
     0
 10
-2.159858
 20
-0.70951
 30
0.0
 11
-2.159858
 21
-5.885305
 31
0.0
  0
LINE
  5
716
  8
0
  6
BYBLOCK
 62
     0
 10
-4.447369
 20
-5.885305
 30
0.0
 11
-1.64
 21
-5.885305
 31
0.0
  0
ARC
  5
717
  8
0
  6
BYBLOCK
 62
     0
 10
-4.492046
 20
-5.19043
 30
0.0
 40
0.047
 50
0.0
 51
90.0
  0
LINE
  5
718
  8
0
  6
BYBLOCK
 62
     0
 10
-4.445046
 20
-5.40843
 30
0.0
 11
-3.045046
 21
-5.40843
 31
0.0
  0
LINE
  5
719
  8
0
  6
BYBLOCK
 62
     0
 10
-4.445046
 20
-5.64843
 30
0.0
 11
-3.045046
 21
-5.64843
 31
0.0
  0
LINE
  5
71B
  8
0
  6
BYBLOCK
 62
     0
 10
-4.445046
 20
-5.86643
 30
0.0
 11
-4.445046
 21
-5.64843
 31
0.0
  0
ARC
  5
71C
  8
0
  6
BYBLOCK
 62
     0
 10
-4.492046
 20
-5.86643
 30
0.0
 40
0.047
 50
270.0
 51
0.0
  0
LINE
  5
71D
  8
0
  6
BYBLOCK
 62
     0
 10
-4.445046
 20
-5.40843
 30
0.0
 11
-4.445046
 21
-5.19043
 31
0.0
  0
LINE
  5
71F
  8
0
  6
BYBLOCK
 62
     0
 10
-3.045046
 20
-5.64843
 30
0.0
 11
-3.045046
 21
-5.40843
 31
0.0
  0
ARC
  5
720
  8
0
  6
BYBLOCK
 62
     0
 10
-4.691922
 20
-0.475892
 30
0.0
 40
0.17381
 50
267.21111
 51
319.191257
  0
ARC
  5
721
  8
0
  6
BYBLOCK
 62
     0
 10
-2.219871
 20
-0.70951
 30
0.0
 40
0.060013
 50
0.0
 51
90.0
  0
ARC
  5
722
  8
0
  6
BYBLOCK
 62
     0
 10
-2.459906
 20
-0.589484
 30
0.0
 40
0.060013
 50
180.0
 51
270.0
  0
LINE
  5
723
  8
0
  6
BYBLOCK
 62
     0
 10
-2.219871
 20
-0.649497
 30
0.0
 11
-2.459906
 21
-0.649497
 31
0.0
  0
LINE
  5
724
  8
0
  6
BYBLOCK
 62
     0
 10
-0.98
 20
-2.995492
 30
0.0
 11
-1.64
 21
-2.995492
 31
0.0
  0
LINE
  5
725
  8
0
  6
BYBLOCK
 62
     0
 10
-5.978046
 20
5.19272
 30
0.0
 11
-4.492046
 21
5.19272
 31
0.0
  0
LINE
  5
726
  8
0
  6
BYBLOCK
 62
     0
 10
-4.860414
 20
1.07088
 30
0.0
 11
-4.700379
 21
1.07088
 31
0.0
  0
LINE
  5
727
  8
0
  6
BYBLOCK
 62
     0
 10
-2.159858
 20
3.54982
 30
0.0
 11
-4.920427
 21
3.54982
 31
0.0
  0
LINE
  5
728
  8
0
  6
BYBLOCK
 62
     0
 10
-6.753427
 20
3.106553
 30
0.0
 11
-6.753427
 21
1.830445
 31
0.0
  0
LINE
  5
729
  8
0
  6
BYBLOCK
 62
     0
 10
-8.206573
 20
3.106553
 30
0.0
 11
-8.206573
 21
1.830445
 31
0.0
  0
LINE
  5
72A
  8
0
  6
BYBLOCK
 62
     0
 10
-4.920427
 20
5.19272
 30
0.0
 11
-4.920427
 21
1.130893
 31
0.0
  0
LINE
  5
72B
  8
0
  6
BYBLOCK
 62
     0
 10
-6.099716
 20
5.45772
 30
0.0
 11
-6.099716
 21
1.130893
 31
0.0
  0
LINE
  5
72C
  8
0
  6
BYBLOCK
 62
     0
 10
-8.860284
 20
5.390174
 30
0.0
 11
-8.860284
 21
1.130893
 31
0.0
  0
LINE
  5
72D
  8
0
  6
BYBLOCK
 62
     0
 10
-10.039573
 20
5.19272
 30
0.0
 11
-10.039573
 21
1.130893
 31
0.0
  0
LINE
  5
72E
  8
0
  6
BYBLOCK
 62
     0
 10
-8.206573
 20
1.830445
 30
0.0
 11
-6.753427
 21
1.830445
 31
0.0
  0
LINE
  5
72F
  8
0
  6
BYBLOCK
 62
     0
 10
-8.206573
 20
0.845868
 30
0.0
 11
-6.753427
 21
0.845868
 31
0.0
  0
LINE
  5
730
  8
0
  6
BYBLOCK
 62
     0
 10
-8.206573
 20
-0.430239
 30
0.0
 11
-6.753427
 21
-0.430239
 31
0.0
  0
LINE
  5
731
  8
0
  6
BYBLOCK
 62
     0
 10
-8.206573
 20
0.845868
 30
0.0
 11
-8.206573
 21
-0.430239
 31
0.0
  0
ARC
  5
732
  8
0
  6
BYBLOCK
 62
     0
 10
-10.099586
 20
1.130893
 30
0.0
 40
0.060013
 50
270.0
 51
0.0
  0
LINE
  5
733
  8
0
  6
BYBLOCK
 62
     0
 10
-10.099586
 20
1.07088
 30
0.0
 11
-10.339621
 21
1.07088
 31
0.0
  0
ARC
  5
734
  8
0
  6
BYBLOCK
 62
     0
 10
-8.800271
 20
1.130893
 30
0.0
 40
0.060013
 50
180.0
 51
270.0
  0
LINE
  5
735
  8
0
  6
BYBLOCK
 62
     0
 10
-8.800271
 20
1.07088
 30
0.0
 11
-8.640236
 21
1.07088
 31
0.0
  0
ARC
  5
736
  8
0
  6
BYBLOCK
 62
     0
 10
-8.631779
 20
0.897275
 30
0.0
 40
0.17381
 50
40.808743
 51
92.78889
  0
LINE
  5
737
  8
0
  6
BYBLOCK
 62
     0
 10
-6.753427
 20
0.845868
 30
0.0
 11
-6.753427
 21
-0.430239
 31
0.0
  0
LINE
  5
738
  8
0
  6
BYBLOCK
 62
     0
 10
-6.159729
 20
1.07088
 30
0.0
 11
-6.399764
 21
1.07088
 31
0.0
  0
ARC
  5
739
  8
0
  6
BYBLOCK
 62
     0
 10
-6.399764
 20
1.010866
 30
0.0
 40
0.060013
 50
90.0
 51
180.0
  0
ARC
  5
73A
  8
0
  6
BYBLOCK
 62
     0
 10
-6.159729
 20
1.130893
 30
0.0
 40
0.060013
 50
270.0
 51
0.0
  0
ARC
  5
73B
  8
0
  6
BYBLOCK
 62
     0
 10
-4.860414
 20
1.130893
 30
0.0
 40
0.060013
 50
180.0
 51
270.0
  0
LINE
  5
73C
  8
0
  6
BYBLOCK
 62
     0
 10
-7.540133
 20
5.45772
 30
0.0
 11
-8.940133
 21
5.45772
 31
0.0
  0
LINE
  5
73D
  8
0
  6
BYBLOCK
 62
     0
 10
-8.481493
 20
4.149837
 30
0.0
 11
-6.478507
 21
4.149837
 31
0.0
  0
LINE
  5
73E
  8
0
  6
BYBLOCK
 62
     0
 10
-8.481493
 20
5.187589
 30
0.0
 11
-6.478507
 21
5.187589
 31
0.0
  0
LINE
  5
73F
  8
0
  6
BYBLOCK
 62
     0
 10
-8.860284
 20
3.538466
 30
0.0
 11
-6.099716
 21
3.538466
 31
0.0
  0
LINE
  5
740
  8
0
  6
BYBLOCK
 62
     0
 10
-8.206573
 20
3.106553
 30
0.0
 11
-6.753427
 21
3.106553
 31
0.0
  0
LINE
  5
741
  8
0
  6
BYBLOCK
 62
     0
 10
-9.175073
 20
2.589508
 30
0.0
 11
-9.725073
 21
2.589508
 31
0.0
  0
LINE
  5
742
  8
0
  6
BYBLOCK
 62
     0
 10
-8.481493
 20
5.187589
 30
0.0
 11
-8.481493
 21
4.149837
 31
0.0
  0
ARC
  5
743
  8
0
  6
BYBLOCK
 62
     0
 10
-8.987133
 20
5.23972
 30
0.0
 40
0.047
 50
270.0
 51
0.0
  0
LINE
  5
744
  8
0
  6
BYBLOCK
 62
     0
 10
-8.940133
 20
5.23972
 30
0.0
 11
-8.940133
 21
5.45772
 31
0.0
  0
LINE
  5
745
  8
0
  6
BYBLOCK
 62
     0
 10
-8.860284
 20
5.45772
 30
0.0
 11
-8.860284
 21
5.220845
 31
0.0
  0
LINE
  5
746
  8
0
  6
BYBLOCK
 62
     0
 10
-5.235216
 20
2.589508
 30
0.0
 11
-5.785216
 21
2.589508
 31
0.0
  0
LINE
  5
747
  8
0
  6
BYBLOCK
 62
     0
 10
-7.425046
 20
5.45772
 30
0.0
 11
-6.025046
 21
5.45772
 31
0.0
  0
LINE
  5
748
  8
0
  6
BYBLOCK
 62
     0
 10
-6.478507
 20
5.187589
 30
0.0
 11
-6.478507
 21
4.149837
 31
0.0
  0
ARC
  5
749
  8
0
  6
BYBLOCK
 62
     0
 10
-5.978046
 20
5.23972
 30
0.0
 40
0.047
 50
180.0
 51
270.0
  0
LINE
  5
74A
  8
0
  6
BYBLOCK
 62
     0
 10
-6.025046
 20
5.23972
 30
0.0
 11
-6.025046
 21
5.45772
 31
0.0
  0
LINE
  5
74B
  8
0
  6
BYBLOCK
 62
     0
 10
-2.813569
 20
3.106553
 30
0.0
 11
-2.813569
 21
1.830445
 31
0.0
  0
LINE
  5
74C
  8
0
  6
BYBLOCK
 62
     0
 10
-4.266716
 20
3.106553
 30
0.0
 11
-4.266716
 21
1.830445
 31
0.0
  0
LINE
  5
74D
  8
0
  6
BYBLOCK
 62
     0
 10
-1.855
 20
0.541918
 30
0.0
 11
-1.855
 21
2.901918
 31
0.0
  0
LINE
  5
74E
  8
0
  6
BYBLOCK
 62
     0
 10
-0.98
 20
0.541918
 30
0.0
 11
-0.98
 21
2.901918
 31
0.0
  0
LINE
  5
74F
  8
0
  6
BYBLOCK
 62
     0
 10
-4.266716
 20
0.845868
 30
0.0
 11
-2.813569
 21
0.845868
 31
0.0
  0
LINE
  5
750
  8
0
  6
BYBLOCK
 62
     0
 10
-4.266716
 20
-0.430239
 30
0.0
 11
-2.813569
 21
-0.430239
 31
0.0
  0
LINE
  5
751
  8
0
  6
BYBLOCK
 62
     0
 10
-4.266716
 20
0.845868
 30
0.0
 11
-4.266716
 21
-0.430239
 31
0.0
  0
LINE
  5
752
  8
0
  6
BYBLOCK
 62
     0
 10
-2.813569
 20
0.845868
 30
0.0
 11
-2.813569
 21
-0.430239
 31
0.0
  0
LINE
  5
753
  8
0
  6
BYBLOCK
 62
     0
 10
-4.266716
 20
1.830445
 30
0.0
 11
-2.813569
 21
1.830445
 31
0.0
  0
ARC
  5
754
  8
0
  6
BYBLOCK
 62
     0
 10
-4.691922
 20
0.897275
 30
0.0
 40
0.17381
 50
40.808743
 51
92.78889
  0
ARC
  5
755
  8
0
  6
BYBLOCK
 62
     0
 10
-2.219871
 20
1.130893
 30
0.0
 40
0.060013
 50
270.0
 51
0.0
  0
ARC
  5
756
  8
0
  6
BYBLOCK
 62
     0
 10
-2.459906
 20
1.010866
 30
0.0
 40
0.060013
 50
90.0
 51
180.0
  0
LINE
  5
757
  8
0
  6
BYBLOCK
 62
     0
 10
-2.219871
 20
1.07088
 30
0.0
 11
-2.459906
 21
1.07088
 31
0.0
  0
LINE
  5
758
  8
0
  6
BYBLOCK
 62
     0
 10
-1.794013
 20
-0.239336
 30
0.0
 11
-1.794013
 21
1.04323
 31
0.0
  0
LINE
  5
759
  8
0
  6
BYBLOCK
 62
     0
 10
-1.794013
 20
1.049068
 30
0.0
 11
-1.794013
 21
-0.233498
 31
0.0
  0
LINE
  5
75A
  8
0
  6
BYBLOCK
 62
     0
 10
-1.847858
 20
-0.246974
 30
0.0
 11
-1.847858
 21
1.056706
 31
0.0
  0
LINE
  5
75B
  8
0
  6
BYBLOCK
 62
     0
 10
-1.672488
 20
-0.466143
 30
0.0
 11
-0.98
 21
-0.466143
 31
0.0
  0
LINE
  5
75C
  8
0
  6
BYBLOCK
 62
     0
 10
-1.672488
 20
-0.526143
 30
0.0
 11
-0.98
 21
-0.526143
 31
0.0
  0
ARC
  5
75D
  8
0
  6
BYBLOCK
 62
     0
 10
-1.672488
 20
-0.406143
 30
0.0
 40
0.06
 50
218.864377
 51
270.0
  0
ARC
  5
75E
  8
0
  6
BYBLOCK
 62
     0
 10
-1.734013
 20
-0.239336
 30
0.0
 40
0.06
 50
180.0
 51
218.864377
  0
ARC
  5
75F
  8
0
  6
BYBLOCK
 62
     0
 10
-1.727858
 20
-0.246974
 30
0.0
 40
0.12
 50
180.0
 51
218.864377
  0
LINE
  5
760
  8
0
  6
BYBLOCK
 62
     0
 10
-1.847858
 20
-0.246974
 30
0.0
 11
-1.765924
 21
-0.481441
 31
0.0
  0
LINE
  5
761
  8
0
  6
BYBLOCK
 62
     0
 10
-1.794013
 20
-0.233498
 30
0.0
 11
-1.719206
 21
-0.443792
 31
0.0
  0
ARC
  5
762
  8
0
  6
BYBLOCK
 62
     0
 10
-1.672488
 20
-0.406143
 30
0.0
 40
0.12
 50
218.864377
 51
270.0
  0
LINE
  5
763
  8
0
  6
BYBLOCK
 62
     0
 10
-0.98
 20
-0.526143
 30
0.0
 11
-0.98
 21
-0.466143
 31
0.0
  0
LINE
  5
764
  8
0
  6
BYBLOCK
 62
     0
 10
-1.301845
 20
0.788918
 30
0.0
 11
-1.533155
 21
0.788918
 31
0.0
  0
LINE
  5
765
  8
0
  6
BYBLOCK
 62
     0
 10
-1.301845
 20
0.724918
 30
0.0
 11
-1.533155
 21
0.724918
 31
0.0
  0
CIRCLE
  5
766
  8
0
  6
BYBLOCK
 62
     0
 10
-1.4175
 20
0.756918
 30
0.0
 40
0.12
  0
LINE
  5
767
  8
0
  6
BYBLOCK
 62
     0
 10
-1.855
 20
0.541918
 30
0.0
 11
-0.98
 21
0.541918
 31
0.0
  0
LINE
  5
768
  8
0
  6
BYBLOCK
 62
     0
 10
-1.04
 20
1.406918
 30
0.0
 11
-1.6
 21
1.406918
 31
0.0
  0
LINE
  5
769
  8
0
  6
BYBLOCK
 62
     0
 10
-1.855
 20
1.531918
 30
0.0
 11
-0.98
 21
1.531918
 31
0.0
  0
LINE
  5
76A
  8
0
  6
BYBLOCK
 62
     0
 10
-1.04
 20
1.156918
 30
0.0
 11
-1.6
 21
1.156918
 31
0.0
  0
LINE
  5
76B
  8
0
  6
BYBLOCK
 62
     0
 10
-1.672488
 20
1.335875
 30
0.0
 11
-0.98
 21
1.335875
 31
0.0
  0
LINE
  5
76C
  8
0
  6
BYBLOCK
 62
     0
 10
-1.672488
 20
1.275875
 30
0.0
 11
-0.98
 21
1.275875
 31
0.0
  0
LINE
  5
76D
  8
0
  6
BYBLOCK
 62
     0
 10
-1.855
 20
0.971918
 30
0.0
 11
-0.98
 21
0.971918
 31
0.0
  0
ARC
  5
76E
  8
0
  6
BYBLOCK
 62
     0
 10
-1.672488
 20
1.215875
 30
0.0
 40
0.06
 50
90.0
 51
141.135623
  0
ARC
  5
76F
  8
0
  6
BYBLOCK
 62
     0
 10
-1.672488
 20
1.215875
 30
0.0
 40
0.12
 50
90.0
 51
141.135623
  0
LINE
  5
770
  8
0
  6
BYBLOCK
 62
     0
 10
-1.6
 20
1.156918
 30
0.0
 11
-1.6
 21
1.406918
 31
0.0
  0
LINE
  5
771
  8
0
  6
BYBLOCK
 62
     0
 10
-1.794013
 20
1.04323
 30
0.0
 11
-1.719206
 21
1.253524
 31
0.0
  0
LINE
  5
772
  8
0
  6
BYBLOCK
 62
     0
 10
-1.847858
 20
1.056706
 30
0.0
 11
-1.765924
 21
1.291172
 31
0.0
  0
LINE
  5
773
  8
0
  6
BYBLOCK
 62
     0
 10
-0.98
 20
1.335875
 30
0.0
 11
-0.98
 21
1.275875
 31
0.0
  0
LINE
  5
774
  8
0
  6
BYBLOCK
 62
     0
 10
-1.04
 20
1.156918
 30
0.0
 11
-1.04
 21
1.406918
 31
0.0
  0
LINE
  5
775
  8
0
  6
BYBLOCK
 62
     0
 10
-1.301845
 20
1.974918
 30
0.0
 11
-1.533155
 21
1.974918
 31
0.0
  0
LINE
  5
776
  8
0
  6
BYBLOCK
 62
     0
 10
-1.301845
 20
2.038918
 30
0.0
 11
-1.533155
 21
2.038918
 31
0.0
  0
CIRCLE
  5
777
  8
0
  6
BYBLOCK
 62
     0
 10
-1.4175
 20
2.006918
 30
0.0
 40
0.12
  0
LINE
  5
778
  8
0
  6
BYBLOCK
 62
     0
 10
-4.266716
 20
3.106553
 30
0.0
 11
-2.813569
 21
3.106553
 31
0.0
  0
LINE
  5
779
  8
0
  6
BYBLOCK
 62
     0
 10
-4.445046
 20
5.45772
 30
0.0
 11
-3.045046
 21
5.45772
 31
0.0
  0
LINE
  5
77A
  8
0
  6
BYBLOCK
 62
     0
 10
-4.541635
 20
5.187589
 30
0.0
 11
-2.53865
 21
5.187589
 31
0.0
  0
LINE
  5
77B
  8
0
  6
BYBLOCK
 62
     0
 10
-4.541635
 20
4.149837
 30
0.0
 11
-2.53865
 21
4.149837
 31
0.0
  0
LINE
  5
77C
  8
0
  6
BYBLOCK
 62
     0
 10
-4.541635
 20
5.187589
 30
0.0
 11
-4.541635
 21
4.149837
 31
0.0
  0
LINE
  5
77D
  8
0
  6
BYBLOCK
 62
     0
 10
-4.445046
 20
5.23972
 30
0.0
 11
-4.445046
 21
5.45772
 31
0.0
  0
ARC
  5
77E
  8
0
  6
BYBLOCK
 62
     0
 10
-4.492046
 20
5.23972
 30
0.0
 40
0.047
 50
270.0
 51
0.0
  0
LINE
  5
77F
  8
0
  6
BYBLOCK
 62
     0
 10
-2.53865
 20
5.187589
 30
0.0
 11
-2.53865
 21
4.149837
 31
0.0
  0
ARC
  5
780
  8
0
  6
BYBLOCK
 62
     0
 10
-1.329003
 20
4.050921
 30
0.0
 40
0.244563
 50
310.417438
 51
49.582562
  0
ARC
  5
781
  8
0
  6
BYBLOCK
 62
     0
 10
-1.395438
 20
4.050921
 30
0.0
 40
0.244563
 50
130.417438
 51
229.582562
  0
LINE
  5
782
  8
0
  6
BYBLOCK
 62
     0
 10
-1.04
 20
3.021918
 30
0.0
 11
-1.04
 21
3.271918
 31
0.0
  0
LINE
  5
783
  8
0
  6
BYBLOCK
 62
     0
 10
-1.056
 20
3.021918
 30
0.0
 11
-1.056
 21
3.271918
 31
0.0
  0
LINE
  5
784
  8
0
  6
BYBLOCK
 62
     0
 10
-1.3875
 20
3.021918
 30
0.0
 11
-1.3875
 21
3.271918
 31
0.0
  0
LINE
  5
785
  8
0
  6
BYBLOCK
 62
     0
 10
-1.3715
 20
3.021918
 30
0.0
 11
-1.3715
 21
3.271918
 31
0.0
  0
LINE
  5
786
  8
0
  6
BYBLOCK
 62
     0
 10
-1.4475
 20
3.021918
 30
0.0
 11
-1.4475
 21
3.621918
 31
0.0
  0
LINE
  5
787
  8
0
  6
BYBLOCK
 62
     0
 10
-1.795
 20
3.021918
 30
0.0
 11
-1.795
 21
3.621918
 31
0.0
  0
LINE
  5
788
  8
0
  6
BYBLOCK
 62
     0
 10
-1.825
 20
3.021918
 30
0.0
 11
-1.01
 21
3.021918
 31
0.0
  0
LINE
  5
789
  8
0
  6
BYBLOCK
 62
     0
 10
-1.855
 20
2.901918
 30
0.0
 11
-0.98
 21
2.901918
 31
0.0
  0
LINE
  5
78A
  8
0
  6
BYBLOCK
 62
     0
 10
-1.4175
 20
2.901918
 30
0.0
 11
-1.4175
 21
3.021918
 31
0.0
  0
LINE
  5
78B
  8
0
  6
BYBLOCK
 62
     0
 10
-1.825
 20
2.901918
 30
0.0
 11
-1.825
 21
3.021918
 31
0.0
  0
LINE
  5
78C
  8
0
  6
BYBLOCK
 62
     0
 10
-1.19775
 20
3.215065
 30
0.0
 11
-1.19775
 21
3.078772
 31
0.0
  0
LINE
  5
78D
  8
0
  6
BYBLOCK
 62
     0
 10
-1.01
 20
2.901918
 30
0.0
 11
-1.01
 21
3.021918
 31
0.0
  0
LINE
  5
78E
  8
0
  6
BYBLOCK
 62
     0
 10
-1.22975
 20
3.215065
 30
0.0
 11
-1.22975
 21
3.078772
 31
0.0
  0
CIRCLE
  5
78F
  8
0
  6
BYBLOCK
 62
     0
 10
-1.21375
 20
3.146918
 30
0.0
 40
0.07
  0
LINE
  5
790
  8
0
  6
BYBLOCK
 62
     0
 10
-1.554
 20
3.864726
 30
0.0
 11
-1.17044
 21
3.864726
 31
0.0
  0
LINE
  5
791
  8
0
  6
BYBLOCK
 62
     0
 10
-1.3875
 20
3.271918
 30
0.0
 11
-1.04
 21
3.271918
 31
0.0
  0
CIRCLE
  5
792
  8
0
  6
BYBLOCK
 62
     0
 10
-1.62125
 20
3.496918
 30
0.0
 40
0.07
  0
LINE
  5
793
  8
0
  6
BYBLOCK
 62
     0
 10
-1.63725
 20
3.565065
 30
0.0
 11
-1.63725
 21
3.428772
 31
0.0
  0
LINE
  5
794
  8
0
  6
BYBLOCK
 62
     0
 10
-1.60525
 20
3.565065
 30
0.0
 11
-1.60525
 21
3.428772
 31
0.0
  0
LINE
  5
795
  8
0
  6
BYBLOCK
 62
     0
 10
-1.4635
 20
3.371918
 30
0.0
 11
-1.4635
 21
3.621918
 31
0.0
  0
LINE
  5
796
  8
0
  6
BYBLOCK
 62
     0
 10
-1.779
 20
3.371918
 30
0.0
 11
-1.779
 21
3.621918
 31
0.0
  0
LINE
  5
797
  8
0
  6
BYBLOCK
 62
     0
 10
-1.795
 20
3.621918
 30
0.0
 11
-1.4475
 21
3.621918
 31
0.0
  0
LINE
  5
798
  8
0
  6
BYBLOCK
 62
     0
 10
-1.795
 20
3.371918
 30
0.0
 11
-1.4475
 21
3.371918
 31
0.0
  0
ARC
  5
799
  8
0
  6
BYBLOCK
 62
     0
 10
-1.93369
 20
4.609508
 30
0.0
 40
0.84925
 50
333.992176
 51
26.007824
  0
ARC
  5
79A
  8
0
  6
BYBLOCK
 62
     0
 10
-0.79075
 20
4.609508
 30
0.0
 40
0.84925
 50
153.992176
 51
206.007824
  0
LINE
  5
79B
  8
0
  6
BYBLOCK
 62
     0
 10
-1.08444
 20
4.050921
 30
0.0
 11
-1.08444
 21
5.168094
 31
0.0
  0
LINE
  5
79C
  8
0
  6
BYBLOCK
 62
     0
 10
-1.64
 20
4.050921
 30
0.0
 11
-1.64
 21
5.168094
 31
0.0
  0
LINE
  5
79D
  8
0
  6
HIDDEN
 62
     0
 10
-0.98
 20
4.36432
 30
0.0
 11
-1.64
 21
4.36432
 31
0.0
  0
LINE
  5
79E
  8
0
  6
BYBLOCK
 62
     0
 10
-1.554
 20
4.237117
 30
0.0
 11
-1.17044
 21
4.237117
 31
0.0
  0
LINE
  5
79F
  8
0
  6
BYBLOCK
 62
     0
 10
-1.554
 20
5.35429
 30
0.0
 11
-1.17044
 21
5.35429
 31
0.0
  0
LINE
  5
7A0
  8
0
  6
BYBLOCK
 62
     0
 10
-1.554
 20
4.981899
 30
0.0
 11
-1.17044
 21
4.981899
 31
0.0
  0
ARC
  5
7A1
  8
0
  6
BYBLOCK
 62
     0
 10
-1.395438
 20
5.168094
 30
0.0
 40
0.244563
 50
130.417438
 51
229.582562
  0
ARC
  5
7A2
  8
0
  6
BYBLOCK
 62
     0
 10
-1.329003
 20
5.168094
 30
0.0
 40
0.244563
 50
310.417438
 51
49.582562
  0
LINE
  5
7B1
  8
0
  6
BYBLOCK
 62
     0
 10
-8.987133
 20
5.96272
 30
0.0
 11
-10.473133
 21
5.96272
 31
0.0
  0
LINE
  5
7BA
  8
0
  6
BYBLOCK
 62
     0
 10
-12.404109
 20
8.114508
 30
0.0
 11
-13.48
 21
8.114508
 31
0.0
  0
LINE
  5
7BB
  8
0
  6
BYBLOCK
 62
     0
 10
-13.32
 20
5.86432
 30
0.0
 11
-10.513344
 21
5.86432
 31
0.0
  0
LINE
  5
7BC
  8
0
  6
BYBLOCK
 62
     0
 10
-13.98
 20
7.614508
 30
0.0
 11
-12.404109
 21
7.614508
 31
0.0
  0
LINE
  5
7BD
  8
0
  6
BYBLOCK
 62
     0
 10
-13.48
 20
7.614508
 30
0.0
 11
-13.48
 21
8.114508
 31
0.0
  0
LINE
  5
7C3
  8
0
  6
BYBLOCK
 62
     0
 10
-10.520133
 20
5.69772
 30
0.0
 11
-11.920133
 21
5.69772
 31
0.0
  0
LINE
  5
7C5
  8
0
  6
BYBLOCK
 62
     0
 10
-10.520133
 20
5.69772
 30
0.0
 11
-10.520133
 21
5.91572
 31
0.0
  0
ARC
  5
7C6
  8
0
  6
BYBLOCK
 62
     0
 10
-10.473133
 20
5.91572
 30
0.0
 40
0.047
 50
90.0
 51
180.0
  0
LINE
  5
804
  8
0
  6
BYBLOCK
 62
     0
 10
-5.978046
 20
5.96272
 30
0.0
 11
-4.492046
 21
5.96272
 31
0.0
  0
LINE
  5
810
  8
0
  6
BYBLOCK
 62
     0
 10
-7.540133
 20
5.69772
 30
0.0
 11
-8.940133
 21
5.69772
 31
0.0
  0
ARC
  5
814
  8
0
  6
BYBLOCK
 62
     0
 10
-8.987133
 20
5.91572
 30
0.0
 40
0.047
 50
0.0
 51
90.0
  0
LINE
  5
815
  8
0
  6
BYBLOCK
 62
     0
 10
-8.940133
 20
5.69772
 30
0.0
 11
-8.940133
 21
5.91572
 31
0.0
  0
LINE
  5
81C
  8
0
  6
BYBLOCK
 62
     0
 10
-7.425046
 20
5.69772
 30
0.0
 11
-6.025046
 21
5.69772
 31
0.0
  0
ARC
  5
81F
  8
0
  6
BYBLOCK
 62
     0
 10
-5.978046
 20
5.91572
 30
0.0
 40
0.047
 50
90.0
 51
180.0
  0
LINE
  5
820
  8
0
  6
BYBLOCK
 62
     0
 10
-6.025046
 20
5.69772
 30
0.0
 11
-6.025046
 21
5.91572
 31
0.0
  0
LINE
  5
84F
  8
0
  6
HIDDEN
 62
     0
 10
-2.008808
 20
8.11432
 30
0.0
 11
-2.9422
 21
8.11432
 31
0.0
  0
LINE
  5
850
  8
0
  6
HIDDEN
 62
     0
 10
-1.765
 20
6.264937
 30
0.0
 11
-3.1922
 21
7.181308
 31
0.0
  0
LINE
  5
851
  8
0
  6
BYBLOCK
 62
     0
 10
-4.444953
 20
5.86432
 30
0.0
 11
-1.64
 21
5.86432
 31
0.0
  0
LINE
  5
855
  8
0
  6
BYBLOCK
 62
     0
 10
-4.445046
 20
5.69772
 30
0.0
 11
-3.045046
 21
5.69772
 31
0.0
  0
LINE
  5
857
  8
0
  6
BYBLOCK
 62
     0
 10
-4.445046
 20
5.69772
 30
0.0
 11
-4.445046
 21
5.91572
 31
0.0
  0
ARC
  5
858
  8
0
  6
BYBLOCK
 62
     0
 10
-4.492046
 20
5.91572
 30
0.0
 40
0.047
 50
0.0
 51
90.0
  0
ARC
  5
85C
  8
0
  6
HIDDEN
 62
     0
 10
-2.9422
 20
7.61432
 30
0.0
 40
0.5
 50
90.0
 51
240.0
  0
CIRCLE
  5
860
  8
0
  6
HIDDEN
 62
     0
 10
-2.9422
 20
7.61432
 30
0.0
 40
0.25
  0
LINE
  5
862
  8
0
  6
HIDDEN
 62
     0
 10
-1.565
 20
5.86432
 30
0.0
 11
-1.64
 21
5.86432
 31
0.0
  0
LINE
  5
863
  8
0
  6
HIDDEN
 62
     0
 10
-1.64
 20
5.86432
 30
0.0
 11
-1.64
 21
6.048431
 31
0.0
  0
ARC
  5
864
  8
0
  6
HIDDEN
 62
     0
 10
-1.89
 20
6.048431
 30
0.0
 40
0.25
 50
0.0
 51
60.0
  0
LINE
  5
865
  8
0
  6
BYBLOCK
 62
     0
 10
-1.48
 20
7.614508
 30
0.0
 11
-1.48
 21
8.114508
 31
0.0
  0
LINE
  5
866
  8
0
  6
BYBLOCK
 62
     0
 10
-0.98
 20
7.614508
 30
0.0
 11
-2.555891
 21
7.614508
 31
0.0
  0
CIRCLE
  5
867
  8
0
  6
HIDDEN
 62
     0
 10
0.0
 20
7.469508
 30
0.0
 40
0.375
  0
LINE
  5
868
  8
0
  6
BYBLOCK
 62
     0
 10
-0.277
 20
7.469508
 30
0.0
 11
0.277
 21
7.469508
 31
0.0
  0
LINE
  5
869
  8
0
  6
BYBLOCK
 62
     0
 10
0.0
 20
7.746508
 30
0.0
 11
0.0
 21
7.192508
 31
0.0
  0
LINE
  5
8F4
  8
0
  6
BYBLOCK
 62
     0
 10
1.64
 20
3.621918
 30
0.0
 11
1.64
 21
5.86432
 31
0.0
  0
LINE
  5
8F5
  8
0
  6
HIDDEN
 62
     0
 10
1.565
 20
5.86432
 30
0.0
 11
1.565
 21
4.36432
 31
0.0
  0
LINE
  5
8F6
  8
0
  6
BYBLOCK
 62
     0
 10
11.914954
 20
5.45772
 30
0.0
 11
11.914954
 21
5.69772
 31
0.0
  0
LINE
  5
8F7
  8
0
  6
BYBLOCK
 62
     0
 10
9.518399
 20
5.436882
 30
0.0
 11
9.89129
 21
5.764354
 31
0.0
  0
LINE
  5
8F8
  8
0
  6
BYBLOCK
 62
     0
 10
9.557905
 20
5.391723
 30
0.0
 11
9.930968
 21
5.719346
 31
0.0
  0
CIRCLE
  5
8F9
  8
0
  6
BYBLOCK
 62
     0
 10
9.724954
 20
5.57772
 30
0.0
 40
0.25
  0
CIRCLE
  5
8FA
  8
0
  6
BYBLOCK
 62
     0
 10
9.724954
 20
5.57772
 30
0.0
 40
0.305
  0
LINE
  5
8FB
  8
0
  6
BYBLOCK
 62
     0
 10
13.32
 20
3.621918
 30
0.0
 11
13.32
 21
5.86432
 31
0.0
  0
LINE
  5
8FC
  8
0
  6
BYBLOCK
 62
     0
 10
12.800142
 20
5.86432
 30
0.0
 11
12.800142
 21
1.130893
 31
0.0
  0
LINE
  5
8FD
  8
0
  6
BYBLOCK
 62
     0
 10
13.98
 20
2.901918
 30
0.0
 11
13.98
 21
7.614508
 31
0.0
  0
LINE
  5
8FE
  8
0
  6
BYBLOCK
 62
     0
 10
7.534954
 20
5.45772
 30
0.0
 11
7.534954
 21
5.69772
 31
0.0
  0
LINE
  5
8FF
  8
0
  6
BYBLOCK
 62
     0
 10
7.534954
 20
5.45772
 30
0.0
 11
7.534954
 21
5.69772
 31
0.0
  0
LINE
  5
900
  8
0
  6
BYBLOCK
 62
     0
 10
7.419867
 20
5.45772
 30
0.0
 11
7.419867
 21
5.69772
 31
0.0
  0
LINE
  5
901
  8
0
  6
BYBLOCK
 62
     0
 10
7.419867
 20
5.45772
 30
0.0
 11
7.419867
 21
5.69772
 31
0.0
  0
LINE
  5
902
  8
0
  6
BYBLOCK
 62
     0
 10
5.396916
 20
5.391723
 30
0.0
 11
5.023853
 21
5.719346
 31
0.0
  0
LINE
  5
903
  8
0
  6
BYBLOCK
 62
     0
 10
5.436421
 20
5.436882
 30
0.0
 11
5.063531
 21
5.764354
 31
0.0
  0
CIRCLE
  5
904
  8
0
  6
BYBLOCK
 62
     0
 10
5.229867
 20
5.57772
 30
0.0
 40
0.25
  0
CIRCLE
  5
905
  8
0
  6
BYBLOCK
 62
     0
 10
5.229867
 20
5.57772
 30
0.0
 40
0.305
  0
LINE
  5
906
  8
0
  6
BYBLOCK
 62
     0
 10
3.039867
 20
5.45772
 30
0.0
 11
3.039867
 21
5.69772
 31
0.0
  0
LINE
  5
907
  8
0
  6
BYBLOCK
 62
     0
 10
2.159858
 20
5.86432
 30
0.0
 11
2.159858
 21
1.130893
 31
0.0
  0
LINE
  5
908
  8
0
  6
BYBLOCK
 62
     0
 10
0.98
 20
2.901918
 30
0.0
 11
0.98
 21
7.614508
 31
0.0
  0
LINE
  5
90A
  8
0
  6
BYBLOCK
 62
     0
 10
10.514954
 20
5.45772
 30
0.0
 11
11.914954
 21
5.45772
 31
0.0
  0
LINE
  5
90B
  8
0
  6
BYBLOCK
 62
     0
 10
10.418365
 20
5.187589
 30
0.0
 11
12.42135
 21
5.187589
 31
0.0
  0
LINE
  5
90C
  8
0
  6
BYBLOCK
 62
     0
 10
10.418365
 20
4.149837
 30
0.0
 11
12.42135
 21
4.149837
 31
0.0
  0
LINE
  5
90D
  8
0
  6
BYBLOCK
 62
     0
 10
10.693284
 20
3.106553
 30
0.0
 11
12.146431
 21
3.106553
 31
0.0
  0
LINE
  5
90E
  8
0
  6
BYBLOCK
 62
     0
 10
10.693284
 20
1.830445
 30
0.0
 11
12.146431
 21
1.830445
 31
0.0
  0
LINE
  5
90F
  8
0
  6
BYBLOCK
 62
     0
 10
12.800142
 20
3.54982
 30
0.0
 11
10.039573
 21
3.54982
 31
0.0
  0
LINE
  5
910
  8
0
  6
BYBLOCK
 62
     0
 10
10.693284
 20
0.845868
 30
0.0
 11
12.146431
 21
0.845868
 31
0.0
  0
LINE
  5
911
  8
0
  6
BYBLOCK
 62
     0
 10
10.693284
 20
-0.430239
 30
0.0
 11
12.146431
 21
-0.430239
 31
0.0
  0
LINE
  5
912
  8
0
  6
BYBLOCK
 62
     0
 10
10.039573
 20
-3.543083
 30
0.0
 11
12.800142
 21
-3.543083
 31
0.0
  0
LINE
  5
913
  8
0
  6
BYBLOCK
 62
     0
 10
10.514954
 20
-5.40843
 30
0.0
 11
11.914954
 21
-5.40843
 31
0.0
  0
LINE
  5
914
  8
0
  6
BYBLOCK
 62
     0
 10
10.514954
 20
-5.64843
 30
0.0
 11
11.914954
 21
-5.64843
 31
0.0
  0
LINE
  5
915
  8
0
  6
BYBLOCK
 62
     0
 10
10.512631
 20
-5.885305
 30
0.0
 11
13.32
 21
-5.885305
 31
0.0
  0
LINE
  5
916
  8
0
  6
BYBLOCK
 62
     0
 10
10.399634
 20
1.010866
 30
0.0
 11
10.399634
 21
-0.589484
 31
0.0
  0
LINE
  5
917
  8
0
  6
BYBLOCK
 62
     0
 10
9.174784
 20
2.589508
 30
0.0
 11
9.174784
 21
-2.610492
 31
0.0
  0
LINE
  5
918
  8
0
  6
BYBLOCK
 62
     0
 10
9.724784
 20
2.589508
 30
0.0
 11
9.724784
 21
-2.610492
 31
0.0
  0
LINE
  5
919
  8
0
  6
BYBLOCK
 62
     0
 10
1.64
 20
-5.885305
 30
0.0
 11
1.64
 21
-0.526143
 31
0.0
  0
LINE
  5
91A
  8
0
  6
BYBLOCK
 62
     0
 10
8.500223
 20
1.010866
 30
0.0
 11
8.500223
 21
-0.589484
 31
0.0
  0
LINE
  5
91B
  8
0
  6
BYBLOCK
 62
     0
 10
6.459777
 20
1.010866
 30
0.0
 11
6.459777
 21
-0.589484
 31
0.0
  0
LINE
  5
91C
  8
0
  6
BYBLOCK
 62
     0
 10
4.560366
 20
1.010866
 30
0.0
 11
4.560366
 21
-0.589484
 31
0.0
  0
LINE
  5
91D
  8
0
  6
BYBLOCK
 62
     0
 10
2.519919
 20
1.010866
 30
0.0
 11
2.519919
 21
-0.589484
 31
0.0
  0
LINE
  5
91E
  8
0
  6
BYBLOCK
 62
     0
 10
5.784927
 20
2.589508
 30
0.0
 11
5.784927
 21
-2.610492
 31
0.0
  0
LINE
  5
91F
  8
0
  6
BYBLOCK
 62
     0
 10
5.234927
 20
2.589508
 30
0.0
 11
5.234927
 21
-2.610492
 31
0.0
  0
LINE
  5
921
  8
0
  6
BYBLOCK
 62
     0
 10
6.159729
 20
-0.649497
 30
0.0
 11
6.319764
 21
-0.649497
 31
0.0
  0
LINE
  5
922
  8
0
  6
BYBLOCK
 62
     0
 10
6.099716
 20
-3.543083
 30
0.0
 11
8.860284
 21
-3.543083
 31
0.0
  0
LINE
  5
923
  8
0
  6
BYBLOCK
 62
     0
 10
7.419867
 20
-5.40843
 30
0.0
 11
6.019867
 21
-5.40843
 31
0.0
  0
LINE
  5
924
  8
0
  6
BYBLOCK
 62
     0
 10
7.419867
 20
-5.64843
 30
0.0
 11
6.019867
 21
-5.64843
 31
0.0
  0
LINE
  5
925
  8
0
  6
BYBLOCK
 62
     0
 10
6.011996
 20
-5.885305
 30
0.0
 11
8.942825
 21
-5.885305
 31
0.0
  0
LINE
  5
926
  8
0
  6
BYBLOCK
 62
     0
 10
4.920427
 20
-0.70951
 30
0.0
 11
4.920427
 21
-5.14343
 31
0.0
  0
LINE
  5
927
  8
0
  6
BYBLOCK
 62
     0
 10
6.099716
 20
-0.70951
 30
0.0
 11
6.099716
 21
-5.40843
 31
0.0
  0
LINE
  5
928
  8
0
  6
BYBLOCK
 62
     0
 10
2.159858
 20
-0.70951
 30
0.0
 11
2.159858
 21
-5.885305
 31
0.0
  0
LINE
  5
92A
  8
0
  6
BYBLOCK
 62
     0
 10
4.439867
 20
-5.40843
 30
0.0
 11
3.039867
 21
-5.40843
 31
0.0
  0
LINE
  5
92B
  8
0
  6
BYBLOCK
 62
     0
 10
4.439867
 20
-5.64843
 30
0.0
 11
3.039867
 21
-5.64843
 31
0.0
  0
LINE
  5
92C
  8
0
  6
BYBLOCK
 62
     0
 10
1.64
 20
-5.885305
 30
0.0
 11
4.447478
 21
-5.885305
 31
0.0
  0
ARC
  5
92D
  8
0
  6
BYBLOCK
 62
     0
 10
1.329002
 20
-5.189079
 30
0.0
 40
0.244563
 50
130.417438
 51
229.582562
  0
ARC
  5
92E
  8
0
  6
BYBLOCK
 62
     0
 10
1.395437
 20
-5.189079
 30
0.0
 40
0.244563
 50
310.417438
 51
49.582562
  0
LINE
  5
92F
  8
0
  6
BYBLOCK
 62
     0
 10
1.64
 20
-5.189079
 30
0.0
 11
1.64
 21
-4.071906
 31
0.0
  0
LINE
  5
930
  8
0
  6
BYBLOCK
 62
     0
 10
1.08444
 20
-5.189079
 30
0.0
 11
1.08444
 21
-4.071906
 31
0.0
  0
LINE
  5
931
  8
0
  6
BYBLOCK
 62
     0
 10
1.17044
 20
-5.375274
 30
0.0
 11
1.554
 21
-5.375274
 31
0.0
  0
LINE
  5
932
  8
0
  6
BYBLOCK
 62
     0
 10
3.039867
 20
-5.64843
 30
0.0
 11
3.039867
 21
-5.40843
 31
0.0
  0
ARC
  5
933
  8
0
  6
BYBLOCK
 62
     0
 10
0.79075
 20
-4.630492
 30
0.0
 40
0.84925
 50
333.992176
 51
26.007824
  0
ARC
  5
934
  8
0
  6
BYBLOCK
 62
     0
 10
1.93369
 20
-4.630492
 30
0.0
 40
0.84925
 50
153.992176
 51
206.007824
  0
LINE
  5
935
  8
0
  6
BYBLOCK
 62
     0
 10
1.17044
 20
-5.002883
 30
0.0
 11
1.554
 21
-5.002883
 31
0.0
  0
LINE
  5
936
  8
0
  6
BYBLOCK
 62
     0
 10
1.17044
 20
-3.88571
 30
0.0
 11
1.554
 21
-3.88571
 31
0.0
  0
LINE
  5
937
  8
0
  6
BYBLOCK
 62
     0
 10
1.17044
 20
-4.258101
 30
0.0
 11
1.554
 21
-4.258101
 31
0.0
  0
ARC
  5
938
  8
0
  6
BYBLOCK
 62
     0
 10
1.329002
 20
-4.071906
 30
0.0
 40
0.244563
 50
130.417438
 51
229.582562
  0
ARC
  5
939
  8
0
  6
BYBLOCK
 62
     0
 10
1.395437
 20
-4.071906
 30
0.0
 40
0.244563
 50
310.417438
 51
49.582562
  0
ARC
  5
93A
  8
0
  6
BYBLOCK
 62
     0
 10
5.972867
 20
-5.19043
 30
0.0
 40
0.047
 50
0.0
 51
90.0
  0
ARC
  5
93B
  8
0
  6
BYBLOCK
 62
     0
 10
4.486867
 20
-5.19043
 30
0.0
 40
0.047
 50
90.0
 51
180.0
  0
LINE
  5
93C
  8
0
  6
BYBLOCK
 62
     0
 10
5.972867
 20
-5.91343
 30
0.0
 11
4.486867
 21
-5.91343
 31
0.0
  0
LINE
  5
93D
  8
0
  6
BYBLOCK
 62
     0
 10
4.439867
 20
-5.86643
 30
0.0
 11
4.439867
 21
-5.64843
 31
0.0
  0
ARC
  5
93E
  8
0
  6
BYBLOCK
 62
     0
 10
4.486867
 20
-5.86643
 30
0.0
 40
0.047
 50
180.0
 51
270.0
  0
LINE
  5
93F
  8
0
  6
BYBLOCK
 62
     0
 10
4.439867
 20
-5.40843
 30
0.0
 11
4.439867
 21
-5.19043
 31
0.0
  0
LINE
  5
940
  8
0
  6
BYBLOCK
 62
     0
 10
5.436421
 20
-5.669268
 30
0.0
 11
5.063531
 21
-5.341796
 31
0.0
  0
LINE
  5
941
  8
0
  6
BYBLOCK
 62
     0
 10
5.396916
 20
-5.714427
 30
0.0
 11
5.023853
 21
-5.386804
 31
0.0
  0
CIRCLE
  5
942
  8
0
  6
BYBLOCK
 62
     0
 10
5.229867
 20
-5.52843
 30
0.0
 40
0.25
  0
CIRCLE
  5
943
  8
0
  6
BYBLOCK
 62
     0
 10
5.229867
 20
-5.52843
 30
0.0
 40
0.305
  0
LINE
  5
944
  8
0
  6
BYBLOCK
 62
     0
 10
6.099716
 20
-5.64843
 30
0.0
 11
6.099716
 21
-5.885305
 31
0.0
  0
LINE
  5
945
  8
0
  6
BYBLOCK
 62
     0
 10
6.019867
 20
-5.86643
 30
0.0
 11
6.019867
 21
-5.64843
 31
0.0
  0
ARC
  5
946
  8
0
  6
BYBLOCK
 62
     0
 10
5.972867
 20
-5.86643
 30
0.0
 40
0.047
 50
270.0
 51
0.0
  0
LINE
  5
947
  8
0
  6
BYBLOCK
 62
     0
 10
6.019867
 20
-5.40843
 30
0.0
 11
6.019867
 21
-5.19043
 31
0.0
  0
LINE
  5
948
  8
0
  6
BYBLOCK
 62
     0
 10
5.972867
 20
-5.14343
 30
0.0
 11
4.486867
 21
-5.14343
 31
0.0
  0
LINE
  5
949
  8
0
  6
BYBLOCK
 62
     0
 10
2.159858
 20
-3.543083
 30
0.0
 11
4.920427
 21
-3.543083
 31
0.0
  0
LINE
  5
94A
  8
0
  6
BYBLOCK
 62
     0
 10
0.98
 20
-2.995492
 30
0.0
 11
1.64
 21
-2.995492
 31
0.0
  0
LINE
  5
94B
  8
0
  6
BYBLOCK
 62
     0
 10
2.219871
 20
-0.649497
 30
0.0
 11
2.379906
 21
-0.649497
 31
0.0
  0
ARC
  5
94C
  8
0
  6
BYBLOCK
 62
     0
 10
2.388363
 20
-0.475892
 30
0.0
 40
0.17381
 50
267.21111
 51
319.191257
  0
ARC
  5
94D
  8
0
  6
BYBLOCK
 62
     0
 10
2.219871
 20
-0.70951
 30
0.0
 40
0.060013
 50
90.0
 51
180.0
  0
LINE
  5
94E
  8
0
  6
BYBLOCK
 62
     0
 10
5.784927
 20
-2.610492
 30
0.0
 11
5.234927
 21
-2.610492
 31
0.0
  0
ARC
  5
94F
  8
0
  6
BYBLOCK
 62
     0
 10
4.860414
 20
-0.70951
 30
0.0
 40
0.060013
 50
0.0
 51
90.0
  0
ARC
  5
950
  8
0
  6
BYBLOCK
 62
     0
 10
4.620379
 20
-0.589484
 30
0.0
 40
0.060013
 50
180.0
 51
270.0
  0
LINE
  5
951
  8
0
  6
BYBLOCK
 62
     0
 10
4.860414
 20
-0.649497
 30
0.0
 11
4.620379
 21
-0.649497
 31
0.0
  0
ARC
  5
952
  8
0
  6
BYBLOCK
 62
     0
 10
6.159729
 20
-0.70951
 30
0.0
 40
0.060013
 50
90.0
 51
180.0
  0
LINE
  5
953
  8
0
  6
BYBLOCK
 62
     0
 10
10.039573
 20
-0.70951
 30
0.0
 11
10.039573
 21
-5.14343
 31
0.0
  0
LINE
  5
954
  8
0
  6
BYBLOCK
 62
     0
 10
8.860284
 20
-0.70951
 30
0.0
 11
8.860284
 21
-5.40843
 31
0.0
  0
LINE
  5
955
  8
0
  6
BYBLOCK
 62
     0
 10
8.981954
 20
-5.14343
 30
0.0
 11
10.467954
 21
-5.14343
 31
0.0
  0
LINE
  5
956
  8
0
  6
BYBLOCK
 62
     0
 10
8.981954
 20
-5.91343
 30
0.0
 11
10.467954
 21
-5.91343
 31
0.0
  0
ARC
  5
957
  8
0
  6
BYBLOCK
 62
     0
 10
8.981954
 20
-5.19043
 30
0.0
 40
0.047
 50
90.0
 51
180.0
  0
LINE
  5
958
  8
0
  6
BYBLOCK
 62
     0
 10
7.534954
 20
-5.40843
 30
0.0
 11
8.934954
 21
-5.40843
 31
0.0
  0
LINE
  5
959
  8
0
  6
BYBLOCK
 62
     0
 10
7.534954
 20
-5.64843
 30
0.0
 11
8.934954
 21
-5.64843
 31
0.0
  0
LINE
  5
95A
  8
0
  6
BYBLOCK
 62
     0
 10
7.534954
 20
-5.64843
 30
0.0
 11
7.534954
 21
-5.40843
 31
0.0
  0
LINE
  5
95B
  8
0
  6
BYBLOCK
 62
     0
 10
7.534954
 20
-5.64843
 30
0.0
 11
7.534954
 21
-5.40843
 31
0.0
  0
LINE
  5
95C
  8
0
  6
BYBLOCK
 62
     0
 10
7.419867
 20
-5.64843
 30
0.0
 11
7.419867
 21
-5.40843
 31
0.0
  0
LINE
  5
95D
  8
0
  6
BYBLOCK
 62
     0
 10
7.419867
 20
-5.64843
 30
0.0
 11
7.419867
 21
-5.40843
 31
0.0
  0
LINE
  5
95E
  8
0
  6
BYBLOCK
 62
     0
 10
8.934954
 20
-5.86643
 30
0.0
 11
8.934954
 21
-5.64843
 31
0.0
  0
LINE
  5
95F
  8
0
  6
BYBLOCK
 62
     0
 10
8.934954
 20
-5.40843
 30
0.0
 11
8.934954
 21
-5.19043
 31
0.0
  0
LINE
  5
960
  8
0
  6
BYBLOCK
 62
     0
 10
8.855105
 20
-5.64843
 30
0.0
 11
8.855105
 21
-5.885305
 31
0.0
  0
ARC
  5
961
  8
0
  6
BYBLOCK
 62
     0
 10
8.981954
 20
-5.86643
 30
0.0
 40
0.047
 50
180.0
 51
270.0
  0
ARC
  5
962
  8
0
  6
BYBLOCK
 62
     0
 10
10.467954
 20
-5.19043
 30
0.0
 40
0.047
 50
0.0
 51
90.0
  0
LINE
  5
963
  8
0
  6
BYBLOCK
 62
     0
 10
9.557905
 20
-5.714427
 30
0.0
 11
9.930968
 21
-5.386804
 31
0.0
  0
LINE
  5
964
  8
0
  6
BYBLOCK
 62
     0
 10
9.518399
 20
-5.669268
 30
0.0
 11
9.89129
 21
-5.341796
 31
0.0
  0
CIRCLE
  5
965
  8
0
  6
BYBLOCK
 62
     0
 10
9.724954
 20
-5.52843
 30
0.0
 40
0.25
  0
CIRCLE
  5
966
  8
0
  6
BYBLOCK
 62
     0
 10
9.724954
 20
-5.52843
 30
0.0
 40
0.305
  0
LINE
  5
967
  8
0
  6
BYBLOCK
 62
     0
 10
10.514954
 20
-5.86643
 30
0.0
 11
10.514954
 21
-5.64843
 31
0.0
  0
ARC
  5
968
  8
0
  6
BYBLOCK
 62
     0
 10
10.467954
 20
-5.86643
 30
0.0
 40
0.047
 50
270.0
 51
0.0
  0
LINE
  5
969
  8
0
  6
BYBLOCK
 62
     0
 10
10.514954
 20
-5.40843
 30
0.0
 11
10.514954
 21
-5.19043
 31
0.0
  0
ARC
  5
96A
  8
0
  6
BYBLOCK
 62
     0
 10
6.328221
 20
-0.475892
 30
0.0
 40
0.17381
 50
267.21111
 51
319.191257
  0
ARC
  5
96B
  8
0
  6
BYBLOCK
 62
     0
 10
8.800271
 20
-0.70951
 30
0.0
 40
0.060013
 50
0.0
 51
90.0
  0
ARC
  5
96C
  8
0
  6
BYBLOCK
 62
     0
 10
8.560236
 20
-0.589484
 30
0.0
 40
0.060013
 50
180.0
 51
270.0
  0
LINE
  5
96D
  8
0
  6
BYBLOCK
 62
     0
 10
8.800271
 20
-0.649497
 30
0.0
 11
8.560236
 21
-0.649497
 31
0.0
  0
LINE
  5
96E
  8
0
  6
BYBLOCK
 62
     0
 10
9.724784
 20
-2.610492
 30
0.0
 11
9.174784
 21
-2.610492
 31
0.0
  0
ARC
  5
96F
  8
0
  6
BYBLOCK
 62
     0
 10
10.268078
 20
-0.475892
 30
0.0
 40
0.17381
 50
267.21111
 51
319.191257
  0
LINE
  5
970
  8
0
  6
BYBLOCK
 62
     0
 10
10.099586
 20
-0.649497
 30
0.0
 11
10.259621
 21
-0.649497
 31
0.0
  0
ARC
  5
971
  8
0
  6
BYBLOCK
 62
     0
 10
10.099586
 20
-0.70951
 30
0.0
 40
0.060013
 50
90.0
 51
180.0
  0
LINE
  5
972
  8
0
  6
BYBLOCK
 62
     0
 10
7.419867
 20
5.45772
 30
0.0
 11
6.019867
 21
5.45772
 31
0.0
  0
LINE
  5
973
  8
0
  6
BYBLOCK
 62
     0
 10
6.099716
 20
3.538466
 30
0.0
 11
8.860284
 21
3.538466
 31
0.0
  0
LINE
  5
974
  8
0
  6
BYBLOCK
 62
     0
 10
6.159729
 20
1.07088
 30
0.0
 11
6.319764
 21
1.07088
 31
0.0
  0
LINE
  5
975
  8
0
  6
BYBLOCK
 62
     0
 10
4.266716
 20
3.106553
 30
0.0
 11
4.266716
 21
1.830445
 31
0.0
  0
LINE
  5
976
  8
0
  6
BYBLOCK
 62
     0
 10
2.813569
 20
3.106553
 30
0.0
 11
2.813569
 21
1.830445
 31
0.0
  0
LINE
  5
977
  8
0
  6
BYBLOCK
 62
     0
 10
1.826904
 20
0.541918
 30
0.0
 11
1.826904
 21
2.901918
 31
0.0
  0
LINE
  5
978
  8
0
  6
BYBLOCK
 62
     0
 10
0.951904
 20
0.541918
 30
0.0
 11
0.951904
 21
2.901918
 31
0.0
  0
LINE
  5
979
  8
0
  6
BYBLOCK
 62
     0
 10
4.920427
 20
5.19272
 30
0.0
 11
4.920427
 21
1.130893
 31
0.0
  0
LINE
  5
97A
  8
0
  6
BYBLOCK
 62
     0
 10
6.099716
 20
5.390174
 30
0.0
 11
6.099716
 21
1.130893
 31
0.0
  0
LINE
  5
97B
  8
0
  6
BYBLOCK
 62
     0
 10
2.813569
 20
1.830445
 30
0.0
 11
4.266716
 21
1.830445
 31
0.0
  0
LINE
  5
97C
  8
0
  6
BYBLOCK
 62
     0
 10
2.813569
 20
0.845868
 30
0.0
 11
4.266716
 21
0.845868
 31
0.0
  0
LINE
  5
97D
  8
0
  6
BYBLOCK
 62
     0
 10
2.813569
 20
-0.430239
 30
0.0
 11
4.266716
 21
-0.430239
 31
0.0
  0
LINE
  5
97E
  8
0
  6
BYBLOCK
 62
     0
 10
1.765918
 20
1.049068
 30
0.0
 11
1.765918
 21
-0.233498
 31
0.0
  0
LINE
  5
97F
  8
0
  6
BYBLOCK
 62
     0
 10
1.765918
 20
-0.239336
 30
0.0
 11
1.765918
 21
1.04323
 31
0.0
  0
LINE
  5
980
  8
0
  6
BYBLOCK
 62
     0
 10
1.819762
 20
-0.246974
 30
0.0
 11
1.819762
 21
1.056706
 31
0.0
  0
LINE
  5
981
  8
0
  6
BYBLOCK
 62
     0
 10
1.644392
 20
-0.466143
 30
0.0
 11
0.951904
 21
-0.466143
 31
0.0
  0
LINE
  5
982
  8
0
  6
BYBLOCK
 62
     0
 10
1.644392
 20
-0.526143
 30
0.0
 11
0.951904
 21
-0.526143
 31
0.0
  0
LINE
  5
983
  8
0
  6
BYBLOCK
 62
     0
 10
0.951904
 20
-0.526143
 30
0.0
 11
0.951904
 21
-0.466143
 31
0.0
  0
ARC
  5
984
  8
0
  6
BYBLOCK
 62
     0
 10
1.705918
 20
-0.239336
 30
0.0
 40
0.06
 50
321.135623
 51
0.0
  0
ARC
  5
985
  8
0
  6
BYBLOCK
 62
     0
 10
1.699762
 20
-0.246974
 30
0.0
 40
0.12
 50
321.135623
 51
0.0
  0
LINE
  5
986
  8
0
  6
BYBLOCK
 62
     0
 10
1.819762
 20
-0.246974
 30
0.0
 11
1.737828
 21
-0.481441
 31
0.0
  0
LINE
  5
987
  8
0
  6
BYBLOCK
 62
     0
 10
1.765918
 20
-0.233498
 30
0.0
 11
1.69111
 21
-0.443792
 31
0.0
  0
ARC
  5
988
  8
0
  6
BYBLOCK
 62
     0
 10
1.644392
 20
-0.406143
 30
0.0
 40
0.06
 50
270.0
 51
321.135623
  0
ARC
  5
989
  8
0
  6
BYBLOCK
 62
     0
 10
1.644392
 20
-0.406143
 30
0.0
 40
0.12
 50
270.0
 51
321.135623
  0
LINE
  5
98A
  8
0
  6
BYBLOCK
 62
     0
 10
1.27375
 20
0.788918
 30
0.0
 11
1.505059
 21
0.788918
 31
0.0
  0
LINE
  5
98B
  8
0
  6
BYBLOCK
 62
     0
 10
1.27375
 20
0.724918
 30
0.0
 11
1.505059
 21
0.724918
 31
0.0
  0
CIRCLE
  5
98C
  8
0
  6
BYBLOCK
 62
     0
 10
1.389404
 20
0.756918
 30
0.0
 40
0.12
  0
LINE
  5
98D
  8
0
  6
BYBLOCK
 62
     0
 10
1.826904
 20
0.541918
 30
0.0
 11
0.951904
 21
0.541918
 31
0.0
  0
LINE
  5
98E
  8
0
  6
BYBLOCK
 62
     0
 10
2.813569
 20
0.845868
 30
0.0
 11
2.813569
 21
-0.430239
 31
0.0
  0
LINE
  5
98F
  8
0
  6
BYBLOCK
 62
     0
 10
1.011904
 20
1.406918
 30
0.0
 11
1.571904
 21
1.406918
 31
0.0
  0
LINE
  5
990
  8
0
  6
BYBLOCK
 62
     0
 10
1.826904
 20
1.531918
 30
0.0
 11
0.951904
 21
1.531918
 31
0.0
  0
LINE
  5
991
  8
0
  6
BYBLOCK
 62
     0
 10
1.011904
 20
1.156918
 30
0.0
 11
1.571904
 21
1.156918
 31
0.0
  0
LINE
  5
992
  8
0
  6
BYBLOCK
 62
     0
 10
1.644392
 20
1.275875
 30
0.0
 11
0.951904
 21
1.275875
 31
0.0
  0
LINE
  5
993
  8
0
  6
BYBLOCK
 62
     0
 10
1.644392
 20
1.335875
 30
0.0
 11
0.951904
 21
1.335875
 31
0.0
  0
LINE
  5
994
  8
0
  6
BYBLOCK
 62
     0
 10
1.826904
 20
0.971918
 30
0.0
 11
0.951904
 21
0.971918
 31
0.0
  0
LINE
  5
995
  8
0
  6
BYBLOCK
 62
     0
 10
0.951904
 20
1.335875
 30
0.0
 11
0.951904
 21
1.275875
 31
0.0
  0
LINE
  5
996
  8
0
  6
BYBLOCK
 62
     0
 10
1.011904
 20
1.156918
 30
0.0
 11
1.011904
 21
1.406918
 31
0.0
  0
ARC
  5
997
  8
0
  6
BYBLOCK
 62
     0
 10
1.644392
 20
1.215875
 30
0.0
 40
0.06
 50
38.864377
 51
90.0
  0
ARC
  5
998
  8
0
  6
BYBLOCK
 62
     0
 10
1.644392
 20
1.215875
 30
0.0
 40
0.12
 50
38.864377
 51
90.0
  0
LINE
  5
999
  8
0
  6
BYBLOCK
 62
     0
 10
1.571904
 20
1.156918
 30
0.0
 11
1.571904
 21
1.406918
 31
0.0
  0
LINE
  5
99A
  8
0
  6
BYBLOCK
 62
     0
 10
1.765918
 20
1.04323
 30
0.0
 11
1.69111
 21
1.253524
 31
0.0
  0
LINE
  5
99B
  8
0
  6
BYBLOCK
 62
     0
 10
1.819762
 20
1.056706
 30
0.0
 11
1.737828
 21
1.291172
 31
0.0
  0
LINE
  5
99C
  8
0
  6
BYBLOCK
 62
     0
 10
1.27375
 20
1.974918
 30
0.0
 11
1.505059
 21
1.974918
 31
0.0
  0
LINE
  5
99D
  8
0
  6
BYBLOCK
 62
     0
 10
1.27375
 20
2.038918
 30
0.0
 11
1.505059
 21
2.038918
 31
0.0
  0
CIRCLE
  5
99E
  8
0
  6
BYBLOCK
 62
     0
 10
1.389404
 20
2.006918
 30
0.0
 40
0.12
  0
LINE
  5
99F
  8
0
  6
BYBLOCK
 62
     0
 10
2.219871
 20
1.07088
 30
0.0
 11
2.379906
 21
1.07088
 31
0.0
  0
ARC
  5
9A0
  8
0
  6
BYBLOCK
 62
     0
 10
2.388363
 20
0.897275
 30
0.0
 40
0.17381
 50
40.808743
 51
92.78889
  0
ARC
  5
9A1
  8
0
  6
BYBLOCK
 62
     0
 10
2.219871
 20
1.130893
 30
0.0
 40
0.060013
 50
180.0
 51
270.0
  0
ARC
  5
9A2
  8
0
  6
BYBLOCK
 62
     0
 10
2.219871
 20
1.130893
 30
0.0
 40
0.060013
 50
180.0
 51
270.0
  0
LINE
  5
9A3
  8
0
  6
BYBLOCK
 62
     0
 10
4.266716
 20
0.845868
 30
0.0
 11
4.266716
 21
-0.430239
 31
0.0
  0
ARC
  5
9A4
  8
0
  6
BYBLOCK
 62
     0
 10
4.860414
 20
1.130893
 30
0.0
 40
0.060013
 50
270.0
 51
0.0
  0
ARC
  5
9A5
  8
0
  6
BYBLOCK
 62
     0
 10
4.620379
 20
1.010866
 30
0.0
 40
0.060013
 50
90.0
 51
180.0
  0
LINE
  5
9A6
  8
0
  6
BYBLOCK
 62
     0
 10
4.860414
 20
1.07088
 30
0.0
 11
4.620379
 21
1.07088
 31
0.0
  0
ARC
  5
9A7
  8
0
  6
BYBLOCK
 62
     0
 10
6.159729
 20
1.130893
 30
0.0
 40
0.060013
 50
180.0
 51
270.0
  0
LINE
  5
9A8
  8
0
  6
BYBLOCK
 62
     0
 10
4.439867
 20
5.45772
 30
0.0
 11
3.039867
 21
5.45772
 31
0.0
  0
LINE
  5
9A9
  8
0
  6
BYBLOCK
 62
     0
 10
2.53865
 20
4.149837
 30
0.0
 11
4.541635
 21
4.149837
 31
0.0
  0
LINE
  5
9AA
  8
0
  6
BYBLOCK
 62
     0
 10
2.53865
 20
5.187589
 30
0.0
 11
4.541635
 21
5.187589
 31
0.0
  0
LINE
  5
9AB
  8
0
  6
BYBLOCK
 62
     0
 10
2.813569
 20
3.106553
 30
0.0
 11
4.266716
 21
3.106553
 31
0.0
  0
LINE
  5
9AC
  8
0
  6
BYBLOCK
 62
     0
 10
2.159858
 20
3.538466
 30
0.0
 11
4.920427
 21
3.538466
 31
0.0
  0
LINE
  5
9AD
  8
0
  6
BYBLOCK
 62
     0
 10
1.359404
 20
3.021918
 30
0.0
 11
1.359404
 21
3.271918
 31
0.0
  0
LINE
  5
9AE
  8
0
  6
BYBLOCK
 62
     0
 10
1.343404
 20
3.021918
 30
0.0
 11
1.343404
 21
3.271918
 31
0.0
  0
LINE
  5
9AF
  8
0
  6
BYBLOCK
 62
     0
 10
1.766904
 20
3.021918
 30
0.0
 11
1.766904
 21
3.621918
 31
0.0
  0
LINE
  5
9B0
  8
0
  6
BYBLOCK
 62
     0
 10
1.419404
 20
3.021918
 30
0.0
 11
1.419404
 21
3.621918
 31
0.0
  0
LINE
  5
9B1
  8
0
  6
BYBLOCK
 62
     0
 10
1.011904
 20
3.021918
 30
0.0
 11
1.011904
 21
3.271918
 31
0.0
  0
LINE
  5
9B2
  8
0
  6
BYBLOCK
 62
     0
 10
1.027904
 20
3.021918
 30
0.0
 11
1.027904
 21
3.271918
 31
0.0
  0
LINE
  5
9B3
  8
0
  6
BYBLOCK
 62
     0
 10
1.796904
 20
3.021918
 30
0.0
 11
0.981904
 21
3.021918
 31
0.0
  0
LINE
  5
9B4
  8
0
  6
BYBLOCK
 62
     0
 10
1.826904
 20
2.901918
 30
0.0
 11
0.951904
 21
2.901918
 31
0.0
  0
LINE
  5
9B5
  8
0
  6
BYBLOCK
 62
     0
 10
1.201654
 20
3.215065
 30
0.0
 11
1.201654
 21
3.078772
 31
0.0
  0
LINE
  5
9B6
  8
0
  6
BYBLOCK
 62
     0
 10
1.169654
 20
3.215065
 30
0.0
 11
1.169654
 21
3.078772
 31
0.0
  0
CIRCLE
  5
9B7
  8
0
  6
BYBLOCK
 62
     0
 10
1.185654
 20
3.146918
 30
0.0
 40
0.07
  0
LINE
  5
9B8
  8
0
  6
BYBLOCK
 62
     0
 10
1.389404
 20
2.901918
 30
0.0
 11
1.389404
 21
3.021918
 31
0.0
  0
LINE
  5
9B9
  8
0
  6
BYBLOCK
 62
     0
 10
0.981904
 20
2.901918
 30
0.0
 11
0.981904
 21
3.021918
 31
0.0
  0
LINE
  5
9BA
  8
0
  6
BYBLOCK
 62
     0
 10
1.796904
 20
2.901918
 30
0.0
 11
1.796904
 21
3.021918
 31
0.0
  0
LINE
  5
9BB
  8
0
  6
BYBLOCK
 62
     0
 10
1.359404
 20
3.271918
 30
0.0
 11
1.011904
 21
3.271918
 31
0.0
  0
LINE
  5
9BC
  8
0
  6
BYBLOCK
 62
     0
 10
1.750904
 20
3.371918
 30
0.0
 11
1.750904
 21
3.621918
 31
0.0
  0
LINE
  5
9BD
  8
0
  6
BYBLOCK
 62
     0
 10
1.609154
 20
3.565065
 30
0.0
 11
1.609154
 21
3.428772
 31
0.0
  0
LINE
  5
9BE
  8
0
  6
BYBLOCK
 62
     0
 10
1.577154
 20
3.565065
 30
0.0
 11
1.577154
 21
3.428772
 31
0.0
  0
LINE
  5
9BF
  8
0
  6
BYBLOCK
 62
     0
 10
1.435404
 20
3.371918
 30
0.0
 11
1.435404
 21
3.621918
 31
0.0
  0
LINE
  5
9C0
  8
0
  6
BYBLOCK
 62
     0
 10
1.766904
 20
3.621918
 30
0.0
 11
1.419404
 21
3.621918
 31
0.0
  0
LINE
  5
9C1
  8
0
  6
BYBLOCK
 62
     0
 10
1.766904
 20
3.371918
 30
0.0
 11
1.419404
 21
3.371918
 31
0.0
  0
CIRCLE
  5
9C2
  8
0
  6
BYBLOCK
 62
     0
 10
1.593154
 20
3.496918
 30
0.0
 40
0.07
  0
LINE
  5
9C3
  8
0
  6
HIDDEN
 62
     0
 10
1.64
 20
4.36432
 30
0.0
 11
0.98
 21
4.36432
 31
0.0
  0
LINE
  5
9C4
  8
0
  6
BYBLOCK
 62
     0
 10
2.53865
 20
5.187589
 30
0.0
 11
2.53865
 21
4.149837
 31
0.0
  0
LINE
  5
9C5
  8
0
  6
BYBLOCK
 62
     0
 10
5.784927
 20
2.589508
 30
0.0
 11
5.234927
 21
2.589508
 31
0.0
  0
LINE
  5
9C6
  8
0
  6
BYBLOCK
 62
     0
 10
5.972867
 20
5.19272
 30
0.0
 11
4.486867
 21
5.19272
 31
0.0
  0
LINE
  5
9C7
  8
0
  6
BYBLOCK
 62
     0
 10
4.541635
 20
5.187589
 30
0.0
 11
4.541635
 21
4.149837
 31
0.0
  0
ARC
  5
9C8
  8
0
  6
BYBLOCK
 62
     0
 10
4.486867
 20
5.23972
 30
0.0
 40
0.047
 50
180.0
 51
270.0
  0
LINE
  5
9C9
  8
0
  6
BYBLOCK
 62
     0
 10
4.439867
 20
5.23972
 30
0.0
 11
4.439867
 21
5.45772
 31
0.0
  0
LINE
  5
9CA
  8
0
  6
BYBLOCK
 62
     0
 10
6.099716
 20
5.45772
 30
0.0
 11
6.099716
 21
5.220845
 31
0.0
  0
ARC
  5
9CB
  8
0
  6
BYBLOCK
 62
     0
 10
5.972867
 20
5.23972
 30
0.0
 40
0.047
 50
270.0
 51
0.0
  0
LINE
  5
9CC
  8
0
  6
BYBLOCK
 62
     0
 10
6.019867
 20
5.23972
 30
0.0
 11
6.019867
 21
5.45772
 31
0.0
  0
LINE
  5
9CD
  8
0
  6
BYBLOCK
 62
     0
 10
10.693284
 20
3.106553
 30
0.0
 11
10.693284
 21
1.830445
 31
0.0
  0
LINE
  5
9CE
  8
0
  6
BYBLOCK
 62
     0
 10
10.039573
 20
5.125174
 30
0.0
 11
10.039573
 21
1.130893
 31
0.0
  0
LINE
  5
9CF
  8
0
  6
BYBLOCK
 62
     0
 10
8.206573
 20
3.106553
 30
0.0
 11
8.206573
 21
1.830445
 31
0.0
  0
LINE
  5
9D0
  8
0
  6
BYBLOCK
 62
     0
 10
6.753427
 20
3.106553
 30
0.0
 11
6.753427
 21
1.830445
 31
0.0
  0
LINE
  5
9D1
  8
0
  6
BYBLOCK
 62
     0
 10
8.860284
 20
5.45772
 30
0.0
 11
8.860284
 21
1.130893
 31
0.0
  0
LINE
  5
9D2
  8
0
  6
BYBLOCK
 62
     0
 10
6.753427
 20
0.845868
 30
0.0
 11
8.206573
 21
0.845868
 31
0.0
  0
LINE
  5
9D3
  8
0
  6
BYBLOCK
 62
     0
 10
6.753427
 20
-0.430239
 30
0.0
 11
8.206573
 21
-0.430239
 31
0.0
  0
LINE
  5
9D4
  8
0
  6
BYBLOCK
 62
     0
 10
6.753427
 20
0.845868
 30
0.0
 11
6.753427
 21
-0.430239
 31
0.0
  0
LINE
  5
9D5
  8
0
  6
BYBLOCK
 62
     0
 10
8.206573
 20
0.845868
 30
0.0
 11
8.206573
 21
-0.430239
 31
0.0
  0
LINE
  5
9D6
  8
0
  6
BYBLOCK
 62
     0
 10
6.753427
 20
1.830445
 30
0.0
 11
8.206573
 21
1.830445
 31
0.0
  0
ARC
  5
9D7
  8
0
  6
BYBLOCK
 62
     0
 10
6.328221
 20
0.897275
 30
0.0
 40
0.17381
 50
40.808743
 51
92.78889
  0
ARC
  5
9D8
  8
0
  6
BYBLOCK
 62
     0
 10
8.800271
 20
1.130893
 30
0.0
 40
0.060013
 50
270.0
 51
0.0
  0
ARC
  5
9D9
  8
0
  6
BYBLOCK
 62
     0
 10
8.560236
 20
1.010866
 30
0.0
 40
0.060013
 50
90.0
 51
180.0
  0
LINE
  5
9DA
  8
0
  6
BYBLOCK
 62
     0
 10
8.800271
 20
1.07088
 30
0.0
 11
8.560236
 21
1.07088
 31
0.0
  0
LINE
  5
9DB
  8
0
  6
BYBLOCK
 62
     0
 10
10.693284
 20
0.845868
 30
0.0
 11
10.693284
 21
-0.430239
 31
0.0
  0
ARC
  5
9DC
  8
0
  6
BYBLOCK
 62
     0
 10
10.268078
 20
0.897275
 30
0.0
 40
0.17381
 50
40.808743
 51
92.78889
  0
LINE
  5
9DD
  8
0
  6
BYBLOCK
 62
     0
 10
10.099586
 20
1.07088
 30
0.0
 11
10.259621
 21
1.07088
 31
0.0
  0
ARC
  5
9DE
  8
0
  6
BYBLOCK
 62
     0
 10
10.099586
 20
1.130893
 30
0.0
 40
0.060013
 50
180.0
 51
270.0
  0
LINE
  5
9DF
  8
0
  6
BYBLOCK
 62
     0
 10
8.981954
 20
5.19272
 30
0.0
 11
10.467954
 21
5.19272
 31
0.0
  0
LINE
  5
9E0
  8
0
  6
BYBLOCK
 62
     0
 10
6.753427
 20
3.106553
 30
0.0
 11
8.206573
 21
3.106553
 31
0.0
  0
LINE
  5
9E1
  8
0
  6
BYBLOCK
 62
     0
 10
6.478507
 20
5.187589
 30
0.0
 11
8.481493
 21
5.187589
 31
0.0
  0
LINE
  5
9E2
  8
0
  6
BYBLOCK
 62
     0
 10
6.478507
 20
4.149837
 30
0.0
 11
8.481493
 21
4.149837
 31
0.0
  0
LINE
  5
9E3
  8
0
  6
BYBLOCK
 62
     0
 10
7.534954
 20
5.45772
 30
0.0
 11
8.934954
 21
5.45772
 31
0.0
  0
LINE
  5
9E4
  8
0
  6
BYBLOCK
 62
     0
 10
6.478507
 20
5.187589
 30
0.0
 11
6.478507
 21
4.149837
 31
0.0
  0
LINE
  5
9E5
  8
0
  6
BYBLOCK
 62
     0
 10
8.481493
 20
5.187589
 30
0.0
 11
8.481493
 21
4.149837
 31
0.0
  0
LINE
  5
9E6
  8
0
  6
BYBLOCK
 62
     0
 10
8.934954
 20
5.23972
 30
0.0
 11
8.934954
 21
5.45772
 31
0.0
  0
ARC
  5
9E7
  8
0
  6
BYBLOCK
 62
     0
 10
8.981954
 20
5.23972
 30
0.0
 40
0.047
 50
180.0
 51
270.0
  0
LINE
  5
9E8
  8
0
  6
BYBLOCK
 62
     0
 10
9.724784
 20
2.589508
 30
0.0
 11
9.174784
 21
2.589508
 31
0.0
  0
LINE
  5
9E9
  8
0
  6
BYBLOCK
 62
     0
 10
10.418365
 20
5.187589
 30
0.0
 11
10.418365
 21
4.149837
 31
0.0
  0
ARC
  5
9EA
  8
0
  6
BYBLOCK
 62
     0
 10
10.467954
 20
5.23972
 30
0.0
 40
0.047
 50
270.0
 51
0.0
  0
LINE
  5
9EB
  8
0
  6
BYBLOCK
 62
     0
 10
10.514954
 20
5.23972
 30
0.0
 11
10.514954
 21
5.45772
 31
0.0
  0
LINE
  5
9EC
  8
0
  6
BYBLOCK
 62
     0
 10
13.32
 20
-5.885305
 30
0.0
 11
13.32
 21
-0.526143
 31
0.0
  0
LINE
  5
9ED
  8
0
  6
BYBLOCK
 62
     0
 10
12.440081
 20
1.010866
 30
0.0
 11
12.440081
 21
-0.589484
 31
0.0
  0
LINE
  5
9EE
  8
0
  6
BYBLOCK
 62
     0
 10
12.800142
 20
-0.70951
 30
0.0
 11
12.800142
 21
-5.885305
 31
0.0
  0
LINE
  5
9EF
  8
0
  6
BYBLOCK
 62
     0
 10
11.914954
 20
-5.64843
 30
0.0
 11
11.914954
 21
-5.40843
 31
0.0
  0
LINE
  5
9F0
  8
0
  6
BYBLOCK
 62
     0
 10
13.98
 20
-2.995492
 30
0.0
 11
13.32
 21
-2.995492
 31
0.0
  0
LINE
  5
9F1
  8
0
  6
BYBLOCK
 62
     0
 10
12.740129
 20
-0.649497
 30
0.0
 11
12.500094
 21
-0.649497
 31
0.0
  0
ARC
  5
9F2
  8
0
  6
BYBLOCK
 62
     0
 10
12.500094
 20
-0.589484
 30
0.0
 40
0.060013
 50
180.0
 51
270.0
  0
ARC
  5
9F3
  8
0
  6
BYBLOCK
 62
     0
 10
12.740129
 20
-0.70951
 30
0.0
 40
0.060013
 50
0.0
 51
90.0
  0
LINE
  5
9F4
  8
0
  6
BYBLOCK
 62
     0
 10
13.98
 20
0.541918
 30
0.0
 11
13.98
 21
2.901918
 31
0.0
  0
LINE
  5
9F5
  8
0
  6
BYBLOCK
 62
     0
 10
12.146431
 20
3.106553
 30
0.0
 11
12.146431
 21
1.830445
 31
0.0
  0
LINE
  5
9F6
  8
0
  6
BYBLOCK
 62
     0
 10
13.105
 20
0.541918
 30
0.0
 11
13.105
 21
2.901918
 31
0.0
  0
LINE
  5
9F7
  8
0
  6
BYBLOCK
 62
     0
 10
13.112142
 20
-0.246974
 30
0.0
 11
13.112142
 21
1.056706
 31
0.0
  0
LINE
  5
9F8
  8
0
  6
BYBLOCK
 62
     0
 10
13.165987
 20
-0.239336
 30
0.0
 11
13.165987
 21
1.04323
 31
0.0
  0
LINE
  5
9F9
  8
0
  6
BYBLOCK
 62
     0
 10
13.165987
 20
1.049068
 30
0.0
 11
13.165987
 21
-0.233498
 31
0.0
  0
LINE
  5
9FA
  8
0
  6
BYBLOCK
 62
     0
 10
13.165987
 20
-0.233498
 30
0.0
 11
13.240794
 21
-0.443792
 31
0.0
  0
LINE
  5
9FB
  8
0
  6
BYBLOCK
 62
     0
 10
13.105
 20
0.541918
 30
0.0
 11
13.98
 21
0.541918
 31
0.0
  0
ARC
  5
9FC
  8
0
  6
BYBLOCK
 62
     0
 10
13.287512
 20
-0.406143
 30
0.0
 40
0.12
 50
218.864377
 51
270.0
  0
LINE
  5
9FD
  8
0
  6
BYBLOCK
 62
     0
 10
12.146431
 20
0.845868
 30
0.0
 11
12.146431
 21
-0.430239
 31
0.0
  0
ARC
  5
9FE
  8
0
  6
BYBLOCK
 62
     0
 10
13.225987
 20
-0.239336
 30
0.0
 40
0.06
 50
180.0
 51
218.864377
  0
ARC
  5
9FF
  8
0
  6
BYBLOCK
 62
     0
 10
13.232142
 20
-0.246974
 30
0.0
 40
0.12
 50
180.0
 51
218.864377
  0
LINE
  5
A00
  8
0
  6
BYBLOCK
 62
     0
 10
13.112142
 20
-0.246974
 30
0.0
 11
13.194076
 21
-0.481441
 31
0.0
  0
LINE
  5
A01
  8
0
  6
BYBLOCK
 62
     0
 10
13.287512
 20
-0.466143
 30
0.0
 11
13.98
 21
-0.466143
 31
0.0
  0
LINE
  5
A02
  8
0
  6
BYBLOCK
 62
     0
 10
13.287512
 20
-0.526143
 30
0.0
 11
13.98
 21
-0.526143
 31
0.0
  0
ARC
  5
A03
  8
0
  6
BYBLOCK
 62
     0
 10
13.287512
 20
-0.406143
 30
0.0
 40
0.06
 50
218.864377
 51
270.0
  0
LINE
  5
A04
  8
0
  6
BYBLOCK
 62
     0
 10
13.98
 20
-0.526143
 30
0.0
 11
13.98
 21
-0.466143
 31
0.0
  0
LINE
  5
A05
  8
0
  6
BYBLOCK
 62
     0
 10
13.658155
 20
0.788918
 30
0.0
 11
13.426845
 21
0.788918
 31
0.0
  0
LINE
  5
A06
  8
0
  6
BYBLOCK
 62
     0
 10
13.658155
 20
0.724918
 30
0.0
 11
13.426845
 21
0.724918
 31
0.0
  0
CIRCLE
  5
A07
  8
0
  6
BYBLOCK
 62
     0
 10
13.5425
 20
0.756918
 30
0.0
 40
0.12
  0
ARC
  5
A08
  8
0
  6
BYBLOCK
 62
     0
 10
13.287512
 20
1.215875
 30
0.0
 40
0.12
 50
90.0
 51
141.135623
  0
LINE
  5
A09
  8
0
  6
BYBLOCK
 62
     0
 10
13.165987
 20
1.04323
 30
0.0
 11
13.240794
 21
1.253524
 31
0.0
  0
LINE
  5
A0A
  8
0
  6
BYBLOCK
 62
     0
 10
13.105
 20
1.531918
 30
0.0
 11
13.98
 21
1.531918
 31
0.0
  0
LINE
  5
A0B
  8
0
  6
BYBLOCK
 62
     0
 10
13.105
 20
0.971918
 30
0.0
 11
13.98
 21
0.971918
 31
0.0
  0
LINE
  5
A0C
  8
0
  6
BYBLOCK
 62
     0
 10
12.740129
 20
1.07088
 30
0.0
 11
12.500094
 21
1.07088
 31
0.0
  0
ARC
  5
A0D
  8
0
  6
BYBLOCK
 62
     0
 10
12.500094
 20
1.010866
 30
0.0
 40
0.060013
 50
90.0
 51
180.0
  0
ARC
  5
A0E
  8
0
  6
BYBLOCK
 62
     0
 10
12.740129
 20
1.130893
 30
0.0
 40
0.060013
 50
270.0
 51
0.0
  0
LINE
  5
A0F
  8
0
  6
BYBLOCK
 62
     0
 10
13.112142
 20
1.056706
 30
0.0
 11
13.194076
 21
1.291172
 31
0.0
  0
LINE
  5
A10
  8
0
  6
BYBLOCK
 62
     0
 10
13.92
 20
1.406918
 30
0.0
 11
13.36
 21
1.406918
 31
0.0
  0
LINE
  5
A11
  8
0
  6
BYBLOCK
 62
     0
 10
13.92
 20
1.156918
 30
0.0
 11
13.36
 21
1.156918
 31
0.0
  0
LINE
  5
A12
  8
0
  6
BYBLOCK
 62
     0
 10
13.287512
 20
1.335875
 30
0.0
 11
13.98
 21
1.335875
 31
0.0
  0
LINE
  5
A13
  8
0
  6
BYBLOCK
 62
     0
 10
13.287512
 20
1.275875
 30
0.0
 11
13.98
 21
1.275875
 31
0.0
  0
ARC
  5
A14
  8
0
  6
BYBLOCK
 62
     0
 10
13.287512
 20
1.215875
 30
0.0
 40
0.06
 50
90.0
 51
141.135623
  0
LINE
  5
A15
  8
0
  6
BYBLOCK
 62
     0
 10
13.36
 20
1.156918
 30
0.0
 11
13.36
 21
1.406918
 31
0.0
  0
LINE
  5
A16
  8
0
  6
BYBLOCK
 62
     0
 10
13.98
 20
1.335875
 30
0.0
 11
13.98
 21
1.275875
 31
0.0
  0
LINE
  5
A17
  8
0
  6
BYBLOCK
 62
     0
 10
13.92
 20
1.156918
 30
0.0
 11
13.92
 21
1.406918
 31
0.0
  0
LINE
  5
A18
  8
0
  6
BYBLOCK
 62
     0
 10
13.658155
 20
1.974918
 30
0.0
 11
13.426845
 21
1.974918
 31
0.0
  0
LINE
  5
A19
  8
0
  6
BYBLOCK
 62
     0
 10
13.658155
 20
2.038918
 30
0.0
 11
13.426845
 21
2.038918
 31
0.0
  0
CIRCLE
  5
A1A
  8
0
  6
BYBLOCK
 62
     0
 10
13.5425
 20
2.006918
 30
0.0
 40
0.12
  0
ARC
  5
A1B
  8
0
  6
BYBLOCK
 62
     0
 10
13.630998
 20
4.050921
 30
0.0
 40
0.244563
 50
310.417438
 51
49.582562
  0
ARC
  5
A1C
  8
0
  6
BYBLOCK
 62
     0
 10
13.564563
 20
4.050921
 30
0.0
 40
0.244563
 50
130.417438
 51
229.582562
  0
LINE
  5
A1D
  8
0
  6
BYBLOCK
 62
     0
 10
13.165
 20
3.621918
 30
0.0
 11
13.5125
 21
3.621918
 31
0.0
  0
LINE
  5
A1E
  8
0
  6
BYBLOCK
 62
     0
 10
13.165
 20
3.371918
 30
0.0
 11
13.5125
 21
3.371918
 31
0.0
  0
LINE
  5
A1F
  8
0
  6
BYBLOCK
 62
     0
 10
13.135
 20
3.021918
 30
0.0
 11
13.95
 21
3.021918
 31
0.0
  0
LINE
  5
A20
  8
0
  6
BYBLOCK
 62
     0
 10
13.105
 20
2.901918
 30
0.0
 11
13.98
 21
2.901918
 31
0.0
  0
LINE
  5
A21
  8
0
  6
BYBLOCK
 62
     0
 10
13.165
 20
3.021918
 30
0.0
 11
13.165
 21
3.621918
 31
0.0
  0
LINE
  5
A22
  8
0
  6
BYBLOCK
 62
     0
 10
13.135
 20
2.901918
 30
0.0
 11
13.135
 21
3.021918
 31
0.0
  0
LINE
  5
A23
  8
0
  6
BYBLOCK
 62
     0
 10
13.181
 20
3.371918
 30
0.0
 11
13.181
 21
3.621918
 31
0.0
  0
LINE
  5
A24
  8
0
  6
BYBLOCK
 62
     0
 10
13.92
 20
3.021918
 30
0.0
 11
13.92
 21
3.271918
 31
0.0
  0
LINE
  5
A25
  8
0
  6
BYBLOCK
 62
     0
 10
13.904
 20
3.021918
 30
0.0
 11
13.904
 21
3.271918
 31
0.0
  0
LINE
  5
A26
  8
0
  6
BYBLOCK
 62
     0
 10
13.5725
 20
3.021918
 30
0.0
 11
13.5725
 21
3.271918
 31
0.0
  0
LINE
  5
A27
  8
0
  6
BYBLOCK
 62
     0
 10
13.5885
 20
3.021918
 30
0.0
 11
13.5885
 21
3.271918
 31
0.0
  0
LINE
  5
A28
  8
0
  6
BYBLOCK
 62
     0
 10
13.5125
 20
3.021918
 30
0.0
 11
13.5125
 21
3.621918
 31
0.0
  0
LINE
  5
A29
  8
0
  6
BYBLOCK
 62
     0
 10
13.73025
 20
3.215065
 30
0.0
 11
13.73025
 21
3.078772
 31
0.0
  0
LINE
  5
A2A
  8
0
  6
BYBLOCK
 62
     0
 10
13.76225
 20
3.215065
 30
0.0
 11
13.76225
 21
3.078772
 31
0.0
  0
CIRCLE
  5
A2B
  8
0
  6
BYBLOCK
 62
     0
 10
13.74625
 20
3.146918
 30
0.0
 40
0.07
  0
LINE
  5
A2C
  8
0
  6
BYBLOCK
 62
     0
 10
13.5425
 20
2.901918
 30
0.0
 11
13.5425
 21
3.021918
 31
0.0
  0
LINE
  5
A2D
  8
0
  6
BYBLOCK
 62
     0
 10
13.95
 20
2.901918
 30
0.0
 11
13.95
 21
3.021918
 31
0.0
  0
LINE
  5
A2E
  8
0
  6
BYBLOCK
 62
     0
 10
13.5725
 20
3.271918
 30
0.0
 11
13.92
 21
3.271918
 31
0.0
  0
LINE
  5
A2F
  8
0
  6
BYBLOCK
 62
     0
 10
13.4965
 20
3.371918
 30
0.0
 11
13.4965
 21
3.621918
 31
0.0
  0
CIRCLE
  5
A30
  8
0
  6
BYBLOCK
 62
     0
 10
13.33875
 20
3.496918
 30
0.0
 40
0.07
  0
LINE
  5
A31
  8
0
  6
BYBLOCK
 62
     0
 10
13.32275
 20
3.565065
 30
0.0
 11
13.32275
 21
3.428772
 31
0.0
  0
LINE
  5
A32
  8
0
  6
BYBLOCK
 62
     0
 10
13.35475
 20
3.565065
 30
0.0
 11
13.35475
 21
3.428772
 31
0.0
  0
LINE
  5
A33
  8
0
  6
BYBLOCK
 62
     0
 10
13.406
 20
3.864726
 30
0.0
 11
13.78956
 21
3.864726
 31
0.0
  0
LINE
  5
A34
  8
0
  6
BYBLOCK
 62
     0
 10
12.42135
 20
5.187589
 30
0.0
 11
12.42135
 21
4.149837
 31
0.0
  0
ARC
  5
A35
  8
0
  6
BYBLOCK
 62
     0
 10
13.02631
 20
4.609508
 30
0.0
 40
0.84925
 50
333.992176
 51
26.007824
  0
LINE
  5
A36
  8
0
  6
BYBLOCK
 62
     0
 10
13.87556
 20
4.050921
 30
0.0
 11
13.87556
 21
5.168094
 31
0.0
  0
ARC
  5
A37
  8
0
  6
BYBLOCK
 62
     0
 10
14.16925
 20
4.609508
 30
0.0
 40
0.84925
 50
153.992176
 51
206.007824
  0
LINE
  5
A38
  8
0
  6
BYBLOCK
 62
     0
 10
13.32
 20
4.050921
 30
0.0
 11
13.32
 21
5.168094
 31
0.0
  0
LINE
  5
A39
  8
0
  6
BYBLOCK
 62
     0
 10
13.406
 20
4.237117
 30
0.0
 11
13.78956
 21
4.237117
 31
0.0
  0
ARC
  5
A3A
  8
0
  6
BYBLOCK
 62
     0
 10
13.630998
 20
5.168094
 30
0.0
 40
0.244563
 50
310.417438
 51
49.582562
  0
ARC
  5
A3B
  8
0
  6
BYBLOCK
 62
     0
 10
13.564563
 20
5.168094
 30
0.0
 40
0.244563
 50
130.417438
 51
229.582562
  0
LINE
  5
A3C
  8
0
  6
BYBLOCK
 62
     0
 10
13.406
 20
5.35429
 30
0.0
 11
13.78956
 21
5.35429
 31
0.0
  0
LINE
  5
A3D
  8
0
  6
BYBLOCK
 62
     0
 10
13.406
 20
4.981899
 30
0.0
 11
13.78956
 21
4.981899
 31
0.0
  0
LINE
  5
A4A
  8
0
  6
BYBLOCK
 62
     0
 10
10.514954
 20
5.69772
 30
0.0
 11
11.914954
 21
5.69772
 31
0.0
  0
LINE
  5
A4B
  8
0
  6
BYBLOCK
 62
     0
 10
10.515047
 20
5.86432
 30
0.0
 11
13.32
 21
5.86432
 31
0.0
  0
LINE
  5
A5B
  8
0
  6
BYBLOCK
 62
     0
 10
7.419867
 20
5.69772
 30
0.0
 11
6.019867
 21
5.69772
 31
0.0
  0
ARC
  5
A61
  8
0
  6
HIDDEN
 62
     0
 10
2.9422
 20
7.61432
 30
0.0
 40
0.5
 50
300.0
 51
90.0
  0
LINE
  5
A65
  8
0
  6
BYBLOCK
 62
     0
 10
4.439867
 20
5.69772
 30
0.0
 11
3.039867
 21
5.69772
 31
0.0
  0
LINE
  5
A66
  8
0
  6
BYBLOCK
 62
     0
 10
1.64
 20
5.86432
 30
0.0
 11
4.446656
 21
5.86432
 31
0.0
  0
LINE
  5
A67
  8
0
  6
HIDDEN
 62
     0
 10
1.765
 20
6.264937
 30
0.0
 11
3.1922
 21
7.181308
 31
0.0
  0
LINE
  5
A69
  8
0
  6
HIDDEN
 62
     0
 10
1.64
 20
5.86432
 30
0.0
 11
1.565
 21
5.86432
 31
0.0
  0
LINE
  5
A6A
  8
0
  6
HIDDEN
 62
     0
 10
1.64
 20
5.86432
 30
0.0
 11
1.64
 21
6.048431
 31
0.0
  0
ARC
  5
A6B
  8
0
  6
HIDDEN
 62
     0
 10
1.89
 20
6.048431
 30
0.0
 40
0.25
 50
120.0
 51
180.0
  0
LINE
  5
A6D
  8
0
  6
BYBLOCK
 62
     0
 10
0.98
 20
7.614508
 30
0.0
 11
2.555891
 21
7.614508
 31
0.0
  0
LINE
  5
A6E
  8
0
  6
BYBLOCK
 62
     0
 10
1.48
 20
7.614508
 30
0.0
 11
1.48
 21
8.114508
 31
0.0
  0
CIRCLE
  5
A6F
  8
0
  6
HIDDEN
 62
     0
 10
2.9422
 20
7.61432
 30
0.0
 40
0.25
  0
LINE
  5
A70
  8
0
  6
HIDDEN
 62
     0
 10
2.9422
 20
8.11432
 30
0.0
 11
2.349882
 21
8.11432
 31
0.0
  0
LINE
  5
A73
  8
0
  6
BYBLOCK
 62
     0
 10
5.972867
 20
5.96272
 30
0.0
 11
4.486867
 21
5.96272
 31
0.0
  0
ARC
  5
A74
  8
0
  6
BYBLOCK
 62
     0
 10
4.486867
 20
5.91572
 30
0.0
 40
0.047
 50
90.0
 51
180.0
  0
LINE
  5
A75
  8
0
  6
BYBLOCK
 62
     0
 10
4.439867
 20
5.69772
 30
0.0
 11
4.439867
 21
5.91572
 31
0.0
  0
LINE
  5
A77
  8
0
  6
BYBLOCK
 62
     0
 10
6.019867
 20
5.69772
 30
0.0
 11
6.019867
 21
5.91572
 31
0.0
  0
ARC
  5
A78
  8
0
  6
BYBLOCK
 62
     0
 10
5.972867
 20
5.91572
 30
0.0
 40
0.047
 50
0.0
 51
90.0
  0
LINE
  5
A8E
  8
0
  6
BYBLOCK
 62
     0
 10
8.981954
 20
5.96272
 30
0.0
 11
10.467954
 21
5.96272
 31
0.0
  0
LINE
  5
A94
  8
0
  6
BYBLOCK
 62
     0
 10
7.534954
 20
5.69772
 30
0.0
 11
8.934954
 21
5.69772
 31
0.0
  0
LINE
  5
A97
  8
0
  6
BYBLOCK
 62
     0
 10
8.934954
 20
5.69772
 30
0.0
 11
8.934954
 21
5.91572
 31
0.0
  0
ARC
  5
A98
  8
0
  6
BYBLOCK
 62
     0
 10
8.981954
 20
5.91572
 30
0.0
 40
0.047
 50
90.0
 51
180.0
  0
ARC
  5
A9F
  8
0
  6
BYBLOCK
 62
     0
 10
10.467954
 20
5.91572
 30
0.0
 40
0.047
 50
0.0
 51
90.0
  0
LINE
  5
AA0
  8
0
  6
BYBLOCK
 62
     0
 10
10.514954
 20
5.69772
 30
0.0
 11
10.514954
 21
5.91572
 31
0.0
  0
LINE
  5
AC3
  8
0
  6
BYBLOCK
 62
     0
 10
13.98
 20
7.614508
 30
0.0
 11
12.404109
 21
7.614508
 31
0.0
  0
LINE
  5
AC4
  8
0
  6
BYBLOCK
 62
     0
 10
13.48
 20
8.114508
 30
0.0
 11
12.404109
 21
8.114508
 31
0.0
  0
LINE
  5
AC5
  8
0
  6
BYBLOCK
 62
     0
 10
13.48
 20
7.614508
 30
0.0
 11
13.48
 21
8.114508
 31
0.0
  0
LINE
  5
11F3
  8
0
  6
BYBLOCK
 62
     0
 10
-7.67685
 20
6.596231
 30
0.0
 11
-7.67685
 21
7.556643
 31
0.0
  0
LINE
  5
11F4
  8
0
  6
BYBLOCK
 62
     0
 10
-11.616708
 20
6.596231
 30
0.0
 11
-11.616708
 21
7.556643
 31
0.0
  0
CIRCLE
  5
11F5
  8
0
 10
-7.67685
 20
7.076437
 30
0.0
 40
0.334646
  0
CIRCLE
  5
11F6
  8
0
 10
-11.616708
 20
7.076437
 30
0.0
 40
0.334646
  0
CIRCLE
  5
11FB
  8
0
 10
-3.736993
 20
7.076437
 30
0.0
 40
0.334646
  0
LINE
  5
11FC
  8
0
  6
BYBLOCK
 62
     0
 10
-3.736993
 20
6.596231
 30
0.0
 11
-3.736993
 21
7.556643
 31
0.0
  0
LINE
  5
11FF
  8
0
  6
BYBLOCK
 62
     0
 10
-12.404109
 20
9.635492
 30
0.0
 11
-10.435606
 21
9.635492
 31
0.0
  0
LINE
  5
1201
  8
0
  6
BYBLOCK
 62
     0
 10
-11.223007
 20
8.171034
 30
0.0
 11
-11.223007
 21
9.131446
 31
0.0
  0
CIRCLE
  5
1202
  8
0
 10
-11.223007
 20
8.65124
 30
0.0
 40
0.334646
  0
LINE
  5
1203
  8
0
  6
BYBLOCK
 62
     0
 10
-11.703213
 20
8.65124
 30
0.0
 11
-10.742801
 21
8.65124
 31
0.0
  0
LINE
  5
1204
  8
0
  6
BYBLOCK
 62
     0
 10
-7.763355
 20
8.65124
 30
0.0
 11
-6.802944
 21
8.65124
 31
0.0
  0
LINE
  5
1205
  8
0
  6
BYBLOCK
 62
     0
 10
-7.28315
 20
8.171034
 30
0.0
 11
-7.28315
 21
9.131446
 31
0.0
  0
CIRCLE
  5
1206
  8
0
 10
-7.28315
 20
8.65124
 30
0.0
 40
0.334646
  0
CIRCLE
  5
1207
  8
0
 10
-3.343292
 20
8.65124
 30
0.0
 40
0.334646
  0
LINE
  5
1208
  8
0
  6
BYBLOCK
 62
     0
 10
-3.823498
 20
8.65124
 30
0.0
 11
-2.863086
 21
8.65124
 31
0.0
  0
LINE
  5
1209
  8
0
  6
BYBLOCK
 62
     0
 10
-3.343292
 20
8.171034
 30
0.0
 11
-3.343292
 21
9.131446
 31
0.0
  0
LINE
  5
120C
  8
0
  6
BYBLOCK
 62
     0
 10
-4.524394
 20
8.114508
 30
0.0
 11
-6.495748
 21
8.114508
 31
0.0
  0
LINE
  5
120F
  8
0
  6
BYBLOCK
 62
     0
 10
-8.464252
 20
8.114508
 30
0.0
 11
-10.435606
 21
8.114508
 31
0.0
  0
LINE
  5
1212
  8
0
  6
BYBLOCK
 62
     0
 10
-8.157056
 20
7.076437
 30
0.0
 11
-7.196645
 21
7.076437
 31
0.0
  0
LINE
  5
1214
  8
0
  6
BYBLOCK
 62
     0
 10
-12.096914
 20
7.076437
 30
0.0
 11
-11.136502
 21
7.076437
 31
0.0
  0
LINE
  5
1215
  8
0
  6
BYBLOCK
 62
     0
 10
-4.217199
 20
7.076437
 30
0.0
 11
-3.256787
 21
7.076437
 31
0.0
  0
LINE
  5
1216
  8
0
  6
BYBLOCK
 62
     0
 10
-4.524394
 20
-8.385492
 30
0.0
 11
-6.495748
 21
-8.385492
 31
0.0
  0
CIRCLE
  5
1219
  8
0
 10
-11.616708
 20
-8.65124
 30
0.0
 40
0.334646
  0
LINE
  5
121A
  8
0
  6
BYBLOCK
 62
     0
 10
-11.136502
 20
-8.65124
 30
0.0
 11
-12.096914
 21
-8.65124
 31
0.0
  0
LINE
  5
121B
  8
0
  6
BYBLOCK
 62
     0
 10
-10.435606
 20
-9.635492
 30
0.0
 11
-12.404109
 21
-9.635492
 31
0.0
  0
CIRCLE
  5
121C
  8
0
 10
-7.28315
 20
-7.076437
 30
0.0
 40
0.334646
  0
LINE
  5
121D
  8
0
  6
BYBLOCK
 62
     0
 10
-7.28315
 20
-6.596231
 30
0.0
 11
-7.28315
 21
-7.556643
 31
0.0
  0
CIRCLE
  5
121E
  8
0
 10
-11.223007
 20
-7.076437
 30
0.0
 40
0.334646
  0
LINE
  5
121F
  8
0
  6
BYBLOCK
 62
     0
 10
-11.223007
 20
-6.596231
 30
0.0
 11
-11.223007
 21
-7.556643
 31
0.0
  0
LINE
  5
1225
  8
0
  6
BYBLOCK
 62
     0
 10
-6.495748
 20
-9.635492
 30
0.0
 11
-8.464252
 21
-9.635492
 31
0.0
  0
LINE
  5
1226
  8
0
  6
BYBLOCK
 62
     0
 10
-8.464252
 20
-8.385492
 30
0.0
 11
-10.435606
 21
-8.385492
 31
0.0
  0
LINE
  5
1228
  8
0
  6
BYBLOCK
 62
     0
 10
-11.616708
 20
-8.171034
 30
0.0
 11
-11.616708
 21
-9.131446
 31
0.0
  0
LINE
  5
1229
  8
0
  6
BYBLOCK
 62
     0
 10
-7.67685
 20
-8.171034
 30
0.0
 11
-7.67685
 21
-9.131446
 31
0.0
  0
CIRCLE
  5
122A
  8
0
 10
-7.67685
 20
-8.65124
 30
0.0
 40
0.334646
  0
LINE
  5
122B
  8
0
  6
BYBLOCK
 62
     0
 10
-7.196645
 20
-8.65124
 30
0.0
 11
-8.157056
 21
-8.65124
 31
0.0
  0
LINE
  5
122C
  8
0
  6
BYBLOCK
 62
     0
 10
-10.742801
 20
-7.076437
 30
0.0
 11
-11.703213
 21
-7.076437
 31
0.0
  0
LINE
  5
122D
  8
0
  6
BYBLOCK
 62
     0
 10
-6.802944
 20
-7.076437
 30
0.0
 11
-7.763355
 21
-7.076437
 31
0.0
  0
CIRCLE
  5
122E
  8
0
 10
-3.343292
 20
-7.076437
 30
0.0
 40
0.334646
  0
LINE
  5
122F
  8
0
  6
BYBLOCK
 62
     0
 10
-3.343292
 20
-6.596231
 30
0.0
 11
-3.343292
 21
-7.556643
 31
0.0
  0
CIRCLE
  5
1232
  8
0
 10
-3.736993
 20
-8.65124
 30
0.0
 40
0.334646
  0
LINE
  5
1233
  8
0
  6
BYBLOCK
 62
     0
 10
-3.256787
 20
-8.65124
 30
0.0
 11
-4.217199
 21
-8.65124
 31
0.0
  0
LINE
  5
1234
  8
0
  6
BYBLOCK
 62
     0
 10
-2.555891
 20
-9.635492
 30
0.0
 11
-4.524394
 21
-9.635492
 31
0.0
  0
LINE
  5
1235
  8
0
  6
BYBLOCK
 62
     0
 10
-3.736993
 20
-8.171034
 30
0.0
 11
-3.736993
 21
-9.131446
 31
0.0
  0
LINE
  5
1236
  8
0
  6
BYBLOCK
 62
     0
 10
-2.863086
 20
-7.076437
 30
0.0
 11
-3.823498
 21
-7.076437
 31
0.0
  0
LINE
  5
1240
  8
0
  6
BYBLOCK
 62
     0
 10
3.256787
 20
8.65124
 30
0.0
 11
4.217199
 21
8.65124
 31
0.0
  0
CIRCLE
  5
1241
  8
0
 10
3.736993
 20
8.65124
 30
0.0
 40
0.334646
  0
LINE
  5
1242
  8
0
  6
BYBLOCK
 62
     0
 10
3.736993
 20
8.171034
 30
0.0
 11
3.736993
 21
9.131446
 31
0.0
  0
CIRCLE
  5
1243
  8
0
 10
7.67685
 20
8.65124
 30
0.0
 40
0.334646
  0
LINE
  5
1244
  8
0
  6
BYBLOCK
 62
     0
 10
7.196645
 20
8.65124
 30
0.0
 11
8.157056
 21
8.65124
 31
0.0
  0
LINE
  5
1246
  8
0
  6
BYBLOCK
 62
     0
 10
7.67685
 20
8.171034
 30
0.0
 11
7.67685
 21
9.131446
 31
0.0
  0
LINE
  5
124A
  8
0
  6
BYBLOCK
 62
     0
 10
11.616708
 20
8.171034
 30
0.0
 11
11.616708
 21
9.131446
 31
0.0
  0
CIRCLE
  5
124B
  8
0
 10
11.616708
 20
8.65124
 30
0.0
 40
0.334646
  0
LINE
  5
124C
  8
0
  6
BYBLOCK
 62
     0
 10
11.136502
 20
8.65124
 30
0.0
 11
12.096914
 21
8.65124
 31
0.0
  0
LINE
  5
124D
  8
0
  6
BYBLOCK
 62
     0
 10
10.435606
 20
8.114508
 30
0.0
 11
8.464252
 21
8.114508
 31
0.0
  0
CIRCLE
  5
1250
  8
0
 10
3.343292
 20
7.076437
 30
0.0
 40
0.334646
  0
CIRCLE
  5
1251
  8
0
 10
7.28315
 20
7.076437
 30
0.0
 40
0.334646
  0
LINE
  5
1252
  8
0
  6
BYBLOCK
 62
     0
 10
3.343292
 20
6.596231
 30
0.0
 11
3.343292
 21
7.556643
 31
0.0
  0
LINE
  5
1253
  8
0
  6
BYBLOCK
 62
     0
 10
7.28315
 20
6.596231
 30
0.0
 11
7.28315
 21
7.556643
 31
0.0
  0
LINE
  5
1254
  8
0
  6
BYBLOCK
 62
     0
 10
2.863086
 20
7.076437
 30
0.0
 11
3.823498
 21
7.076437
 31
0.0
  0
LINE
  5
1255
  8
0
  6
BYBLOCK
 62
     0
 10
6.802944
 20
7.076437
 30
0.0
 11
7.763355
 21
7.076437
 31
0.0
  0
LINE
  5
1256
  8
0
  6
BYBLOCK
 62
     0
 10
6.495748
 20
8.114508
 30
0.0
 11
4.524394
 21
8.114508
 31
0.0
  0
LINE
  5
125A
  8
0
  6
BYBLOCK
 62
     0
 10
11.223007
 20
6.596231
 30
0.0
 11
11.223007
 21
7.556643
 31
0.0
  0
CIRCLE
  5
125B
  8
0
 10
11.223007
 20
7.076437
 30
0.0
 40
0.334646
  0
LINE
  5
125C
  8
0
  6
BYBLOCK
 62
     0
 10
10.742801
 20
7.076437
 30
0.0
 11
11.703213
 21
7.076437
 31
0.0
  0
CIRCLE
  5
129B
  8
0
 62
     1
 10
-9.842205
 20
7.469508
 30
0.0
 40
0.275
  0
LINE
  5
129C
  8
0
  6
BYBLOCK
 62
     0
 10
-10.112205
 20
7.469508
 30
0.0
 11
-9.572205
 21
7.469508
 31
0.0
  0
LINE
  5
129D
  8
0
  6
BYBLOCK
 62
     0
 10
-5.117795
 20
7.199508
 30
0.0
 11
-5.117795
 21
7.739508
 31
0.0
  0
CIRCLE
  5
129E
  8
0
 62
     1
 10
-5.117795
 20
7.469508
 30
0.0
 40
0.275
  0
LINE
  5
129F
  8
0
  6
BYBLOCK
 62
     0
 10
-5.387795
 20
7.469508
 30
0.0
 11
-4.847795
 21
7.469508
 31
0.0
  0
LINE
  5
12A0
  8
0
  6
BYBLOCK
 62
     0
 10
-9.842205
 20
7.199508
 30
0.0
 11
-9.842205
 21
7.739508
 31
0.0
  0
CIRCLE
  5
12A1
  8
0
 62
     1
 10
-5.117795
 20
-7.490492
 30
0.0
 40
0.275
  0
LINE
  5
12A2
  8
0
  6
BYBLOCK
 62
     0
 10
-5.117795
 20
-7.760492
 30
0.0
 11
-5.117795
 21
-7.220492
 31
0.0
  0
LINE
  5
12A3
  8
0
  6
BYBLOCK
 62
     0
 10
-5.387795
 20
-7.490492
 30
0.0
 11
-4.847795
 21
-7.490492
 31
0.0
  0
CIRCLE
  5
12A4
  8
0
 62
     1
 10
-9.842205
 20
-7.490492
 30
0.0
 40
0.275
  0
LINE
  5
12A5
  8
0
  6
BYBLOCK
 62
     0
 10
-9.842205
 20
-7.760492
 30
0.0
 11
-9.842205
 21
-7.220492
 31
0.0
  0
LINE
  5
12A6
  8
0
  6
BYBLOCK
 62
     0
 10
-10.112205
 20
-7.490492
 30
0.0
 11
-9.572205
 21
-7.490492
 31
0.0
  0
CIRCLE
  5
12A7
  8
0
 62
     1
 10
5.117795
 20
7.469508
 30
0.0
 40
0.275
  0
LINE
  5
12A8
  8
0
  6
BYBLOCK
 62
     0
 10
4.847795
 20
7.469508
 30
0.0
 11
5.387795
 21
7.469508
 31
0.0
  0
LINE
  5
12A9
  8
0
  6
BYBLOCK
 62
     0
 10
9.842205
 20
7.199508
 30
0.0
 11
9.842205
 21
7.739508
 31
0.0
  0
CIRCLE
  5
12AA
  8
0
 62
     1
 10
9.842205
 20
7.469508
 30
0.0
 40
0.275
  0
LINE
  5
12AB
  8
0
  6
BYBLOCK
 62
     0
 10
9.572205
 20
7.469508
 30
0.0
 11
10.112205
 21
7.469508
 31
0.0
  0
LINE
  5
12AC
  8
0
  6
BYBLOCK
 62
     0
 10
5.117795
 20
7.199508
 30
0.0
 11
5.117795
 21
7.739508
 31
0.0
  0
LINE
  5
12CB
  8
0
 10
-12.404109
 20
9.635492
 30
0.0
 11
-12.404109
 21
5.86432
 31
0.0
  0
LINE
  5
12CC
  8
0
 10
-10.435606
 20
9.635492
 30
0.0
 11
-10.435606
 21
5.96272
 31
0.0
  0
LINE
  5
12CD
  8
0
 10
-6.495748
 20
9.635492
 30
0.0
 11
-6.495748
 21
5.69772
 31
0.0
  0
LINE
  5
12CE
  8
0
 10
-8.464252
 20
9.635492
 30
0.0
 11
-8.464252
 21
5.69772
 31
0.0
  0
LINE
  5
12CF
  8
0
  6
BYBLOCK
 62
     0
 10
-8.464252
 20
9.635492
 30
0.0
 11
-6.495748
 21
9.635492
 31
0.0
  0
LINE
  5
12D0
  8
0
 10
-2.555891
 20
9.635492
 30
0.0
 11
-2.555891
 21
5.86432
 31
0.0
  0
LINE
  5
12D1
  8
0
 10
-4.524394
 20
9.635492
 30
0.0
 11
-4.524394
 21
5.96272
 31
0.0
  0
LINE
  5
12D2
  8
0
  6
BYBLOCK
 62
     0
 10
-4.524394
 20
9.635492
 30
0.0
 11
-2.555891
 21
9.635492
 31
0.0
  0
LINE
  5
12D3
  8
0
 10
-6.495748
 20
-5.885305
 30
0.0
 11
-6.495748
 21
-9.635492
 31
0.0
  0
LINE
  5
12D4
  8
0
 10
-8.464252
 20
-5.885305
 30
0.0
 11
-8.464252
 21
-9.635492
 31
0.0
  0
LINE
  5
12F2
  8
0
 10
-10.435606
 20
-5.91343
 30
0.0
 11
-10.435606
 21
-9.635492
 31
0.0
  0
LINE
  5
12F3
  8
0
 10
-12.404109
 20
-5.885305
 30
0.0
 11
-12.404109
 21
-9.635492
 31
0.0
  0
LINE
  5
12F4
  8
0
 10
-2.555891
 20
-5.885305
 30
0.0
 11
-2.555891
 21
-9.635492
 31
0.0
  0
LINE
  5
12F5
  8
0
 10
-4.524394
 20
-5.91343
 30
0.0
 11
-4.524394
 21
-9.635492
 31
0.0
  0
LINE
  5
12F7
  8
0
  6
BYBLOCK
 62
     0
 10
6.495748
 20
-8.385492
 30
0.0
 11
4.524394
 21
-8.385492
 31
0.0
  0
LINE
  5
12F8
  8
0
 10
4.524394
 20
-5.91343
 30
0.0
 11
4.524394
 21
-9.635492
 31
0.0
  0
LINE
  5
12F9
  8
0
 10
2.555891
 20
-5.885305
 30
0.0
 11
2.555891
 21
-9.635492
 31
0.0
  0
LINE
  5
12FA
  8
0
  6
BYBLOCK
 62
     0
 10
0.98
 20
-2.995492
 30
0.0
 11
0.98
 21
-7.635492
 31
0.0
  0
LINE
  5
12FB
  8
0
  6
BYBLOCK
 62
     0
 10
2.555891
 20
-8.385492
 30
0.0
 11
1.48
 21
-8.385492
 31
0.0
  0
LINE
  5
12FC
  8
0
  6
BYBLOCK
 62
     0
 10
0.98
 20
-7.635492
 30
0.0
 11
2.555891
 21
-7.635492
 31
0.0
  0
LINE
  5
12FD
  8
0
  6
BYBLOCK
 62
     0
 10
1.48
 20
-7.635492
 30
0.0
 11
1.48
 21
-8.385492
 31
0.0
  0
LINE
  5
12FE
  8
0
  6
BYBLOCK
 62
     0
 10
4.524394
 20
-9.635492
 30
0.0
 11
2.555891
 21
-9.635492
 31
0.0
  0
LINE
  5
12FF
  8
0
  6
BYBLOCK
 62
     0
 10
4.217199
 20
-7.076437
 30
0.0
 11
3.256787
 21
-7.076437
 31
0.0
  0
CIRCLE
  5
1300
  8
0
 10
3.736993
 20
-7.076437
 30
0.0
 40
0.334646
  0
LINE
  5
1301
  8
0
  6
BYBLOCK
 62
     0
 10
3.823498
 20
-8.65124
 30
0.0
 11
2.863086
 21
-8.65124
 31
0.0
  0
CIRCLE
  5
1302
  8
0
 10
3.343292
 20
-8.65124
 30
0.0
 40
0.334646
  0
LINE
  5
1303
  8
0
  6
BYBLOCK
 62
     0
 10
3.343292
 20
-8.171034
 30
0.0
 11
3.343292
 21
-9.131446
 31
0.0
  0
LINE
  5
1304
  8
0
  6
BYBLOCK
 62
     0
 10
3.736993
 20
-6.596231
 30
0.0
 11
3.736993
 21
-7.556643
 31
0.0
  0
LINE
  5
1305
  8
0
  6
BYBLOCK
 62
     0
 10
4.847795
 20
-7.490492
 30
0.0
 11
5.387795
 21
-7.490492
 31
0.0
  0
CIRCLE
  5
1306
  8
0
 62
     1
 10
5.117795
 20
-7.490492
 30
0.0
 40
0.275
  0
LINE
  5
1307
  8
0
  6
BYBLOCK
 62
     0
 10
5.117795
 20
-7.760492
 30
0.0
 11
5.117795
 21
-7.220492
 31
0.0
  0
LINE
  5
1308
  8
0
 10
10.435606
 20
-5.91343
 30
0.0
 11
10.435606
 21
-9.635492
 31
0.0
  0
LINE
  5
1309
  8
0
 10
12.404109
 20
-5.885305
 30
0.0
 11
12.404109
 21
-9.635492
 31
0.0
  0
LINE
  5
130A
  8
0
 10
8.464252
 20
-5.885305
 30
0.0
 11
8.464252
 21
-9.635492
 31
0.0
  0
LINE
  5
130B
  8
0
 10
6.495748
 20
-5.885305
 30
0.0
 11
6.495748
 21
-9.635492
 31
0.0
  0
LINE
  5
130C
  8
0
  6
BYBLOCK
 62
     0
 10
13.98
 20
-2.995492
 30
0.0
 11
13.98
 21
-7.635492
 31
0.0
  0
LINE
  5
130D
  8
0
  6
BYBLOCK
 62
     0
 10
12.404109
 20
-9.635492
 30
0.0
 11
10.435606
 21
-9.635492
 31
0.0
  0
LINE
  5
130E
  8
0
  6
BYBLOCK
 62
     0
 10
8.464252
 20
-9.635492
 30
0.0
 11
6.495748
 21
-9.635492
 31
0.0
  0
LINE
  5
130F
  8
0
  6
BYBLOCK
 62
     0
 10
7.763355
 20
-8.65124
 30
0.0
 11
6.802944
 21
-8.65124
 31
0.0
  0
CIRCLE
  5
1310
  8
0
 10
7.28315
 20
-8.65124
 30
0.0
 40
0.334646
  0
LINE
  5
1311
  8
0
  6
BYBLOCK
 62
     0
 10
7.28315
 20
-8.171034
 30
0.0
 11
7.28315
 21
-9.131446
 31
0.0
  0
LINE
  5
1312
  8
0
  6
BYBLOCK
 62
     0
 10
8.157056
 20
-7.076437
 30
0.0
 11
7.196645
 21
-7.076437
 31
0.0
  0
CIRCLE
  5
1313
  8
0
 10
7.67685
 20
-7.076437
 30
0.0
 40
0.334646
  0
LINE
  5
1314
  8
0
  6
BYBLOCK
 62
     0
 10
7.67685
 20
-6.596231
 30
0.0
 11
7.67685
 21
-7.556643
 31
0.0
  0
LINE
  5
1315
  8
0
  6
BYBLOCK
 62
     0
 10
10.435606
 20
-8.385492
 30
0.0
 11
8.464252
 21
-8.385492
 31
0.0
  0
LINE
  5
1316
  8
0
  6
BYBLOCK
 62
     0
 10
9.572205
 20
-7.490492
 30
0.0
 11
10.112205
 21
-7.490492
 31
0.0
  0
CIRCLE
  5
1317
  8
0
 62
     1
 10
9.842205
 20
-7.490492
 30
0.0
 40
0.275
  0
LINE
  5
1318
  8
0
  6
BYBLOCK
 62
     0
 10
9.842205
 20
-7.760492
 30
0.0
 11
9.842205
 21
-7.220492
 31
0.0
  0
LINE
  5
1319
  8
0
  6
BYBLOCK
 62
     0
 10
13.48
 20
-8.385492
 30
0.0
 11
12.404109
 21
-8.385492
 31
0.0
  0
LINE
  5
131A
  8
0
  6
BYBLOCK
 62
     0
 10
13.98
 20
-7.635492
 30
0.0
 11
12.404109
 21
-7.635492
 31
0.0
  0
LINE
  5
131B
  8
0
  6
BYBLOCK
 62
     0
 10
11.703213
 20
-8.65124
 30
0.0
 11
10.742801
 21
-8.65124
 31
0.0
  0
CIRCLE
  5
131C
  8
0
 10
11.223007
 20
-8.65124
 30
0.0
 40
0.334646
  0
LINE
  5
131D
  8
0
  6
BYBLOCK
 62
     0
 10
11.223007
 20
-8.171034
 30
0.0
 11
11.223007
 21
-9.131446
 31
0.0
  0
LINE
  5
131E
  8
0
  6
BYBLOCK
 62
     0
 10
12.096914
 20
-7.076437
 30
0.0
 11
11.136502
 21
-7.076437
 31
0.0
  0
CIRCLE
  5
131F
  8
0
 10
11.616708
 20
-7.076437
 30
0.0
 40
0.334646
  0
LINE
  5
1320
  8
0
  6
BYBLOCK
 62
     0
 10
11.616708
 20
-6.596231
 30
0.0
 11
11.616708
 21
-7.556643
 31
0.0
  0
LINE
  5
1321
  8
0
  6
BYBLOCK
 62
     0
 10
13.48
 20
-7.635492
 30
0.0
 11
13.48
 21
-8.385492
 31
0.0
  0
LINE
  5
1322
  8
0
 10
2.555891
 20
9.635492
 30
0.0
 11
2.555891
 21
5.86432
 31
0.0
  0
LINE
  5
1323
  8
0
 10
4.524394
 20
9.635492
 30
0.0
 11
4.524394
 21
5.96272
 31
0.0
  0
LINE
  5
1324
  8
0
  6
BYBLOCK
 62
     0
 10
2.555891
 20
9.635492
 30
0.0
 11
4.524394
 21
9.635492
 31
0.0
  0
LINE
  5
1325
  8
0
 10
12.404109
 20
9.635492
 30
0.0
 11
12.404109
 21
5.86432
 31
0.0
  0
LINE
  5
1326
  8
0
 10
8.464252
 20
9.635492
 30
0.0
 11
8.464252
 21
5.69772
 31
0.0
  0
LINE
  5
1327
  8
0
 10
6.495748
 20
9.635492
 30
0.0
 11
6.495748
 21
5.69772
 31
0.0
  0
LINE
  5
1328
  8
0
  6
BYBLOCK
 62
     0
 10
10.435606
 20
9.635492
 30
0.0
 11
12.404109
 21
9.635492
 31
0.0
  0
LINE
  5
1329
  8
0
 10
10.435606
 20
9.635492
 30
0.0
 11
10.435606
 21
5.96272
 31
0.0
  0
LINE
  5
132A
  8
0
  6
BYBLOCK
 62
     0
 10
6.495748
 20
9.635492
 30
0.0
 11
8.464252
 21
9.635492
 31
0.0
  0
LINE
  5
1460
  8
0
  6
BYBLOCK
 62
     0
 10
20.115144
 20
3.086707
 30
0.0
 11
20.023957
 21
3.336707
 31
0.0
  0
LINE
  5
1461
  8
0
  6
BYBLOCK
 62
     0
 10
19.383222
 20
5.627033
 30
0.0
 11
20.2
 21
5.627033
 31
0.0
  0
LINE
  5
1462
  8
0
  6
BYBLOCK
 62
     0
 10
19.383222
 20
5.387033
 30
0.0
 11
20.2
 21
5.387033
 31
0.0
  0
LINE
  5
1463
  8
0
  6
BYBLOCK
 62
     0
 10
19.73
 20
2.925587
 30
0.0
 11
20.23
 21
2.925587
 31
0.0
  0
LINE
  5
1464
  8
0
  6
BYBLOCK
 62
     0
 10
19.73
 20
1.555587
 30
0.0
 11
20.23
 21
1.555587
 31
0.0
  0
LINE
  5
1465
  8
0
  6
BYBLOCK
 62
     0
 10
19.355
 20
1.430587
 30
0.0
 11
20.23
 21
1.430587
 31
0.0
  0
LINE
  5
1466
  8
0
  6
BYBLOCK
 62
     0
 10
19.355
 20
1.180587
 30
0.0
 11
20.23
 21
1.180587
 31
0.0
  0
LINE
  5
1467
  8
0
  6
BYBLOCK
 62
     0
 10
19.73
 20
0.995587
 30
0.0
 11
20.23
 21
0.995587
 31
0.0
  0
LINE
  5
1468
  8
0
  6
BYBLOCK
 62
     0
 10
19.026875
 20
3.549533
 30
0.0
 11
20.059
 21
3.549533
 31
0.0
  0
LINE
  5
1469
  8
0
  6
BYBLOCK
 62
     0
 10
20.115144
 20
3.086707
 30
0.0
 11
20.002409
 21
3.045587
 31
0.0
  0
LINE
  5
146A
  8
0
  6
BYBLOCK
 62
     0
 10
19.383222
 20
5.202033
 30
0.0
 11
20.105875
 21
5.202033
 31
0.0
  0
LINE
  5
146B
  8
0
  6
BYBLOCK
 62
     0
 10
19.383222
 20
5.812033
 30
0.0
 11
20.105875
 21
5.812033
 31
0.0
  0
LINE
  5
146C
  8
0
  6
BYBLOCK
 62
     0
 10
19.620222
 20
-5.408717
 30
0.0
 11
20.23
 21
-5.408717
 31
0.0
  0
LINE
  5
146D
  8
0
  6
BYBLOCK
 62
     0
 10
19.413222
 20
-5.408717
 30
0.0
 11
20.23
 21
-5.408717
 31
0.0
  0
LINE
  5
146E
  8
0
  6
BYBLOCK
 62
     0
 10
19.620222
 20
-5.648717
 30
0.0
 11
20.23
 21
-5.648717
 31
0.0
  0
LINE
  5
146F
  8
0
  6
BYBLOCK
 62
     0
 10
19.413222
 20
-5.648717
 30
0.0
 11
20.23
 21
-5.648717
 31
0.0
  0
LINE
  5
1470
  8
0
  6
BYBLOCK
 62
     0
 10
19.413222
 20
-5.833717
 30
0.0
 11
20.105875
 21
-5.833717
 31
0.0
  0
LINE
  5
1471
  8
0
  6
BYBLOCK
 62
     0
 10
19.413222
 20
-5.223717
 30
0.0
 11
20.105875
 21
-5.223717
 31
0.0
  0
LINE
  5
1472
  8
0
  6
BYBLOCK
 62
     0
 10
19.026875
 20
-3.571092
 30
0.0
 11
20.059
 21
-3.571092
 31
0.0
  0
LINE
  5
1473
  8
0
  6
BYBLOCK
 62
     0
 10
19.73
 20
0.565587
 30
0.0
 11
23.01
 21
0.565587
 31
0.0
  0
LINE
  5
1474
  8
0
  6
BYBLOCK
 62
     0
 10
18.98
 20
-1.599596
 30
0.0
 11
26.07
 21
-1.599596
 31
0.0
  0
LINE
  5
1475
  8
0
  6
BYBLOCK
 62
     0
 10
19.355
 20
-0.466431
 30
0.0
 11
19.355
 21
0.720587
 31
0.0
  0
LINE
  5
1476
  8
0
  6
BYBLOCK
 62
     0
 10
18.98
 20
3.502658
 30
0.0
 11
18.98
 21
-3.524217
 31
0.0
  0
LINE
  5
1477
  8
0
  6
BYBLOCK
 62
     0
 10
19.73
 20
0.565587
 30
0.0
 11
19.73
 21
0.995587
 31
0.0
  0
LINE
  5
1478
  8
0
  6
BYBLOCK
 62
     0
 10
19.67
 20
0.660587
 30
0.0
 11
19.67
 21
0.900587
 31
0.0
  0
LINE
  5
1479
  8
0
  6
BYBLOCK
 62
     0
 10
19.35
 20
0.660587
 30
0.0
 11
19.35
 21
0.900587
 31
0.0
  0
LINE
  5
147A
  8
0
  6
BYBLOCK
 62
     0
 10
19.23
 20
0.660587
 30
0.0
 11
19.23
 21
0.748587
 31
0.0
  0
LINE
  5
147B
  8
0
  6
BYBLOCK
 62
     0
 10
19.237222
 20
-5.913717
 30
0.0
 11
19.413222
 21
-5.913717
 31
0.0
  0
LINE
  5
147C
  8
0
  6
BYBLOCK
 62
     0
 10
19.237222
 20
-5.143717
 30
0.0
 11
19.413222
 21
-5.143717
 31
0.0
  0
LINE
  5
147D
  8
0
  6
BYBLOCK
 62
     0
 10
19.100222
 20
-5.731717
 30
0.0
 11
19.100222
 21
-5.325717
 31
0.0
  0
LINE
  5
147E
  8
0
  6
BYBLOCK
 62
     0
 10
19.190222
 20
-5.866717
 30
0.0
 11
19.190222
 21
-5.190717
 31
0.0
  0
ARC
  5
147F
  8
0
  6
BYBLOCK
 62
     0
 10
19.147222
 20
-5.731717
 30
0.0
 40
0.047
 50
180.0
 51
270.0
  0
ARC
  5
1480
  8
0
  6
BYBLOCK
 62
     0
 10
19.237222
 20
-5.866717
 30
0.0
 40
0.047
 50
180.0
 51
270.0
  0
LINE
  5
1481
  8
0
  6
BYBLOCK
 62
     0
 10
19.147222
 20
-5.778717
 30
0.0
 11
19.190222
 21
-5.778717
 31
0.0
  0
ARC
  5
1482
  8
0
  6
BYBLOCK
 62
     0
 10
19.147222
 20
-5.325717
 30
0.0
 40
0.047
 50
90.0
 51
180.0
  0
LINE
  5
1483
  8
0
  6
BYBLOCK
 62
     0
 10
19.147222
 20
-5.278717
 30
0.0
 11
19.190222
 21
-5.278717
 31
0.0
  0
ARC
  5
1484
  8
0
  6
BYBLOCK
 62
     0
 10
19.237222
 20
-5.190717
 30
0.0
 40
0.047
 50
90.0
 51
180.0
  0
LINE
  5
1485
  8
0
  6
BYBLOCK
 62
     0
 10
19.413222
 20
-5.913717
 30
0.0
 11
19.413222
 21
-5.143717
 31
0.0
  0
ARC
  5
1486
  8
0
  6
BYBLOCK
 62
     0
 10
19.026875
 20
-3.524217
 30
0.0
 40
0.046875
 50
180.0
 51
270.0
  0
LINE
  5
1487
  8
0
  6
BYBLOCK
 62
     0
 10
18.98
 20
-0.466431
 30
0.0
 11
19.355
 21
-0.466431
 31
0.0
  0
LINE
  5
1488
  8
0
  6
BYBLOCK
 62
     0
 10
18.98
 20
-0.526431
 30
0.0
 11
19.355
 21
-0.526431
 31
0.0
  0
LINE
  5
1489
  8
0
  6
BYBLOCK
 62
     0
 10
19.355
 20
-0.466431
 30
0.0
 11
19.355
 21
-0.526431
 31
0.0
  0
LINE
  5
148A
  8
0
  6
BYBLOCK
 62
     0
 10
19.35
 20
0.660587
 30
0.0
 11
19.23
 21
0.660587
 31
0.0
  0
LINE
  5
148B
  8
0
  6
BYBLOCK
 62
     0
 10
19.73
 20
0.660587
 30
0.0
 11
19.67
 21
0.660587
 31
0.0
  0
LINE
  5
148C
  8
0
  6
BYBLOCK
 62
     0
 10
19.73
 20
1.555587
 30
0.0
 11
19.73
 21
2.925587
 31
0.0
  0
LINE
  5
148D
  8
0
  6
BYBLOCK
 62
     0
 10
18.98
 20
1.335587
 30
0.0
 11
19.355
 21
1.335587
 31
0.0
  0
LINE
  5
148E
  8
0
  6
BYBLOCK
 62
     0
 10
18.98
 20
1.275587
 30
0.0
 11
19.355
 21
1.275587
 31
0.0
  0
LINE
  5
148F
  8
0
  6
BYBLOCK
 62
     0
 10
19.35
 20
0.900587
 30
0.0
 11
19.23
 21
0.900587
 31
0.0
  0
LINE
  5
1490
  8
0
  6
BYBLOCK
 62
     0
 10
19.262
 20
0.748587
 30
0.0
 11
19.262
 21
0.812587
 31
0.0
  0
LINE
  5
1491
  8
0
  6
BYBLOCK
 62
     0
 10
19.262
 20
0.748587
 30
0.0
 11
19.23
 21
0.748587
 31
0.0
  0
LINE
  5
1492
  8
0
  6
BYBLOCK
 62
     0
 10
19.23
 20
0.812587
 30
0.0
 11
19.23
 21
0.900587
 31
0.0
  0
LINE
  5
1493
  8
0
  6
BYBLOCK
 62
     0
 10
19.262
 20
0.812587
 30
0.0
 11
19.23
 21
0.812587
 31
0.0
  0
LINE
  5
1494
  8
0
  6
BYBLOCK
 62
     0
 10
19.355
 20
0.840587
 30
0.0
 11
19.355
 21
1.361949
 31
0.0
  0
LINE
  5
1495
  8
0
  6
BYBLOCK
 62
     0
 10
19.73
 20
0.900587
 30
0.0
 11
19.67
 21
0.900587
 31
0.0
  0
LINE
  5
1496
  8
0
  6
BYBLOCK
 62
     0
 10
19.67
 20
0.720587
 30
0.0
 11
19.35
 21
0.720587
 31
0.0
  0
LINE
  5
1497
  8
0
  6
BYBLOCK
 62
     0
 10
19.67
 20
0.840587
 30
0.0
 11
19.35
 21
0.840587
 31
0.0
  0
LINE
  5
1498
  8
0
  6
BYBLOCK
 62
     0
 10
19.355
 20
1.180587
 30
0.0
 11
19.355
 21
1.430587
 31
0.0
  0
LINE
  5
1499
  8
0
  6
BYBLOCK
 62
     0
 10
19.325
 20
1.275587
 30
0.0
 11
19.325
 21
1.335587
 31
0.0
  0
LINE
  5
149A
  8
0
  6
BYBLOCK
 62
     0
 10
18.98
 20
2.16922
 30
0.0
 11
19.7
 21
2.16922
 31
0.0
  0
LINE
  5
149B
  8
0
  6
BYBLOCK
 62
     0
 10
19.35
 20
1.910587
 30
0.0
 11
19.23
 21
1.910587
 31
0.0
  0
LINE
  5
149C
  8
0
  6
BYBLOCK
 62
     0
 10
19.35
 20
2.150587
 30
0.0
 11
19.23
 21
2.150587
 31
0.0
  0
LINE
  5
149D
  8
0
  6
BYBLOCK
 62
     0
 10
19.23
 20
2.062587
 30
0.0
 11
19.23
 21
2.150587
 31
0.0
  0
LINE
  5
149E
  8
0
  6
BYBLOCK
 62
     0
 10
19.23
 20
1.910587
 30
0.0
 11
19.23
 21
1.998587
 31
0.0
  0
LINE
  5
149F
  8
0
  6
BYBLOCK
 62
     0
 10
19.262
 20
1.998587
 30
0.0
 11
19.23
 21
1.998587
 31
0.0
  0
LINE
  5
14A0
  8
0
  6
BYBLOCK
 62
     0
 10
19.262
 20
2.062587
 30
0.0
 11
19.23
 21
2.062587
 31
0.0
  0
LINE
  5
14A1
  8
0
  6
BYBLOCK
 62
     0
 10
19.262
 20
1.998587
 30
0.0
 11
19.262
 21
2.062587
 31
0.0
  0
LINE
  5
14A2
  8
0
  6
BYBLOCK
 62
     0
 10
19.35
 20
1.910587
 30
0.0
 11
19.35
 21
2.150587
 31
0.0
  0
LINE
  5
14A3
  8
0
  6
BYBLOCK
 62
     0
 10
19.67
 20
1.910587
 30
0.0
 11
19.67
 21
2.150587
 31
0.0
  0
LINE
  5
14A4
  8
0
  6
BYBLOCK
 62
     0
 10
19.73
 20
1.910587
 30
0.0
 11
19.67
 21
1.910587
 31
0.0
  0
LINE
  5
14A5
  8
0
  6
BYBLOCK
 62
     0
 10
19.67
 20
1.970587
 30
0.0
 11
19.35
 21
1.970587
 31
0.0
  0
LINE
  5
14A6
  8
0
  6
BYBLOCK
 62
     0
 10
19.67
 20
2.090587
 30
0.0
 11
19.35
 21
2.090587
 31
0.0
  0
LINE
  5
14A7
  8
0
  6
BYBLOCK
 62
     0
 10
19.73
 20
2.150587
 30
0.0
 11
19.67
 21
2.150587
 31
0.0
  0
ARC
  5
14A8
  8
0
  6
BYBLOCK
 62
     0
 10
19.026875
 20
3.502658
 30
0.0
 40
0.046875
 50
90.0
 51
180.0
  0
LINE
  5
14A9
  8
0
  6
BYBLOCK
 62
     0
 10
20.002409
 20
3.045587
 30
0.0
 11
19.911223
 21
3.295587
 31
0.0
  0
LINE
  5
14AA
  8
0
  6
BYBLOCK
 62
     0
 10
20.023957
 20
3.336707
 30
0.0
 11
19.911223
 21
3.295587
 31
0.0
  0
LINE
  5
14AB
  8
0
  6
BYBLOCK
 62
     0
 10
19.070222
 20
5.304033
 30
0.0
 11
19.070222
 21
5.710033
 31
0.0
  0
LINE
  5
14AC
  8
0
  6
BYBLOCK
 62
     0
 10
19.160222
 20
5.169033
 30
0.0
 11
19.160222
 21
5.845033
 31
0.0
  0
LINE
  5
14AD
  8
0
  6
BYBLOCK
 62
     0
 10
19.383222
 20
5.122033
 30
0.0
 11
19.383222
 21
5.892033
 31
0.0
  0
LINE
  5
14AE
  8
0
  6
BYBLOCK
 62
     0
 10
19.207222
 20
5.122033
 30
0.0
 11
19.383222
 21
5.122033
 31
0.0
  0
LINE
  5
14AF
  8
0
  6
BYBLOCK
 62
     0
 10
19.117222
 20
5.257033
 30
0.0
 11
19.160222
 21
5.257033
 31
0.0
  0
ARC
  5
14B0
  8
0
  6
BYBLOCK
 62
     0
 10
19.117222
 20
5.304033
 30
0.0
 40
0.047
 50
180.0
 51
270.0
  0
ARC
  5
14B1
  8
0
  6
BYBLOCK
 62
     0
 10
19.207222
 20
5.169033
 30
0.0
 40
0.047
 50
180.0
 51
270.0
  0
LINE
  5
14B2
  8
0
  6
BYBLOCK
 62
     0
 10
19.207222
 20
5.892033
 30
0.0
 11
19.383222
 21
5.892033
 31
0.0
  0
LINE
  5
14B3
  8
0
  6
BYBLOCK
 62
     0
 10
19.117222
 20
5.757033
 30
0.0
 11
19.160222
 21
5.757033
 31
0.0
  0
ARC
  5
14B4
  8
0
  6
BYBLOCK
 62
     0
 10
19.117222
 20
5.710033
 30
0.0
 40
0.047
 50
90.0
 51
180.0
  0
ARC
  5
14B5
  8
0
  6
BYBLOCK
 62
     0
 10
19.207222
 20
5.845033
 30
0.0
 40
0.047
 50
90.0
 51
180.0
  0
LINE
  5
14B6
  8
0
  6
BYBLOCK
 62
     0
 10
32.354
 20
-9.76578
 30
0.0
 11
32.354
 21
8.23422
 31
0.0
  0
LINE
  5
14B7
  8
0
  6
BYBLOCK
 62
     0
 10
32.51
 20
8.23422
 30
0.0
 11
32.51
 21
-8.32578
 31
0.0
  0
LINE
  5
14B8
  8
0
  6
BYBLOCK
 62
     0
 10
26.07
 20
2.16922
 30
0.0
 11
26.07
 21
-1.599596
 31
0.0
  0
LINE
  5
14B9
  8
0
  6
BYBLOCK
 62
     0
 10
25.32
 20
7.61422
 30
0.0
 11
25.32
 21
-7.63578
 31
0.0
  0
LINE
  5
14BA
  8
0
  6
BYBLOCK
 62
     0
 10
23.01
 20
0.565587
 30
0.0
 11
23.01
 21
2.925587
 31
0.0
  0
LINE
  5
14BB
  8
0
  6
CENTER
 62
     0
 10
31.771083
 20
-7.49078
 30
0.0
 11
33.152481
 21
-7.49078
 31
0.0
  0
LINE
  5
14BC
  8
0
  6
BYBLOCK
 62
     0
 10
32.264
 20
-9.76578
 30
0.0
 11
28.889
 21
-9.76578
 31
0.0
  0
LINE
  5
14BD
  8
0
  6
BYBLOCK
 62
     0
 10
32.264
 20
-7.01578
 30
0.0
 11
28.889
 21
-7.01578
 31
0.0
  0
LINE
  5
14BE
  8
0
  6
BYBLOCK
 62
     0
 10
22.0435
 20
-5.885592
 30
0.0
 11
32.354
 21
-5.885592
 31
0.0
  0
LINE
  5
14BF
  8
0
  6
BYBLOCK
 62
     0
 10
23.885
 20
-5.885592
 30
0.0
 11
23.885
 21
-9.635492
 31
0.0
  0
LINE
  5
14C0
  8
0
  6
BYBLOCK
 62
     0
 10
23.51
 20
-5.885592
 30
0.0
 11
23.51
 21
-9.635492
 31
0.0
  0
LINE
  5
14C1
  8
0
  6
BYBLOCK
 62
     0
 10
25.26
 20
-2.99578
 30
0.0
 11
25.26
 21
-7.63578
 31
0.0
  0
LINE
  5
14C2
  8
0
  6
BYBLOCK
 62
     0
 10
23.51
 20
-9.635492
 30
0.0
 11
23.885
 21
-9.635492
 31
0.0
  0
LINE
  5
14C3
  8
0
  6
BYBLOCK
 62
     0
 10
25.26
 20
-7.63578
 30
0.0
 11
25.32
 21
-7.63578
 31
0.0
  0
LINE
  5
14C4
  8
0
  6
BYBLOCK
 62
     0
 10
27.764
 20
-9.39078
 30
0.0
 11
27.764
 21
-7.39078
 31
0.0
  0
LINE
  5
14C5
  8
0
  6
BYBLOCK
 62
     0
 10
28.889
 20
-9.76578
 30
0.0
 11
28.889
 21
-7.01578
 31
0.0
  0
LINE
  5
14C6
  8
0
  6
BYBLOCK
 62
     0
 10
28.889
 20
-9.39078
 30
0.0
 11
27.764
 21
-9.39078
 31
0.0
  0
LINE
  5
14C7
  8
0
  6
BYBLOCK
 62
     0
 10
28.889
 20
-7.39078
 30
0.0
 11
27.764
 21
-7.39078
 31
0.0
  0
LINE
  5
14C8
  8
0
  6
BYBLOCK
 62
     0
 10
25.32
 20
-1.789596
 30
0.0
 11
26.07
 21
-1.789596
 31
0.0
  0
LINE
  5
14C9
  8
0
  6
BYBLOCK
 62
     0
 10
22.76
 20
-1.599596
 30
0.0
 11
22.76
 21
-5.885592
 31
0.0
  0
LINE
  5
14CA
  8
0
  6
BYBLOCK
 62
     0
 10
20.105875
 20
-5.408717
 30
0.0
 11
20.105875
 21
-3.617967
 31
0.0
  0
LINE
  5
14CB
  8
0
  6
BYBLOCK
 62
     0
 10
20.15275
 20
-5.885592
 30
0.0
 11
22.0165
 21
-5.885592
 31
0.0
  0
ARC
  5
14CC
  8
0
  6
BYBLOCK
 62
     0
 10
20.23
 20
-5.528717
 30
0.0
 40
0.12
 50
270.0
 51
90.0
  0
ARC
  5
14CD
  8
0
  6
BYBLOCK
 62
     0
 10
20.15275
 20
-5.838717
 30
0.0
 40
0.046875
 50
180.0
 51
270.0
  0
LINE
  5
14CE
  8
0
  6
BYBLOCK
 62
     0
 10
20.105875
 20
-5.838717
 30
0.0
 11
20.105875
 21
-5.648717
 31
0.0
  0
ARC
  5
14CF
  8
0
  6
BYBLOCK
 62
     0
 10
20.059
 20
-3.617967
 30
0.0
 40
0.046875
 50
0.0
 51
90.0
  0
LINE
  5
14D0
  8
0
  6
BYBLOCK
 62
     0
 10
24.76
 20
-6.385592
 30
0.0
 11
24.76
 21
-5.885592
 31
0.0
  0
LINE
  5
14D1
  8
0
  6
BYBLOCK
 62
     0
 10
24.76
 20
-6.385592
 30
0.0
 11
25.26
 21
-6.385592
 31
0.0
  0
LINE
  5
14D2
  8
0
  6
BYBLOCK
 62
     0
 10
25.371708
 20
-5.38103
 30
0.0
 11
25.533236
 21
-5.660805
 31
0.0
  0
LINE
  5
14D3
  8
0
  6
BYBLOCK
 62
     0
 10
25.856292
 20
-5.660805
 30
0.0
 11
26.01782
 21
-5.38103
 31
0.0
  0
LINE
  5
14D4
  8
0
  6
BYBLOCK
 62
     0
 10
25.533236
 20
-5.660805
 30
0.0
 11
25.856292
 21
-5.660805
 31
0.0
  0
LINE
  5
14D5
  8
0
  6
BYBLOCK
 62
     0
 10
25.856292
 20
-5.101255
 30
0.0
 11
25.533236
 21
-5.101255
 31
0.0
  0
LINE
  5
14D6
  8
0
  6
BYBLOCK
 62
     0
 10
25.533236
 20
-5.101255
 30
0.0
 11
25.371708
 21
-5.38103
 31
0.0
  0
LINE
  5
14D7
  8
0
  6
BYBLOCK
 62
     0
 10
26.01782
 20
-5.38103
 30
0.0
 11
25.856292
 21
-5.101255
 31
0.0
  0
LINE
  5
14D8
  8
0
  6
BYBLOCK
 62
     0
 10
25.371708
 20
-3.88103
 30
0.0
 11
25.533236
 21
-4.160805
 31
0.0
  0
LINE
  5
14D9
  8
0
  6
BYBLOCK
 62
     0
 10
25.856292
 20
-4.160805
 30
0.0
 11
26.01782
 21
-3.88103
 31
0.0
  0
LINE
  5
14DA
  8
0
  6
BYBLOCK
 62
     0
 10
25.533236
 20
-4.160805
 30
0.0
 11
25.856292
 21
-4.160805
 31
0.0
  0
LINE
  5
14DB
  8
0
  6
BYBLOCK
 62
     0
 10
25.533236
 20
-3.601255
 30
0.0
 11
25.371708
 21
-3.88103
 31
0.0
  0
LINE
  5
14DC
  8
0
  6
BYBLOCK
 62
     0
 10
26.01782
 20
-3.88103
 30
0.0
 11
25.856292
 21
-3.601255
 31
0.0
  0
LINE
  5
14DD
  8
0
  6
BYBLOCK
 62
     0
 10
25.856292
 20
-3.601255
 30
0.0
 11
25.533236
 21
-3.601255
 31
0.0
  0
POINT
  5
14DE
  8
0
  6
BYBLOCK
 62
     0
 10
23.01
 20
0.565587
 30
0.0
  0
LINE
  5
14DF
  8
0
  6
BYBLOCK
 62
     0
 10
25.533236
 20
-1.426938
 30
0.0
 11
25.371708
 21
-1.147163
 31
0.0
  0
LINE
  5
14E0
  8
0
  6
BYBLOCK
 62
     0
 10
26.01782
 20
-1.147163
 30
0.0
 11
25.856292
 21
-1.426938
 31
0.0
  0
LINE
  5
14E1
  8
0
  6
BYBLOCK
 62
     0
 10
25.533236
 20
-2.101255
 30
0.0
 11
25.371708
 21
-2.38103
 31
0.0
  0
LINE
  5
14E2
  8
0
  6
BYBLOCK
 62
     0
 10
26.01782
 20
-2.38103
 30
0.0
 11
25.856292
 21
-2.101255
 31
0.0
  0
LINE
  5
14E3
  8
0
  6
BYBLOCK
 62
     0
 10
25.26
 20
-2.99578
 30
0.0
 11
25.32
 21
-2.99578
 31
0.0
  0
LINE
  5
14E4
  8
0
  6
BYBLOCK
 62
     0
 10
25.26
 20
-2.99578
 30
0.0
 11
25.32
 21
-2.99578
 31
0.0
  0
LINE
  5
14E5
  8
0
  6
BYBLOCK
 62
     0
 10
25.533236
 20
-2.660805
 30
0.0
 11
25.856292
 21
-2.660805
 31
0.0
  0
LINE
  5
14E6
  8
0
  6
BYBLOCK
 62
     0
 10
25.371708
 20
-2.38103
 30
0.0
 11
25.533236
 21
-2.660805
 31
0.0
  0
LINE
  5
14E7
  8
0
  6
BYBLOCK
 62
     0
 10
25.856292
 20
-2.660805
 30
0.0
 11
26.01782
 21
-2.38103
 31
0.0
  0
LINE
  5
14E8
  8
0
  6
BYBLOCK
 62
     0
 10
25.856292
 20
-2.101255
 30
0.0
 11
25.533236
 21
-2.101255
 31
0.0
  0
LINE
  5
14E9
  8
0
  6
BYBLOCK
 62
     0
 10
25.856292
 20
-1.426938
 30
0.0
 11
25.533236
 21
-1.426938
 31
0.0
  0
LINE
  5
14EA
  8
0
  6
BYBLOCK
 62
     0
 10
25.533236
 20
-0.867389
 30
0.0
 11
25.856292
 21
-0.867389
 31
0.0
  0
LINE
  5
14EB
  8
0
  6
BYBLOCK
 62
     0
 10
25.371708
 20
-1.147163
 30
0.0
 11
25.533236
 21
-0.867389
 31
0.0
  0
LINE
  5
14EC
  8
0
  6
BYBLOCK
 62
     0
 10
25.856292
 20
-0.867389
 30
0.0
 11
26.01782
 21
-1.147163
 31
0.0
  0
LINE
  5
14ED
  8
0
  6
BYBLOCK
 62
     0
 10
26.07
 20
-1.789596
 30
0.0
 11
26.07
 21
-5.885592
 31
0.0
  0
CIRCLE
  5
14EE
  8
0
  6
BYBLOCK
 62
     0
 10
30.39
 20
-2.01078
 30
0.0
 40
0.3125
  0
LINE
  5
14EF
  8
0
  6
BYBLOCK
 62
     0
 10
29.67
 20
-0.29078
 30
0.0
 11
31.11
 21
-0.29078
 31
0.0
  0
LINE
  5
14F0
  8
0
  6
BYBLOCK
 62
     0
 10
29.67
 20
0.26922
 30
0.0
 11
31.11
 21
0.26922
 31
0.0
  0
ARC
  5
14F1
  8
0
  6
BYBLOCK
 62
     0
 10
29.67
 20
-0.01078
 30
0.0
 40
0.28
 50
90.0
 51
270.0
  0
ARC
  5
14F2
  8
0
  6
BYBLOCK
 62
     0
 10
31.11
 20
-0.01078
 30
0.0
 40
0.28
 50
270.0
 51
90.0
  0
LINE
  5
14F3
  8
0
  6
BYBLOCK
 62
     0
 10
32.264
 20
-9.76578
 30
0.0
 11
32.264
 21
-6.14578
 31
0.0
  0
LINE
  5
14F4
  8
0
  6
BYBLOCK
 62
     0
 10
32.264
 20
-9.76578
 30
0.0
 11
32.354
 21
-9.76578
 31
0.0
  0
LINE
  5
14F5
  8
0
  6
BYBLOCK
 62
     0
 10
32.354
 20
-8.32578
 30
0.0
 11
32.51
 21
-8.32578
 31
0.0
  0
LINE
  5
14F6
  8
0
  6
BYBLOCK
 62
     0
 10
32.354
 20
-8.32578
 30
0.0
 11
32.51
 21
-8.32578
 31
0.0
  0
LINE
  5
14F7
  8
0
  6
BYBLOCK
 62
     0
 10
32.6
 20
-7.17878
 30
0.0
 11
32.6
 21
-7.80278
 31
0.0
  0
LINE
  5
14F8
  8
0
  6
BYBLOCK
 62
     0
 10
32.51
 20
-7.80278
 30
0.0
 11
32.6
 21
-7.80278
 31
0.0
  0
LINE
  5
14F9
  8
0
  6
BYBLOCK
 62
     0
 10
32.51
 20
-7.17878
 30
0.0
 11
32.6
 21
-7.17878
 31
0.0
  0
LINE
  5
14FA
  8
0
  6
BYBLOCK
 62
     0
 10
32.264
 20
-6.14578
 30
0.0
 11
32.354
 21
-6.14578
 31
0.0
  0
LINE
  5
14FB
  8
0
  6
CENTER
 62
     0
 10
31.771083
 20
7.46922
 30
0.0
 11
33.152481
 21
7.46922
 31
0.0
  0
LINE
  5
14FC
  8
0
  6
BYBLOCK
 62
     0
 10
32.354
 20
7.36422
 30
0.0
 11
30.229
 21
7.36422
 31
0.0
  0
LINE
  5
14FD
  8
0
  6
BYBLOCK
 62
     0
 10
20.152875
 20
5.864033
 30
0.0
 11
32.354
 21
5.864033
 31
0.0
  0
LINE
  5
14FE
  8
0
  6
BYBLOCK
 62
     0
 10
23.51
 20
9.635492
 30
0.0
 11
23.51
 21
5.864033
 31
0.0
  0
LINE
  5
14FF
  8
0
  6
BYBLOCK
 62
     0
 10
23.885
 20
9.635492
 30
0.0
 11
23.885
 21
5.864033
 31
0.0
  0
LINE
  5
1500
  8
0
  6
BYBLOCK
 62
     0
 10
22.98
 20
2.16922
 30
0.0
 11
26.07
 21
2.16922
 31
0.0
  0
LINE
  5
1501
  8
0
  6
BYBLOCK
 62
     0
 10
25.32
 20
2.35922
 30
0.0
 11
26.07
 21
2.35922
 31
0.0
  0
LINE
  5
1502
  8
0
  6
BYBLOCK
 62
     0
 10
20.105875
 20
5.387033
 30
0.0
 11
20.105875
 21
3.596408
 31
0.0
  0
LINE
  5
1503
  8
0
  6
BYBLOCK
 62
     0
 10
22.76
 20
5.864033
 30
0.0
 11
22.76
 21
2.925587
 31
0.0
  0
LINE
  5
1504
  8
0
  6
BYBLOCK
 62
     0
 10
25.26
 20
7.61422
 30
0.0
 11
25.26
 21
2.97422
 31
0.0
  0
LINE
  5
1505
  8
0
  6
HIDDEN
 62
     0
 10
20.73
 20
1.065587
 30
0.0
 11
21.48
 21
1.065587
 31
0.0
  0
LINE
  5
1506
  8
0
  6
HIDDEN
 62
     0
 10
20.73
 20
1.315587
 30
0.0
 11
21.48
 21
1.315587
 31
0.0
  0
LINE
  5
1507
  8
0
  6
BYBLOCK
 62
     0
 10
20.23
 20
0.995587
 30
0.0
 11
20.23
 21
1.555587
 31
0.0
  0
LINE
  5
1508
  8
0
  6
HIDDEN
 62
     0
 10
20.73
 20
1.065587
 30
0.0
 11
20.73
 21
1.315587
 31
0.0
  0
LINE
  5
1509
  8
0
  6
HIDDEN
 62
     0
 10
21.48
 20
1.065587
 30
0.0
 11
21.48
 21
1.315587
 31
0.0
  0
LINE
  5
150A
  8
0
  6
BYBLOCK
 62
     0
 10
22.744
 20
0.883734
 30
0.0
 11
22.744
 21
0.747441
 31
0.0
  0
LINE
  5
150B
  8
0
  6
BYBLOCK
 62
     0
 10
22.776
 20
0.883734
 30
0.0
 11
22.776
 21
0.747441
 31
0.0
  0
CIRCLE
  5
150C
  8
0
  6
BYBLOCK
 62
     0
 10
22.76
 20
0.815587
 30
0.0
 40
0.07
  0
LINE
  5
150D
  8
0
  6
BYBLOCK
 62
     0
 10
21.660639
 20
3.101284
 30
0.0
 11
21.547904
 21
3.142404
 31
0.0
  0
LINE
  5
150E
  8
0
  6
BYBLOCK
 62
     0
 10
21.512591
 20
3.045587
 30
0.0
 11
21.603777
 21
3.295587
 31
0.0
  0
LINE
  5
150F
  8
0
  6
BYBLOCK
 62
     0
 10
21.491043
 20
3.336707
 30
0.0
 11
21.603777
 21
3.295587
 31
0.0
  0
LINE
  5
1510
  8
0
  6
BYBLOCK
 62
     0
 10
21.285
 20
2.925587
 30
0.0
 11
23.01
 21
2.925587
 31
0.0
  0
LINE
  5
1511
  8
0
  6
BYBLOCK
 62
     0
 10
21.071087
 20
3.461707
 30
0.0
 11
21.162274
 21
3.711707
 31
0.0
  0
LINE
  5
1512
  8
0
  6
BYBLOCK
 62
     0
 10
20.443913
 20
3.461707
 30
0.0
 11
20.352726
 21
3.711707
 31
0.0
  0
LINE
  5
1513
  8
0
  6
BYBLOCK
 62
     0
 10
20.331178
 20
3.420587
 30
0.0
 11
20.239991
 21
3.670587
 31
0.0
  0
LINE
  5
1514
  8
0
  6
BYBLOCK
 62
     0
 10
21.35243
 20
3.532651
 30
0.0
 11
21.239695
 21
3.573771
 31
0.0
  0
LINE
  5
1515
  8
0
  6
BYBLOCK
 62
     0
 10
21.183822
 20
3.420587
 30
0.0
 11
21.275009
 21
3.670587
 31
0.0
  0
LINE
  5
1516
  8
0
  6
BYBLOCK
 62
     0
 10
20.7875
 20
3.045587
 30
0.0
 11
20.862556
 21
3.175587
 31
0.0
  0
CIRCLE
  5
1517
  8
0
  6
BYBLOCK
 62
     0
 10
20.754708
 20
2.675587
 30
0.0
 40
0.07
  0
LINE
  5
1518
  8
0
  6
BYBLOCK
 62
     0
 10
20.115144
 20
3.086707
 30
0.0
 11
20.110318
 21
3.016384
 31
0.0
  0
LINE
  5
1519
  8
0
  6
BYBLOCK
 62
     0
 10
20.084302
 20
3.075457
 30
0.0
 11
20.080388
 21
3.018438
 31
0.0
  0
LINE
  5
151A
  8
0
  6
BYBLOCK
 62
     0
 10
20.29
 20
3.045587
 30
0.0
 11
20.365056
 21
3.175587
 31
0.0
  0
LINE
  5
151B
  8
0
  6
BYBLOCK
 62
     0
 10
20.7275
 20
3.045587
 30
0.0
 11
20.652444
 21
3.175587
 31
0.0
  0
LINE
  5
151C
  8
0
  6
BYBLOCK
 62
     0
 10
20.120091
 20
2.99211
 30
0.0
 11
20.174644
 21
2.942624
 31
0.0
  0
LINE
  5
151D
  8
0
  6
BYBLOCK
 62
     0
 10
20.099935
 20
2.969889
 30
0.0
 11
20.148774
 21
2.925587
 31
0.0
  0
ARC
  5
151E
  8
0
  6
BYBLOCK
 62
     0
 10
20.140247
 20
3.01433
 30
0.0
 40
0.03
 50
176.073815
 51
227.788462
  0
ARC
  5
151F
  8
0
  6
BYBLOCK
 62
     0
 10
20.140247
 20
3.01433
 30
0.0
 40
0.06
 50
176.073815
 51
227.788462
  0
LINE
  5
1520
  8
0
  6
BYBLOCK
 62
     0
 10
20.23
 20
2.795587
 30
0.0
 11
20.23
 21
3.045587
 31
0.0
  0
LINE
  5
1521
  8
0
  6
BYBLOCK
 62
     0
 10
20.29
 20
2.795587
 30
0.0
 11
20.29
 21
3.045587
 31
0.0
  0
LINE
  5
1522
  8
0
  6
BYBLOCK
 62
     0
 10
20.23
 20
2.795587
 30
0.0
 11
20.29
 21
2.795587
 31
0.0
  0
LINE
  5
1523
  8
0
  6
BYBLOCK
 62
     0
 10
20.174644
 20
2.942624
 30
0.0
 11
20.178391
 21
2.925587
 31
0.0
  0
LINE
  5
1524
  8
0
  6
BYBLOCK
 62
     0
 10
20.23
 20
3.045587
 30
0.0
 11
20.29
 21
3.045587
 31
0.0
  0
LINE
  5
1525
  8
0
  6
BYBLOCK
 62
     0
 10
20.7875
 20
2.795587
 30
0.0
 11
20.7875
 21
3.045587
 31
0.0
  0
LINE
  5
1526
  8
0
  6
BYBLOCK
 62
     0
 10
20.770708
 20
2.743734
 30
0.0
 11
20.770708
 21
2.607441
 31
0.0
  0
LINE
  5
1527
  8
0
  6
BYBLOCK
 62
     0
 10
20.7275
 20
2.795587
 30
0.0
 11
20.7275
 21
3.045587
 31
0.0
  0
LINE
  5
1528
  8
0
  6
BYBLOCK
 62
     0
 10
20.738708
 20
2.743734
 30
0.0
 11
20.738708
 21
2.607441
 31
0.0
  0
LINE
  5
1529
  8
0
  6
BYBLOCK
 62
     0
 10
20.7275
 20
2.795587
 30
0.0
 11
20.7875
 21
2.795587
 31
0.0
  0
LINE
  5
152A
  8
0
  6
BYBLOCK
 62
     0
 10
20.7275
 20
3.045587
 30
0.0
 11
20.7875
 21
3.045587
 31
0.0
  0
LINE
  5
152B
  8
0
  6
BYBLOCK
 62
     0
 10
20.428704
 20
3.344889
 30
0.0
 11
20.477543
 21
3.300587
 31
0.0
  0
LINE
  5
152C
  8
0
  6
BYBLOCK
 62
     0
 10
20.365056
 20
3.175587
 30
0.0
 11
20.652444
 21
3.175587
 31
0.0
  0
LINE
  5
152D
  8
0
  6
BYBLOCK
 62
     0
 10
20.443913
 20
3.461707
 30
0.0
 11
20.331178
 21
3.420587
 31
0.0
  0
ARC
  5
152E
  8
0
  6
BYBLOCK
 62
     0
 10
20.469016
 20
3.38933
 30
0.0
 40
0.06
 50
176.073815
 51
227.788462
  0
LINE
  5
152F
  8
0
  6
BYBLOCK
 62
     0
 10
20.41307
 20
3.450457
 30
0.0
 11
20.409157
 21
3.393438
 31
0.0
  0
LINE
  5
1530
  8
0
  6
BYBLOCK
 62
     0
 10
20.192566
 20
3.224643
 30
0.0
 11
20.079831
 21
3.183523
 31
0.0
  0
LINE
  5
1531
  8
0
  6
BYBLOCK
 62
     0
 10
20.172006
 20
3.281011
 30
0.0
 11
20.059271
 21
3.239891
 31
0.0
  0
LINE
  5
1532
  8
0
  6
BYBLOCK
 62
     0
 10
20.192566
 20
3.224643
 30
0.0
 11
20.172006
 21
3.281011
 31
0.0
  0
ARC
  5
1533
  8
0
  6
BYBLOCK
 62
     0
 10
20.469016
 20
3.38933
 30
0.0
 40
0.03
 50
176.073815
 51
227.788462
  0
LINE
  5
1534
  8
0
  6
BYBLOCK
 62
     0
 10
20.503413
 20
3.317624
 30
0.0
 11
20.534649
 21
3.175587
 31
0.0
  0
LINE
  5
1535
  8
0
  6
BYBLOCK
 62
     0
 10
20.477543
 20
3.300587
 30
0.0
 11
20.505032
 21
3.175587
 31
0.0
  0
LINE
  5
1536
  8
0
  6
BYBLOCK
 62
     0
 10
20.44886
 20
3.36711
 30
0.0
 11
20.503413
 21
3.317624
 31
0.0
  0
LINE
  5
1537
  8
0
  6
BYBLOCK
 62
     0
 10
20.443913
 20
3.461707
 30
0.0
 11
20.439087
 21
3.391384
 31
0.0
  0
LINE
  5
1538
  8
0
  6
BYBLOCK
 62
     0
 10
21.225
 20
3.045587
 30
0.0
 11
21.149944
 21
3.175587
 31
0.0
  0
LINE
  5
1539
  8
0
  6
BYBLOCK
 62
     0
 10
21.399856
 20
3.086707
 30
0.0
 11
21.512591
 21
3.045587
 31
0.0
  0
LINE
  5
153A
  8
0
  6
BYBLOCK
 62
     0
 10
21.512591
 20
3.045587
 30
0.0
 11
21.516504
 21
2.988568
 31
0.0
  0
LINE
  5
153B
  8
0
  6
BYBLOCK
 62
     0
 10
21.481748
 20
3.056837
 30
0.0
 11
21.486575
 21
2.986514
 31
0.0
  0
LINE
  5
153C
  8
0
  6
BYBLOCK
 62
     0
 10
21.285
 20
2.795587
 30
0.0
 11
21.285
 21
3.045587
 31
0.0
  0
LINE
  5
153D
  8
0
  6
BYBLOCK
 62
     0
 10
21.225
 20
2.795587
 30
0.0
 11
21.225
 21
3.045587
 31
0.0
  0
LINE
  5
153E
  8
0
  6
BYBLOCK
 62
     0
 10
21.225
 20
2.795587
 30
0.0
 11
21.285
 21
2.795587
 31
0.0
  0
LINE
  5
153F
  8
0
  6
BYBLOCK
 62
     0
 10
21.496957
 20
2.94002
 30
0.0
 11
21.481047
 21
2.925587
 31
0.0
  0
ARC
  5
1540
  8
0
  6
BYBLOCK
 62
     0
 10
21.456645
 20
2.98446
 30
0.0
 40
0.03
 50
312.211538
 51
3.926185
  0
LINE
  5
1541
  8
0
  6
BYBLOCK
 62
     0
 10
21.476801
 20
2.96224
 30
0.0
 11
21.436396
 21
2.925587
 31
0.0
  0
LINE
  5
1542
  8
0
  6
BYBLOCK
 62
     0
 10
21.225
 20
3.045587
 30
0.0
 11
21.285
 21
3.045587
 31
0.0
  0
ARC
  5
1543
  8
0
  6
BYBLOCK
 62
     0
 10
21.456645
 20
2.98446
 30
0.0
 40
0.06
 50
312.211538
 51
3.926185
  0
ARC
  5
1544
  8
0
  6
BYBLOCK
 62
     0
 10
21.127876
 20
3.35946
 30
0.0
 40
0.06
 50
312.211538
 51
3.926185
  0
LINE
  5
1545
  8
0
  6
BYBLOCK
 62
     0
 10
21.071087
 20
3.461707
 30
0.0
 11
21.183822
 21
3.420587
 31
0.0
  0
LINE
  5
1546
  8
0
  6
BYBLOCK
 62
     0
 10
21.152979
 20
3.431837
 30
0.0
 11
21.157806
 21
3.361514
 31
0.0
  0
ARC
  5
1547
  8
0
  6
BYBLOCK
 62
     0
 10
21.127876
 20
3.35946
 30
0.0
 40
0.03
 50
312.211538
 51
3.926185
  0
LINE
  5
1548
  8
0
  6
BYBLOCK
 62
     0
 10
21.168188
 20
3.31502
 30
0.0
 11
21.014478
 21
3.175587
 31
0.0
  0
LINE
  5
1549
  8
0
  6
BYBLOCK
 62
     0
 10
20.862556
 20
3.175587
 30
0.0
 11
21.149944
 21
3.175587
 31
0.0
  0
LINE
  5
154A
  8
0
  6
BYBLOCK
 62
     0
 10
21.148032
 20
3.33724
 30
0.0
 11
20.969827
 21
3.175587
 31
0.0
  0
LINE
  5
154B
  8
0
  6
BYBLOCK
 62
     0
 10
21.183822
 20
3.420587
 30
0.0
 11
21.187735
 21
3.363568
 31
0.0
  0
LINE
  5
154C
  8
0
  6
BYBLOCK
 62
     0
 10
21.399856
 20
3.086707
 30
0.0
 11
21.491043
 21
3.336707
 31
0.0
  0
LINE
  5
154D
  8
0
  6
BYBLOCK
 62
     0
 10
21.33187
 20
3.476284
 30
0.0
 11
21.219135
 21
3.517404
 31
0.0
  0
LINE
  5
154E
  8
0
  6
BYBLOCK
 62
     0
 10
21.33187
 20
3.476284
 30
0.0
 11
21.35243
 21
3.532651
 31
0.0
  0
LINE
  5
154F
  8
0
  6
BYBLOCK
 62
     0
 10
20.521335
 20
3.599643
 30
0.0
 11
20.4086
 21
3.558523
 31
0.0
  0
LINE
  5
1550
  8
0
  6
BYBLOCK
 62
     0
 10
20.500775
 20
3.656011
 30
0.0
 11
20.38804
 21
3.614891
 31
0.0
  0
ARC
  5
1551
  8
0
  6
BYBLOCK
 62
     0
 10
20.059
 20
3.596408
 30
0.0
 40
0.046875
 50
270.0
 51
0.0
  0
LINE
  5
1552
  8
0
  6
BYBLOCK
 62
     0
 10
20.352726
 20
3.711707
 30
0.0
 11
20.239991
 21
3.670587
 31
0.0
  0
LINE
  5
1553
  8
0
  6
BYBLOCK
 62
     0
 10
20.521335
 20
3.599643
 30
0.0
 11
20.500775
 21
3.656011
 31
0.0
  0
LINE
  5
1554
  8
0
  6
BYBLOCK
 62
     0
 10
21.162274
 20
3.711707
 30
0.0
 11
21.275009
 21
3.670587
 31
0.0
  0
LINE
  5
1555
  8
0
  6
BYBLOCK
 62
     0
 10
21.681199
 20
3.157651
 30
0.0
 11
21.568464
 21
3.198771
 31
0.0
  0
LINE
  5
1556
  8
0
  6
BYBLOCK
 62
     0
 10
21.660639
 20
3.101284
 30
0.0
 11
21.681199
 21
3.157651
 31
0.0
  0
POINT
  5
1557
  8
0
  6
BYBLOCK
 62
     0
 10
23.01
 20
2.925587
 30
0.0
  0
LINE
  5
1558
  8
0
  6
BYBLOCK
 62
     0
 10
22.776
 20
2.743734
 30
0.0
 11
22.776
 21
2.607441
 31
0.0
  0
LINE
  5
1559
  8
0
  6
BYBLOCK
 62
     0
 10
22.744
 20
2.743734
 30
0.0
 11
22.744
 21
2.607441
 31
0.0
  0
CIRCLE
  5
155A
  8
0
  6
BYBLOCK
 62
     0
 10
22.76
 20
2.675587
 30
0.0
 40
0.07
  0
LINE
  5
155B
  8
0
  6
BYBLOCK
 62
     0
 10
25.533236
 20
1.374024
 30
0.0
 11
25.371708
 21
1.653799
 31
0.0
  0
LINE
  5
155C
  8
0
  6
BYBLOCK
 62
     0
 10
26.01782
 20
1.653799
 30
0.0
 11
25.856292
 21
1.374024
 31
0.0
  0
LINE
  5
155D
  8
0
  6
BYBLOCK
 62
     0
 10
25.856292
 20
1.374024
 30
0.0
 11
25.533236
 21
1.374024
 31
0.0
  0
LINE
  5
155E
  8
0
  6
BYBLOCK
 62
     0
 10
25.533236
 20
1.933574
 30
0.0
 11
25.856292
 21
1.933574
 31
0.0
  0
LINE
  5
155F
  8
0
  6
BYBLOCK
 62
     0
 10
25.371708
 20
1.653799
 30
0.0
 11
25.533236
 21
1.933574
 31
0.0
  0
LINE
  5
1560
  8
0
  6
BYBLOCK
 62
     0
 10
25.856292
 20
1.933574
 30
0.0
 11
26.01782
 21
1.653799
 31
0.0
  0
LINE
  5
1561
  8
0
  6
BYBLOCK
 62
     0
 10
25.26
 20
2.97422
 30
0.0
 11
25.32
 21
2.97422
 31
0.0
  0
LINE
  5
1562
  8
0
  6
BYBLOCK
 62
     0
 10
25.371708
 20
2.917818
 30
0.0
 11
25.533236
 21
3.197593
 31
0.0
  0
LINE
  5
1563
  8
0
  6
BYBLOCK
 62
     0
 10
25.856292
 20
3.197593
 30
0.0
 11
26.01782
 21
2.917818
 31
0.0
  0
LINE
  5
1564
  8
0
  6
BYBLOCK
 62
     0
 10
25.856292
 20
2.638044
 30
0.0
 11
25.533236
 21
2.638044
 31
0.0
  0
LINE
  5
1565
  8
0
  6
BYBLOCK
 62
     0
 10
25.533236
 20
2.638044
 30
0.0
 11
25.371708
 21
2.917818
 31
0.0
  0
LINE
  5
1566
  8
0
  6
BYBLOCK
 62
     0
 10
26.01782
 20
2.917818
 30
0.0
 11
25.856292
 21
2.638044
 31
0.0
  0
LINE
  5
1567
  8
0
  6
BYBLOCK
 62
     0
 10
25.533236
 20
3.197593
 30
0.0
 11
25.856292
 21
3.197593
 31
0.0
  0
LINE
  5
1568
  8
0
  6
BYBLOCK
 62
     0
 10
25.533236
 20
3.884249
 30
0.0
 11
25.371708
 21
4.164024
 31
0.0
  0
LINE
  5
1569
  8
0
  6
BYBLOCK
 62
     0
 10
26.01782
 20
4.164024
 30
0.0
 11
25.856292
 21
3.884249
 31
0.0
  0
LINE
  5
156A
  8
0
  6
BYBLOCK
 62
     0
 10
25.856292
 20
3.884249
 30
0.0
 11
25.533236
 21
3.884249
 31
0.0
  0
LINE
  5
156B
  8
0
  6
BYBLOCK
 62
     0
 10
25.533236
 20
4.443799
 30
0.0
 11
25.856292
 21
4.443799
 31
0.0
  0
LINE
  5
156C
  8
0
  6
BYBLOCK
 62
     0
 10
25.371708
 20
4.164024
 30
0.0
 11
25.533236
 21
4.443799
 31
0.0
  0
LINE
  5
156D
  8
0
  6
BYBLOCK
 62
     0
 10
25.856292
 20
4.443799
 30
0.0
 11
26.01782
 21
4.164024
 31
0.0
  0
ARC
  5
156E
  8
0
  6
BYBLOCK
 62
     0
 10
20.2
 20
5.507033
 30
0.0
 40
0.12
 50
270.0
 51
90.0
  0
ARC
  5
156F
  8
0
  6
BYBLOCK
 62
     0
 10
20.152875
 20
5.817033
 30
0.0
 40
0.047
 50
90.0
 51
180.0
  0
ARC
  5
1570
  8
0
  6
BYBLOCK
 62
     0
 10
20.15275
 20
5.817158
 30
0.0
 40
0.046875
 50
90.0
 51
180.0
  0
LINE
  5
1571
  8
0
  6
BYBLOCK
 62
     0
 10
20.105875
 20
5.817033
 30
0.0
 11
20.105875
 21
5.627033
 31
0.0
  0
LINE
  5
1572
  8
0
  6
BYBLOCK
 62
     0
 10
25.371708
 20
5.35947
 30
0.0
 11
25.533236
 21
5.639245
 31
0.0
  0
LINE
  5
1573
  8
0
  6
BYBLOCK
 62
     0
 10
25.856292
 20
5.639245
 30
0.0
 11
26.01782
 21
5.35947
 31
0.0
  0
LINE
  5
1574
  8
0
  6
BYBLOCK
 62
     0
 10
25.856292
 20
5.079695
 30
0.0
 11
25.533236
 21
5.079695
 31
0.0
  0
LINE
  5
1575
  8
0
  6
BYBLOCK
 62
     0
 10
25.533236
 20
5.079695
 30
0.0
 11
25.371708
 21
5.35947
 31
0.0
  0
LINE
  5
1576
  8
0
  6
BYBLOCK
 62
     0
 10
26.01782
 20
5.35947
 30
0.0
 11
25.856292
 21
5.079695
 31
0.0
  0
LINE
  5
1577
  8
0
  6
BYBLOCK
 62
     0
 10
24.76
 20
6.364033
 30
0.0
 11
24.76
 21
5.864033
 31
0.0
  0
LINE
  5
1578
  8
0
  6
BYBLOCK
 62
     0
 10
24.76
 20
6.364033
 30
0.0
 11
25.26
 21
6.364033
 31
0.0
  0
LINE
  5
1579
  8
0
  6
BYBLOCK
 62
     0
 10
25.533236
 20
5.639245
 30
0.0
 11
25.856292
 21
5.639245
 31
0.0
  0
LINE
  5
157A
  8
0
  6
BYBLOCK
 62
     0
 10
25.26
 20
7.61422
 30
0.0
 11
25.32
 21
7.61422
 31
0.0
  0
LINE
  5
157B
  8
0
  6
BYBLOCK
 62
     0
 10
26.07
 20
5.864033
 30
0.0
 11
26.07
 21
2.35922
 31
0.0
  0
LINE
  5
157C
  8
0
  6
BYBLOCK
 62
     0
 10
31.87051
 20
4.234803
 30
0.0
 11
31.87051
 21
4.983638
 31
0.0
  0
LINE
  5
157D
  8
0
  6
BYBLOCK
 62
     0
 10
30.57349
 20
4.983638
 30
0.0
 11
30.57349
 21
4.234803
 31
0.0
  0
ARC
  5
157E
  8
0
  6
BYBLOCK
 62
     0
 10
31.222
 20
4.60922
 30
0.0
 40
0.43234
 50
74.897715
 51
22.698218
  0
CIRCLE
  5
157F
  8
0
  6
BYBLOCK
 62
     0
 10
31.222
 20
4.60922
 30
0.0
 40
0.380459
  0
CIRCLE
  5
1580
  8
0
  6
BYBLOCK
 62
     0
 10
30.39
 20
1.98922
 30
0.0
 40
0.3125
  0
LINE
  5
1581
  8
0
  6
BYBLOCK
 62
     0
 10
31.222
 20
3.860385
 30
0.0
 11
31.87051
 21
4.234803
 31
0.0
  0
LINE
  5
1582
  8
0
  6
BYBLOCK
 62
     0
 10
30.57349
 20
4.234803
 30
0.0
 11
31.222
 21
3.860385
 31
0.0
  0
LINE
  5
1583
  8
0
  6
BYBLOCK
 62
     0
 10
30.229
 20
5.864033
 30
0.0
 11
30.229
 21
7.36422
 31
0.0
  0
LINE
  5
1584
  8
0
  6
BYBLOCK
 62
     0
 10
31.87051
 20
4.983638
 30
0.0
 11
31.222
 21
5.358056
 31
0.0
  0
LINE
  5
1585
  8
0
  6
BYBLOCK
 62
     0
 10
31.222
 20
5.358056
 30
0.0
 11
30.57349
 21
4.983638
 31
0.0
  0
LINE
  5
1586
  8
0
 10
23.51
 20
9.635492
 30
0.0
 11
23.885
 21
9.635492
 31
0.0
  0
LINE
  5
1587
  8
0
  6
BYBLOCK
 62
     0
 10
32.6
 20
7.78122
 30
0.0
 11
32.6
 21
7.15722
 31
0.0
  0
LINE
  5
1588
  8
0
  6
BYBLOCK
 62
     0
 10
32.51
 20
7.15722
 30
0.0
 11
32.6
 21
7.15722
 31
0.0
  0
LINE
  5
1589
  8
0
  6
BYBLOCK
 62
     0
 10
32.51
 20
7.78122
 30
0.0
 11
32.6
 21
7.78122
 31
0.0
  0
LINE
  5
158A
  8
0
  6
BYBLOCK
 62
     0
 10
32.354
 20
8.23422
 30
0.0
 11
32.51
 21
8.23422
 31
0.0
  0
ENDSEC
  0
EOF
