  0
SECTION
  2
HEADER
  9
$ACADVER
  1
AC1009
  9
$INSBASE
 10
-6.14
 20
0.0
 30
0.0
  9
$EXTMIN
 10
-11.650593
 20
-7.080491
 30
-0.001526
  9
$EXTMAX
 10
15.510801
 20
7.080538
 30
0.0
  9
$LIMMIN
 10
0.0
 20
0.0
  9
$LIMMAX
 10
12.0
 20
9.0
  9
$ORTHOMODE
 70
     1
  9
$REGENMODE
 70
     1
  9
$FILLMODE
 70
     1
  9
$QTEXTMODE
 70
     0
  9
$MIRRTEXT
 70
     1
  9
$DRAGMODE
 70
     2
  9
$LTSCALE
 40
1.0
  9
$OSMODE
 70
     0
  9
$ATTMODE
 70
     1
  9
$TEXTSIZE
 40
0.2
  9
$TRACEWID
 40
0.05
  9
$TEXTSTYLE
  7
STANDARD
  9
$CLAYER
  8
0
  9
$CELTYPE
  6
BYLAYER
  9
$CECOLOR
 62
   256
  9
$DIMSCALE
 40
1.0
  9
$DIMASZ
 40
0.18
  9
$DIMEXO
 40
0.0625
  9
$DIMDLI
 40
0.38
  9
$DIMRND
 40
0.0
  9
$DIMDLE
 40
0.0
  9
$DIMEXE
 40
0.18
  9
$DIMTP
 40
0.0
  9
$DIMTM
 40
0.0
  9
$DIMTXT
 40
0.18
  9
$DIMCEN
 40
0.09
  9
$DIMTSZ
 40
0.0
  9
$DIMTOL
 70
     0
  9
$DIMLIM
 70
     0
  9
$DIMTIH
 70
     1
  9
$DIMTOH
 70
     1
  9
$DIMSE1
 70
     0
  9
$DIMSE2
 70
     0
  9
$DIMTAD
 70
     0
  9
$DIMZIN
 70
     0
  9
$DIMBLK
  1

  9
$DIMASO
 70
     1
  9
$DIMSHO
 70
     1
  9
$DIMPOST
  1

  9
$DIMAPOST
  1

  9
$DIMALT
 70
     0
  9
$DIMALTD
 70
     2
  9
$DIMALTF
 40
25.4
  9
$DIMLFAC
 40
1.0
  9
$DIMTOFL
 70
     0
  9
$DIMTVP
 40
0.0
  9
$DIMTIX
 70
     0
  9
$DIMSOXD
 70
     0
  9
$DIMSAH
 70
     0
  9
$DIMBLK1
  1

  9
$DIMBLK2
  1

  9
$DIMSTYLE
  2
STANDARD
  9
$DIMCLRD
 70
     0
  9
$DIMCLRE
 70
     0
  9
$DIMCLRT
 70
     0
  9
$DIMTFAC
 40
1.0
  9
$DIMGAP
 40
0.09
  9
$LUNITS
 70
     2
  9
$LUPREC
 70
     4
  9
$SKETCHINC
 40
0.1
  9
$FILLETRAD
 40
0.0
  9
$AUNITS
 70
     0
  9
$AUPREC
 70
     0
  9
$MENU
  1
acad
  9
$ELEVATION
 40
0.0
  9
$PELEVATION
 40
0.0
  9
$THICKNESS
 40
0.0
  9
$LIMCHECK
 70
     0
  9
$BLIPMODE
 70
     1
  9
$CHAMFERA
 40
0.0
  9
$CHAMFERB
 40
0.0
  9
$SKPOLY
 70
     0
  9
$TDCREATE
 40
2451127.582902
  9
$TDUPDATE
 40
2451129.622642
  9
$TDINDWG
 40
0.034536
  9
$TDUSRTIMER
 40
0.034536
  9
$USRTIMER
 70
     1
  9
$ANGBASE
 50
0.0
  9
$ANGDIR
 70
     0
  9
$PDMODE
 70
     0
  9
$PDSIZE
 40
0.0
  9
$PLINEWID
 40
0.0
  9
$COORDS
 70
     1
  9
$SPLFRAME
 70
     0
  9
$SPLINETYPE
 70
     6
  9
$SPLINESEGS
 70
     8
  9
$ATTDIA
 70
     0
  9
$ATTREQ
 70
     1
  9
$HANDLING
 70
     1
  9
$HANDSEED
  5
314
  9
$SURFTAB1
 70
     6
  9
$SURFTAB2
 70
     6
  9
$SURFTYPE
 70
     6
  9
$SURFU
 70
     6
  9
$SURFV
 70
     6
  9
$UCSNAME
  2

  9
$UCSORG
 10
0.0
 20
0.0
 30
0.0
  9
$UCSXDIR
 10
1.0
 20
0.0
 30
0.0
  9
$UCSYDIR
 10
0.0
 20
1.0
 30
0.0
  9
$PUCSNAME
  2

  9
$PUCSORG
 10
0.0
 20
0.0
 30
0.0
  9
$PUCSXDIR
 10
1.0
 20
0.0
 30
0.0
  9
$PUCSYDIR
 10
0.0
 20
1.0
 30
0.0
  9
$USERI1
 70
     0
  9
$USERI2
 70
     0
  9
$USERI3
 70
     0
  9
$USERI4
 70
     0
  9
$USERI5
 70
     0
  9
$USERR1
 40
0.0
  9
$USERR2
 40
0.0
  9
$USERR3
 40
0.0
  9
$USERR4
 40
0.0
  9
$USERR5
 40
0.0
  9
$WORLDVIEW
 70
     1
  9
$SHADEDGE
 70
     3
  9
$SHADEDIF
 70
    70
  9
$TILEMODE
 70
     1
  9
$MAXACTVP
 70
    16
  9
$PLIMCHECK
 70
     0
  9
$PEXTMIN
 10
1.000000E+020
 20
1.000000E+020
 30
1.000000E+020
  9
$PEXTMAX
 10
-1.000000E+020
 20
-1.000000E+020
 30
-1.000000E+020
  9
$PLIMMIN
 10
0.0
 20
0.0
  9
$PLIMMAX
 10
12.0
 20
9.0
  9
$UNITMODE
 70
     0
  9
$VISRETAIN
 70
     0
  9
$PLINEGEN
 70
     0
  9
$PSLTSCALE
 70
     1
  0
ENDSEC
  0
SECTION
  2
TABLES
  0
TABLE
  2
VPORT
 70
     2
  0
VPORT
  2
*ACTIVE
 70
     0
 10
0.0
 20
0.0
 11
1.0
 21
1.0
 12
1.930104
 22
0.000024
 13
0.0
 23
0.0
 14
1.0
 24
1.0
 15
0.0
 25
0.0
 16
0.0
 26
0.0
 36
1.0
 17
0.0
 27
0.0
 37
0.0
 40
17.948684
 41
1.603066
 42
50.0
 43
0.0
 44
0.0
 50
0.0
 51
0.0
 71
     0
 72
 20000
 73
     1
 74
     0
 75
     0
 76
     0
 77
     0
 78
     0
  0
ENDTAB
  0
TABLE
  2
LTYPE
 70
     2
  0
LTYPE
  2
CONTINUOUS
 70
     0
  3
Solid line
 72
    65
 73
     0
 40
0.0
  0
LTYPE
  2
HIDDEN
 70
     0
  3
__ __ __ __ __ __ __ __ __ __ __ __ __ __ __ __
 72
    65
 73
     2
 40
0.375
 49
0.25
 49
-0.125
  0
ENDTAB
  0
TABLE
  2
LAYER
 70
     1
  0
LAYER
  2
0
 70
     0
 62
     7
  6
CONTINUOUS
  0
ENDTAB
  0
TABLE
  2
STYLE
 70
     1
  0
STYLE
  2
STANDARD
 70
     0
 40
0.0
 41
1.0
 50
0.0
 71
     0
 42
0.2
  3
txt
  4

  0
ENDTAB
  0
TABLE
  2
VIEW
 70
     0
  0
ENDTAB
  0
TABLE
  2
UCS
 70
     0
  0
ENDTAB
  0
TABLE
  2
APPID
 70
     1
  0
APPID
  2
ACAD
 70
     0
  0
ENDTAB
  0
TABLE
  2
DIMSTYLE
 70
     1
  0
DIMSTYLE
  2
STANDARD
 70
     0
  3

  4

  5

  6

  7

 40
1.0
 41
0.18
 42
0.0625
 43
0.38
 44
0.18
 45
0.0
 46
0.0
 47
0.0
 48
0.0
140
0.18
141
0.09
142
0.0
143
25.4
144
1.0
145
0.0
146
1.0
147
0.09
 71
     0
 72
     0
 73
     1
 74
     1
 75
     0
 76
     0
 77
     0
 78
     0
170
     0
171
     2
172
     0
173
     0
174
     0
175
     0
176
     0
177
     0
178
     0
  0
ENDTAB
  0
ENDSEC
  0
SECTION
  2
BLOCKS
  0
BLOCK
  8
0
  2
$MODEL_SPACE
 70
     0
 10
0.0
 20
0.0
 30
0.0
  3
$MODEL_SPACE
  1

  0
ENDBLK
  5
6
  8
0
  0
BLOCK
 67
     1
  8
0
  2
$PAPER_SPACE
 70
     0
 10
0.0
 20
0.0
 30
0.0
  3
$PAPER_SPACE
  1

  0
ENDBLK
  5
9
 67
     1
  8
0
  0
ENDSEC
  0
SECTION
  2
ENTITIES
  0
LINE
  5
1D
  8
0
  6
BYBLOCK
 62
     0
 10
-11.309998
 20
1.793949
 30
0.0
 11
-11.309998
 21
-1.77
 31
0.0
  0
LINE
  5
1E
  8
0
  6
BYBLOCK
 62
     0
 10
-0.970002
 20
1.793949
 30
0.0
 11
-0.970002
 21
-1.793949
 31
0.0
  0
LINE
  5
1F
  8
0
  6
BYBLOCK
 62
     0
 10
-3.369953
 20
4.120026
 30
0.0
 11
-3.369953
 21
-4.119826
 31
0.0
  0
LINE
  5
20
  8
0
  6
BYBLOCK
 62
     0
 10
-8.910047
 20
4.120026
 30
0.0
 11
-8.910047
 21
-4.119826
 31
0.0
  0
LINE
  5
21
  8
0
  6
BYBLOCK
 62
     0
 10
-7.339976
 20
4.120026
 30
0.0
 11
-7.339976
 21
-4.119826
 31
0.0
  0
LINE
  5
22
  8
0
  6
BYBLOCK
 62
     0
 10
-4.940024
 20
4.120026
 30
0.0
 11
-4.940024
 21
-4.119826
 31
0.0
  0
LINE
  5
23
  8
0
  6
BYBLOCK
 62
     0
 10
-7.674165
 20
-5.95
 30
0.0
 11
-7.125
 21
-5.95
 31
0.0
  0
LINE
  5
24
  8
0
  6
BYBLOCK
 62
     0
 10
-7.356941
 20
-5.76
 30
0.0
 11
-4.923059
 21
-5.76
 31
0.0
  0
LINE
  5
25
  8
0
  6
BYBLOCK
 62
     0
 10
-7.339976
 20
-2.299858
 30
0.0
 11
-4.940024
 21
-2.299858
 31
0.0
  0
LINE
  5
26
  8
0
  6
BYBLOCK
 62
     0
 10
-7.339976
 20
-4.41
 30
0.0
 11
-7.125
 21
-4.41
 31
0.0
  0
LINE
  5
27
  8
0
  6
BYBLOCK
 62
     0
 10
-7.339976
 20
-4.119826
 30
0.0
 11
-4.940024
 21
-4.119826
 31
0.0
  0
CIRCLE
  5
28
  8
0
  6
BYBLOCK
 62
     0
 10
-7.888116
 20
-3.954958
 30
0.0
 40
0.139997
  0
CIRCLE
  5
29
  8
0
  6
BYBLOCK
 62
     0
 10
-8.361924
 20
-3.954958
 30
0.0
 40
0.139997
  0
LINE
  5
2A
  8
0
  6
BYBLOCK
 62
     0
 10
-7.655032
 20
-3.31992
 30
0.0
 11
-7.655032
 21
-5.929962
 31
0.0
  0
LINE
  5
2B
  8
0
  6
BYBLOCK
 62
     0
 10
-8.595008
 20
-3.31992
 30
0.0
 11
-8.595008
 21
-5.929962
 31
0.0
  0
LINE
  5
2C
  8
0
  6
BYBLOCK
 62
     0
 10
-11.309998
 20
-2.17
 30
0.0
 11
-11.309998
 21
-4.119826
 31
0.0
  0
LINE
  5
2D
  8
0
  6
HIDDEN
 62
     0
 10
-11.095
 20
-5.95
 30
0.0
 11
-9.8075
 21
-5.95
 31
0.0
  0
LINE
  5
2F
  8
0
  6
BYBLOCK
 62
     0
 10
-8.892981
 20
-5.76
 30
0.0
 11
-11.209998
 21
-5.76
 31
0.0
  0
LINE
  5
30
  8
0
  6
BYBLOCK
 62
     0
 10
-11.095
 20
-7.08
 30
0.0
 11
-9.125
 21
-7.08
 31
0.0
  0
LINE
  5
31
  8
0
  6
BYBLOCK
 62
     0
 10
-11.309998
 20
-4.119826
 30
0.0
 11
-8.910047
 21
-4.119826
 31
0.0
  0
LINE
  5
32
  8
0
  6
BYBLOCK
 62
     0
 10
-11.095
 20
-4.119826
 30
0.0
 11
-11.095
 21
-7.08
 31
0.0
  0
LINE
  5
33
  8
0
  6
BYBLOCK
 62
     0
 10
-11.309998
 20
-4.119826
 30
0.0
 11
-11.309998
 21
-5.95
 31
0.0
  0
LINE
  5
34
  8
0
  6
BYBLOCK
 62
     0
 10
-11.095
 20
-5.95
 30
0.0
 11
-11.309998
 21
-5.95
 31
0.0
  0
ARC
  5
35
  8
0
  6
BYBLOCK
 62
     0
 10
-11.209998
 20
-5.66
 30
0.0
 40
0.1
 50
180.0
 51
270.0
  0
LINE
  5
36
  8
0
  6
BYBLOCK
 62
     0
 10
-11.140002
 20
-4.119826
 30
0.0
 11
-11.140002
 21
-4.41
 31
0.0
  0
LINE
  5
37
  8
0
  6
BYBLOCK
 62
     0
 10
-11.309998
 20
-4.41
 30
0.0
 11
-11.095
 21
-4.41
 31
0.0
  0
CIRCLE
  5
38
  8
0
  6
BYBLOCK
 62
     0
 10
-10.11
 20
-6.365
 30
0.0
 40
0.295
  0
LINE
  5
39
  8
0
  6
BYBLOCK
 62
     0
 10
-9.125
 20
-4.119826
 30
0.0
 11
-9.125
 21
-7.08
 31
0.0
  0
LINE
  5
3A
  8
0
  6
BYBLOCK
 62
     0
 10
-9.125
 20
-5.95
 30
0.0
 11
-8.575757
 21
-5.95
 31
0.0
  0
LINE
  5
3B
  8
0
  6
BYBLOCK
 62
     0
 10
-9.125
 20
-4.41
 30
0.0
 11
-8.910047
 21
-4.41
 31
0.0
  0
ARC
  5
3C
  8
0
  6
HIDDEN
 62
     1
 10
-9.585
 20
-5.3675
 30
0.0
 40
0.2225
 50
0.0
 51
180.0
  0
LINE
  5
3D
  8
0
  6
BYBLOCK
 62
     1
 10
-9.585
 20
-5.0905
 30
0.0
 11
-9.585
 21
-5.939
 31
0.0
  0
LINE
  5
3E
  8
0
  6
HIDDEN
 62
     1
 10
-9.3625
 20
-5.3675
 30
0.0
 11
-9.3625
 21
-5.95
 31
0.0
  0
LINE
  5
3F
  8
0
  6
HIDDEN
 62
     1
 10
-9.8075
 20
-5.3675
 30
0.0
 11
-9.8075
 21
-5.95
 31
0.0
  0
LINE
  5
40
  8
0
  6
HIDDEN
 62
     0
 10
-9.3625
 20
-5.95
 30
0.0
 11
-9.125
 21
-5.95
 31
0.0
  0
LINE
  5
41
  8
0
  6
BYBLOCK
 62
     1
 10
-9.862
 20
-5.57
 30
0.0
 11
-9.308
 21
-5.57
 31
0.0
  0
CIRCLE
  5
42
  8
0
  6
BYBLOCK
 62
     0
 10
-10.11
 20
-5.1125
 30
0.0
 40
0.1975
  0
CIRCLE
  5
43
  8
0
  6
BYBLOCK
 62
     0
 10
-7.888116
 20
-5.294924
 30
0.0
 40
0.139997
  0
CIRCLE
  5
44
  8
0
  6
BYBLOCK
 62
     0
 10
-8.361924
 20
-5.294924
 30
0.0
 40
0.139997
  0
LINE
  5
45
  8
0
  6
BYBLOCK
 62
     0
 10
-8.028075
 20
-5.649915
 30
0.0
 11
-8.221965
 21
-5.649915
 31
0.0
  0
LINE
  5
46
  8
0
  6
BYBLOCK
 62
     0
 10
-8.492277
 20
-6.0
 30
0.0
 11
-7.757646
 21
-6.0
 31
0.0
  0
LINE
  5
47
  8
0
  6
BYBLOCK
 62
     0
 10
-7.655032
 20
-5.929962
 30
0.0
 11
-8.595008
 21
-5.929962
 31
0.0
  0
LINE
  5
48
  8
0
  6
HIDDEN
 62
     0
 10
-8.575757
 20
-5.95
 30
0.0
 11
-7.674165
 21
-5.95
 31
0.0
  0
LINE
  5
49
  8
0
  6
BYBLOCK
 62
     0
 10
-8.492277
 20
-6.0
 30
0.0
 11
-8.892981
 21
-5.76
 31
0.0
  0
CIRCLE
  5
4A
  8
0
  6
BYBLOCK
 62
     0
 10
-8.361924
 20
-5.646679
 30
0.0
 40
0.139997
  0
LINE
  5
4B
  8
0
  6
BYBLOCK
 62
     0
 10
-8.501883
 20
-5.649915
 30
0.0
 11
-8.595008
 21
-5.649915
 31
0.0
  0
LINE
  5
4C
  8
0
  6
BYBLOCK
 62
     0
 10
-7.757646
 20
-6.0
 30
0.0
 11
-7.356941
 21
-5.76
 31
0.0
  0
LINE
  5
4D
  8
0
  6
BYBLOCK
 62
     0
 10
-7.655032
 20
-5.649915
 30
0.0
 11
-7.748157
 21
-5.649915
 31
0.0
  0
CIRCLE
  5
4E
  8
0
  6
BYBLOCK
 62
     0
 10
-7.888116
 20
-5.646679
 30
0.0
 40
0.139997
  0
LINE
  5
4F
  8
0
  6
BYBLOCK
 62
     0
 10
-8.910047
 20
-4.119826
 30
0.0
 11
-8.910047
 21
-4.41
 31
0.0
  0
LINE
  5
50
  8
0
  6
BYBLOCK
 62
     0
 10
-9.080042
 20
-4.119826
 30
0.0
 11
-9.080042
 21
-4.41
 31
0.0
  0
LINE
  5
51
  8
0
  6
BYBLOCK
 62
     0
 10
-7.339976
 20
-4.119826
 30
0.0
 11
-7.339976
 21
-4.41
 31
0.0
  0
LINE
  5
52
  8
0
  6
BYBLOCK
 62
     0
 10
-11.309998
 20
-2.299858
 30
0.0
 11
-8.910047
 21
-2.299858
 31
0.0
  0
ARC
  5
53
  8
0
  6
BYBLOCK
 62
     0
 10
-11.525012
 20
-1.621685
 30
0.0
 40
0.124997
 50
105.0
 51
180.0
  0
LINE
  5
54
  8
0
  6
BYBLOCK
 62
     0
 10
-11.650008
 20
-1.621685
 30
0.0
 11
-11.650008
 21
-2.318115
 31
0.0
  0
LINE
  5
55
  8
0
  6
BYBLOCK
 62
     0
 10
-11.557363
 20
-2.438852
 30
0.0
 11
-11.309998
 21
-2.58256
 31
0.0
  0
LINE
  5
56
  8
0
  6
BYBLOCK
 62
     0
 10
-11.650008
 20
-2.32
 30
0.0
 11
-11.309998
 21
-2.32
 31
0.0
  0
ARC
  5
57
  8
0
  6
BYBLOCK
 62
     0
 10
-11.525012
 20
-2.318115
 30
0.0
 40
0.124997
 50
180.0
 51
255.0
  0
LINE
  5
58
  8
0
  6
BYBLOCK
 62
     0
 10
-11.650008
 20
-1.62
 30
0.0
 11
-11.309998
 21
-1.62
 31
0.0
  0
LINE
  5
59
  8
0
  6
BYBLOCK
 62
     0
 10
-11.530957
 20
-2.060704
 30
0.0
 11
-11.314194
 21
-1.84394
 31
0.0
  0
LINE
  5
5A
  8
0
  6
BYBLOCK
 62
     0
 10
-11.495602
 20
-2.09606
 30
0.0
 11
-11.278838
 21
-1.879296
 31
0.0
  0
CIRCLE
  5
5B
  8
0
  6
BYBLOCK
 62
     0
 10
-11.404898
 20
-1.97
 30
0.0
 40
0.1553
  0
ARC
  5
5C
  8
0
  6
BYBLOCK
 62
     0
 10
-11.404898
 20
-1.97
 30
0.0
 40
0.2
 50
270.0
 51
90.0
  0
LINE
  5
5D
  8
0
  6
BYBLOCK
 62
     0
 10
-11.650008
 20
-2.17
 30
0.0
 11
-11.404898
 21
-2.17
 31
0.0
  0
LINE
  5
5E
  8
0
  6
BYBLOCK
 62
     0
 10
-11.650008
 20
-1.77
 30
0.0
 11
-11.404898
 21
-1.77
 31
0.0
  0
LINE
  5
5F
  8
0
  6
BYBLOCK
 62
     0
 10
-11.557363
 20
-1.500948
 30
0.0
 11
-11.309998
 21
-1.35724
 31
0.0
  0
CIRCLE
  5
60
  8
0
  6
BYBLOCK
 62
     0
 10
-10.58
 20
-3.744649
 30
0.0
 40
0.235
  0
CIRCLE
  5
61
  8
0
  6
BYBLOCK
 62
     0
 10
-9.64
 20
-3.744649
 30
0.0
 40
0.235
  0
LINE
  5
62
  8
0
  6
BYBLOCK
 62
     0
 10
-8.028075
 20
-3.599966
 30
0.0
 11
-8.221965
 21
-3.599966
 31
0.0
  0
LINE
  5
63
  8
0
  6
BYBLOCK
 62
     0
 10
-7.655032
 20
-3.31992
 30
0.0
 11
-8.595008
 21
-3.31992
 31
0.0
  0
CIRCLE
  5
64
  8
0
  6
BYBLOCK
 62
     0
 10
-8.361924
 20
-3.603202
 30
0.0
 40
0.139997
  0
LINE
  5
65
  8
0
  6
BYBLOCK
 62
     0
 10
-8.501883
 20
-3.599966
 30
0.0
 11
-8.595008
 21
-3.599966
 31
0.0
  0
LINE
  5
66
  8
0
  6
BYBLOCK
 62
     0
 10
-7.655032
 20
-3.599966
 30
0.0
 11
-7.748157
 21
-3.599966
 31
0.0
  0
CIRCLE
  5
67
  8
0
  6
BYBLOCK
 62
     0
 10
-7.888116
 20
-3.603202
 30
0.0
 40
0.139997
  0
LINE
  5
68
  8
0
  6
BYBLOCK
 62
     0
 10
-7.464973
 20
-2.169972
 30
0.0
 11
-8.78505
 21
-2.169972
 31
0.0
  0
LINE
  5
69
  8
0
  6
BYBLOCK
 62
     0
 10
-7.464973
 20
-2.009976
 30
0.0
 11
-8.78505
 21
-2.009976
 31
0.0
  0
ARC
  5
6A
  8
0
  6
BYBLOCK
 62
     0
 10
-8.78505
 20
-2.294969
 30
0.0
 40
0.124997
 50
90.0
 51
180.0
  0
ARC
  5
6B
  8
0
  6
BYBLOCK
 62
     0
 10
-8.78505
 20
-1.884979
 30
0.0
 40
0.124997
 50
180.0
 51
270.0
  0
ARC
  5
6C
  8
0
  6
BYBLOCK
 62
     0
 10
-7.464973
 20
-2.294969
 30
0.0
 40
0.124997
 50
0.0
 51
90.0
  0
ARC
  5
6D
  8
0
  6
BYBLOCK
 62
     0
 10
-7.464973
 20
-1.884979
 30
0.0
 40
0.124997
 50
270.0
 51
0.0
  0
LINE
  5
6E
  8
0
  6
BYBLOCK
 62
     0
 10
-0.970002
 20
-2.146051
 30
0.0
 11
-0.970002
 21
-4.119826
 31
0.0
  0
LINE
  5
6F
  8
0
  6
BYBLOCK
 62
     0
 10
-3.787723
 20
-6.0
 30
0.0
 11
-3.387019
 21
-5.76
 31
0.0
  0
LINE
  5
70
  8
0
  6
BYBLOCK
 62
     0
 10
-3.704243
 20
-5.95
 30
0.0
 11
-3.155
 21
-5.95
 31
0.0
  0
LINE
  5
71
  8
0
  6
BYBLOCK
 62
     0
 10
-5.155
 20
-4.119826
 30
0.0
 11
-5.155
 21
-7.08
 31
0.0
  0
CIRCLE
  5
72
  8
0
  6
BYBLOCK
 62
     0
 10
-6.14
 20
-6.365
 30
0.0
 40
0.295
  0
LINE
  5
73
  8
0
  6
BYBLOCK
 62
     0
 10
-7.125
 20
-4.119826
 30
0.0
 11
-7.125
 21
-7.08
 31
0.0
  0
LINE
  5
74
  8
0
  6
BYBLOCK
 62
     0
 10
-7.125
 20
-7.08
 30
0.0
 11
-5.155
 21
-7.08
 31
0.0
  0
LINE
  5
75
  8
0
  6
HIDDEN
 62
     0
 10
-7.125
 20
-5.95
 30
0.0
 11
-5.155
 21
-5.95
 31
0.0
  0
CIRCLE
  5
76
  8
0
  6
BYBLOCK
 62
     0
 10
-6.14
 20
-5.1125
 30
0.0
 40
0.1975
  0
LINE
  5
77
  8
0
  6
BYBLOCK
 62
     0
 10
-7.16998
 20
-4.119826
 30
0.0
 11
-7.16998
 21
-4.41
 31
0.0
  0
LINE
  5
78
  8
0
  6
HIDDEN
 62
     0
 10
-4.605835
 20
-5.95
 30
0.0
 11
-3.704243
 21
-5.95
 31
0.0
  0
LINE
  5
79
  8
0
  6
BYBLOCK
 62
     0
 10
-4.522354
 20
-6.0
 30
0.0
 11
-3.787723
 21
-6.0
 31
0.0
  0
LINE
  5
7A
  8
0
  6
BYBLOCK
 62
     0
 10
-4.522354
 20
-6.0
 30
0.0
 11
-4.923059
 21
-5.76
 31
0.0
  0
LINE
  5
7B
  8
0
  6
BYBLOCK
 62
     0
 10
-5.155
 20
-5.95
 30
0.0
 11
-4.605835
 21
-5.95
 31
0.0
  0
LINE
  5
7C
  8
0
  6
BYBLOCK
 62
     0
 10
-4.940024
 20
-4.119826
 30
0.0
 11
-4.940024
 21
-4.41
 31
0.0
  0
LINE
  5
7D
  8
0
  6
BYBLOCK
 62
     0
 10
-5.11002
 20
-4.119826
 30
0.0
 11
-5.11002
 21
-4.41
 31
0.0
  0
LINE
  5
7E
  8
0
  6
BYBLOCK
 62
     0
 10
-5.155
 20
-4.41
 30
0.0
 11
-4.940024
 21
-4.41
 31
0.0
  0
CIRCLE
  5
7F
  8
0
  6
BYBLOCK
 62
     0
 10
-2.17
 20
-6.365
 30
0.0
 40
0.295
  0
LINE
  5
80
  8
0
  6
BYBLOCK
 62
     0
 10
-1.185
 20
-4.119826
 30
0.0
 11
-1.185
 21
-7.08
 31
0.0
  0
LINE
  5
81
  8
0
  6
BYBLOCK
 62
     0
 10
-3.155
 20
-4.119826
 30
0.0
 11
-3.155
 21
-7.08
 31
0.0
  0
LINE
  5
82
  8
0
  6
BYBLOCK
 62
     0
 10
-3.155
 20
-7.08
 30
0.0
 11
-1.185
 21
-7.08
 31
0.0
  0
LINE
  5
83
  8
0
  6
HIDDEN
 62
     0
 10
-2.4725
 20
-5.95
 30
0.0
 11
-1.185
 21
-5.95
 31
0.0
  0
LINE
  5
84
  8
0
  6
BYBLOCK
 62
     0
 10
-3.369953
 20
-4.119826
 30
0.0
 11
-0.970002
 21
-4.119826
 31
0.0
  0
ARC
  5
85
  8
0
  6
HIDDEN
 62
     1
 10
-2.695
 20
-5.3675
 30
0.0
 40
0.2225
 50
0.0
 51
180.0
  0
LINE
  5
86
  8
0
  6
BYBLOCK
 62
     1
 10
-2.695
 20
-5.0905
 30
0.0
 11
-2.695
 21
-5.939
 31
0.0
  0
LINE
  5
87
  8
0
  6
BYBLOCK
 62
     1
 10
-2.972
 20
-5.57
 30
0.0
 11
-2.418
 21
-5.57
 31
0.0
  0
LINE
  5
88
  8
0
  6
HIDDEN
 62
     1
 10
-2.9175
 20
-5.3675
 30
0.0
 11
-2.9175
 21
-5.95
 31
0.0
  0
LINE
  5
89
  8
0
  6
HIDDEN
 62
     0
 10
-3.155
 20
-5.95
 30
0.0
 11
-2.9175
 21
-5.95
 31
0.0
  0
LINE
  5
8A
  8
0
  6
BYBLOCK
 62
     0
 10
-3.387019
 20
-5.76
 30
0.0
 11
-3.155
 21
-5.76
 31
0.0
  0
LINE
  5
8B
  8
0
  6
HIDDEN
 62
     1
 10
-2.4725
 20
-5.3675
 30
0.0
 11
-2.4725
 21
-5.95
 31
0.0
  0
LINE
  5
8C
  8
0
  6
BYBLOCK
 62
     0
 10
-3.369953
 20
-4.119826
 30
0.0
 11
-3.369953
 21
-4.41
 31
0.0
  0
LINE
  5
8D
  8
0
  6
BYBLOCK
 62
     0
 10
-3.199958
 20
-4.119826
 30
0.0
 11
-3.199958
 21
-4.41
 31
0.0
  0
LINE
  5
8E
  8
0
  6
BYBLOCK
 62
     0
 10
-3.369953
 20
-4.41
 30
0.0
 11
-3.155
 21
-4.41
 31
0.0
  0
CIRCLE
  5
8F
  8
0
  6
BYBLOCK
 62
     0
 10
-2.17
 20
-5.1125
 30
0.0
 40
0.1975
  0
LINE
  5
90
  8
0
  6
BYBLOCK
 62
     0
 10
-0.970002
 20
-4.119826
 30
0.0
 11
-0.970002
 21
-5.95
 31
0.0
  0
LINE
  5
91
  8
0
  6
BYBLOCK
 62
     0
 10
-1.185
 20
-5.95
 30
0.0
 11
-0.970002
 21
-5.95
 31
0.0
  0
LINE
  5
92
  8
0
  6
BYBLOCK
 62
     0
 10
-1.1499
 20
-5.95
 30
0.0
 11
-1.124998
 21
-5.95
 31
0.0
  0
ARC
  5
93
  8
0
  6
BYBLOCK
 62
     0
 10
-1.070002
 20
-5.66
 30
0.0
 40
0.1
 50
270.0
 51
0.0
  0
LINE
  5
94
  8
0
  6
BYBLOCK
 62
     0
 10
-1.185
 20
-5.76
 30
0.0
 11
-1.070002
 21
-5.76
 31
0.0
  0
LINE
  5
95
  8
0
  6
BYBLOCK
 62
     0
 10
-1.139998
 20
-4.119826
 30
0.0
 11
-1.139998
 21
-4.41
 31
0.0
  0
LINE
  5
96
  8
0
  6
BYBLOCK
 62
     0
 10
-1.185
 20
-4.41
 30
0.0
 11
-0.970002
 21
-4.41
 31
0.0
  0
LINE
  5
97
  8
0
  6
BYBLOCK
 62
     0
 10
-3.49495
 20
-2.169972
 30
0.0
 11
-4.815027
 21
-2.169972
 31
0.0
  0
LINE
  5
98
  8
0
  6
BYBLOCK
 62
     0
 10
-3.49495
 20
-2.009976
 30
0.0
 11
-4.815028
 21
-2.009976
 31
0.0
  0
CIRCLE
  5
99
  8
0
  6
BYBLOCK
 62
     0
 10
-6.61
 20
-3.744649
 30
0.0
 40
0.235
  0
CIRCLE
  5
9A
  8
0
  6
BYBLOCK
 62
     0
 10
-5.67
 20
-3.744649
 30
0.0
 40
0.235
  0
ARC
  5
9B
  8
0
  6
BYBLOCK
 62
     0
 10
-4.815027
 20
-2.294969
 30
0.0
 40
0.124997
 50
90.0
 51
180.0
  0
ARC
  5
9C
  8
0
  6
BYBLOCK
 62
     0
 10
-4.815028
 20
-1.884979
 30
0.0
 40
0.124997
 50
180.0
 51
270.0
  0
ARC
  5
9D
  8
0
  6
BYBLOCK
 62
     0
 10
-0.754988
 20
-1.621685
 30
0.0
 40
0.124997
 50
0.0
 51
75.0
  0
CIRCLE
  5
9E
  8
0
  6
BYBLOCK
 62
     0
 10
-1.7
 20
-3.744649
 30
0.0
 40
0.235
  0
LINE
  5
9F
  8
0
  6
BYBLOCK
 62
     0
 10
-3.369953
 20
-2.299858
 30
0.0
 11
-0.970002
 21
-2.299858
 31
0.0
  0
CIRCLE
  5
A0
  8
0
  6
BYBLOCK
 62
     0
 10
-2.64
 20
-3.744649
 30
0.0
 40
0.235
  0
ARC
  5
A1
  8
0
  6
BYBLOCK
 62
     0
 10
-3.49495
 20
-2.294969
 30
0.0
 40
0.124997
 50
0.0
 51
90.0
  0
ARC
  5
A2
  8
0
  6
BYBLOCK
 62
     0
 10
-3.49495
 20
-1.884979
 30
0.0
 40
0.124997
 50
270.0
 51
0.0
  0
LINE
  5
A3
  8
0
  6
BYBLOCK
 62
     0
 10
-0.629992
 20
-2.32
 30
0.0
 11
-0.970002
 21
-2.32
 31
0.0
  0
LINE
  5
A4
  8
0
  6
BYBLOCK
 62
     0
 10
-0.722637
 20
-2.438852
 30
0.0
 11
-0.970002
 21
-2.58256
 31
0.0
  0
LINE
  5
A5
  8
0
  6
BYBLOCK
 62
     0
 10
-0.629992
 20
-2.17
 30
0.0
 11
-0.875102
 21
-2.17
 31
0.0
  0
LINE
  5
A6
  8
0
  6
BYBLOCK
 62
     0
 10
-0.629992
 20
-1.77
 30
0.0
 11
-0.875102
 21
-1.77
 31
0.0
  0
CIRCLE
  5
A7
  8
0
  6
BYBLOCK
 62
     0
 10
-0.875102
 20
-1.97
 30
0.0
 40
0.1553
  0
LINE
  5
A8
  8
0
  6
BYBLOCK
 62
     0
 10
-0.749043
 20
-2.060704
 30
0.0
 11
-0.965806
 21
-1.84394
 31
0.0
  0
LINE
  5
A9
  8
0
  6
BYBLOCK
 62
     0
 10
-0.629992
 20
-1.62
 30
0.0
 11
-0.970002
 21
-1.62
 31
0.0
  0
ARC
  5
AA
  8
0
  6
BYBLOCK
 62
     0
 10
-0.875102
 20
-1.97
 30
0.0
 40
0.2
 50
90.0
 51
270.0
  0
LINE
  5
AB
  8
0
  6
BYBLOCK
 62
     0
 10
-0.784398
 20
-2.09606
 30
0.0
 11
-1.001162
 21
-1.879296
 31
0.0
  0
LINE
  5
AC
  8
0
  6
BYBLOCK
 62
     0
 10
-0.629992
 20
-1.621685
 30
0.0
 11
-0.629992
 21
-2.318115
 31
0.0
  0
ARC
  5
AD
  8
0
  6
BYBLOCK
 62
     0
 10
-0.754988
 20
-2.318115
 30
0.0
 40
0.124997
 50
285.0
 51
0.0
  0
LINE
  5
AE
  8
0
  6
BYBLOCK
 62
     0
 10
-0.722637
 20
-1.500948
 30
0.0
 11
-0.970002
 21
-1.35724
 31
0.0
  0
LINE
  5
AF
  8
0
  6
BYBLOCK
 62
     0
 10
-9.125
 20
5.95
 30
0.0
 11
-6.935
 21
5.95
 31
0.0
  0
LINE
  5
B0
  8
0
  6
BYBLOCK
 62
     0
 10
-7.339976
 20
4.120026
 30
0.0
 11
-4.940024
 21
4.120026
 31
0.0
  0
LINE
  5
B1
  8
0
  6
BYBLOCK
 62
     0
 10
-9.125
 20
4.41
 30
0.0
 11
-7.125
 21
4.41
 31
0.0
  0
LINE
  5
B2
  8
0
  6
BYBLOCK
 62
     0
 10
-7.339976
 20
2.300058
 30
0.0
 11
-4.940024
 21
2.300058
 31
0.0
  0
LINE
  5
B3
  8
0
  6
BYBLOCK
 62
     0
 10
-11.095
 20
7.08
 30
0.0
 11
-11.095
 21
4.120026
 31
0.0
  0
LINE
  5
B4
  8
0
  6
BYBLOCK
 62
     0
 10
-9.125
 20
7.08
 30
0.0
 11
-9.125
 21
4.120026
 31
0.0
  0
LINE
  5
B5
  8
0
  6
HIDDEN
 62
     0
 10
-11.095
 20
4.68
 30
0.0
 11
-9.125
 21
4.68
 31
0.0
  0
LINE
  5
B6
  8
0
  6
BYBLOCK
 62
     0
 10
-11.309998
 20
2.300058
 30
0.0
 11
-8.910047
 21
2.300058
 31
0.0
  0
LINE
  5
B7
  8
0
  6
BYBLOCK
 62
     0
 10
-11.309998
 20
4.120026
 30
0.0
 11
-8.910047
 21
4.120026
 31
0.0
  0
LINE
  5
B8
  8
0
  6
BYBLOCK
 62
     0
 10
-11.309998
 20
4.120026
 30
0.0
 11
-11.309998
 21
2.146051
 31
0.0
  0
LINE
  5
B9
  8
0
  6
BYBLOCK
 62
     0
 10
-11.650008
 20
2.318315
 30
0.0
 11
-11.650008
 21
1.621885
 31
0.0
  0
ARC
  5
BA
  8
0
  6
BYBLOCK
 62
     0
 10
-11.525012
 20
1.621885
 30
0.0
 40
0.124997
 50
180.0
 51
255.0
  0
LINE
  5
BB
  8
0
  6
BYBLOCK
 62
     0
 10
-11.557363
 20
1.501148
 30
0.0
 11
-11.309998
 21
1.35744
 31
0.0
  0
LINE
  5
BC
  8
0
  6
BYBLOCK
 62
     0
 10
-11.495602
 20
1.84394
 30
0.0
 11
-11.278838
 21
2.060704
 31
0.0
  0
CIRCLE
  5
BD
  8
0
  6
BYBLOCK
 62
     0
 10
-11.404898
 20
1.97
 30
0.0
 40
0.1553
  0
LINE
  5
BE
  8
0
  6
BYBLOCK
 62
     0
 10
-11.530957
 20
1.879296
 30
0.0
 11
-11.314194
 21
2.09606
 31
0.0
  0
LINE
  5
BF
  8
0
  6
BYBLOCK
 62
     0
 10
-11.650008
 20
1.62
 30
0.0
 11
-11.309998
 21
1.62
 31
0.0
  0
ARC
  5
C0
  8
0
  6
BYBLOCK
 62
     0
 10
-11.404898
 20
1.97
 30
0.0
 40
0.2
 50
270.0
 51
90.0
  0
LINE
  5
C1
  8
0
  6
BYBLOCK
 62
     0
 10
-11.650008
 20
1.77
 30
0.0
 11
-11.404898
 21
1.77
 31
0.0
  0
LINE
  5
C2
  8
0
  6
BYBLOCK
 62
     0
 10
-11.650008
 20
2.17
 30
0.0
 11
-11.404898
 21
2.17
 31
0.0
  0
LINE
  5
C3
  8
0
  6
BYBLOCK
 62
     0
 10
-11.557363
 20
2.439052
 30
0.0
 11
-11.309998
 21
2.58276
 31
0.0
  0
LINE
  5
C4
  8
0
  6
BYBLOCK
 62
     0
 10
-11.650008
 20
2.32
 30
0.0
 11
-11.309998
 21
2.32
 31
0.0
  0
ARC
  5
C5
  8
0
  6
BYBLOCK
 62
     0
 10
-11.525012
 20
2.318315
 30
0.0
 40
0.124997
 50
105.0
 51
180.0
  0
LINE
  5
C6
  8
0
  6
BYBLOCK
 62
     0
 10
-11.309998
 20
5.85
 30
0.0
 11
-11.309998
 21
4.120026
 31
0.0
  0
LINE
  5
C7
  8
0
  6
BYBLOCK
 62
     0
 10
-11.309998
 20
4.41
 30
0.0
 11
-11.095
 21
4.41
 31
0.0
  0
LINE
  5
C8
  8
0
  6
BYBLOCK
 62
     0
 10
-11.140002
 20
4.41
 30
0.0
 11
-11.140002
 21
4.120026
 31
0.0
  0
LINE
  5
C9
  8
0
  6
BYBLOCK
 62
     0
 10
-11.209998
 20
5.95
 30
0.0
 11
-11.095
 21
5.95
 31
0.0
  0
ARC
  5
CA
  8
0
  6
BYBLOCK
 62
     0
 10
-11.209998
 20
5.85
 30
0.0
 40
0.1
 50
90.0
 51
180.0
  0
ARC
  5
CB
  8
0
  6
BYBLOCK
 62
     0
 10
-7.464973
 20
2.294969
 30
0.0
 40
0.124997
 50
270.0
 51
0.0
  0
ARC
  5
CC
  8
0
  6
BYBLOCK
 62
     0
 10
-8.78505
 20
2.294969
 30
0.0
 40
0.124997
 50
180.0
 51
270.0
  0
LINE
  5
CD
  8
0
  6
BYBLOCK
 62
     0
 10
-7.464973
 20
2.169972
 30
0.0
 11
-8.78505
 21
2.169972
 31
0.0
  0
LINE
  5
CE
  8
0
  6
BYBLOCK
 62
     0
 10
-7.464973
 20
2.009976
 30
0.0
 11
-8.78505
 21
2.009976
 31
0.0
  0
ARC
  5
CF
  8
0
  6
BYBLOCK
 62
     0
 10
-8.78505
 20
1.884979
 30
0.0
 40
0.124997
 50
90.0
 51
180.0
  0
ARC
  5
D0
  8
0
  6
BYBLOCK
 62
     0
 10
-7.464973
 20
1.884979
 30
0.0
 40
0.124997
 50
0.0
 51
90.0
  0
CIRCLE
  5
D1
  8
0
  6
BYBLOCK
 62
     0
 10
-10.58
 20
3.744649
 30
0.0
 40
0.235
  0
CIRCLE
  5
D2
  8
0
  6
BYBLOCK
 62
     0
 10
-9.64
 20
3.744649
 30
0.0
 40
0.235
  0
CIRCLE
  5
D3
  8
0
  6
BYBLOCK
 62
     0
 10
-10.11
 20
5.1125
 30
0.0
 40
0.1975
  0
LINE
  5
D4
  8
0
  6
BYBLOCK
 62
     1
 10
-9.585
 20
5.727
 30
0.0
 11
-9.585
 21
5.173
 31
0.0
  0
CIRCLE
  5
D5
  8
0
  6
HIDDEN
 62
     1
 10
-9.585
 20
5.45
 30
0.0
 40
0.215
  0
LINE
  5
D6
  8
0
  6
BYBLOCK
 62
     1
 10
-9.862
 20
5.45
 30
0.0
 11
-9.308
 21
5.45
 31
0.0
  0
CIRCLE
  5
D7
  8
0
  6
BYBLOCK
 62
     0
 10
-8.408811
 20
3.91
 30
0.0
 40
0.151199
  0
LINE
  5
D8
  8
0
  6
BYBLOCK
 62
     0
 10
-9.080042
 20
4.41
 30
0.0
 11
-9.080042
 21
4.120026
 31
0.0
  0
LINE
  5
D9
  8
0
  6
BYBLOCK
 62
     0
 10
-8.910047
 20
4.41
 30
0.0
 11
-8.910047
 21
4.120026
 31
0.0
  0
CIRCLE
  5
DA
  8
0
  6
BYBLOCK
 62
     0
 10
-7.858811
 20
3.91
 30
0.0
 40
0.151199
  0
LINE
  5
DB
  8
0
  6
BYBLOCK
 62
     0
 10
-7.339976
 20
4.41
 30
0.0
 11
-7.339976
 21
4.120026
 31
0.0
  0
LINE
  5
DC
  8
0
  6
BYBLOCK
 62
     0
 10
-11.095
 20
7.08
 30
0.0
 11
-9.125
 21
7.08
 31
0.0
  0
CIRCLE
  5
DD
  8
0
  6
BYBLOCK
 62
     0
 10
-10.11
 20
6.365
 30
0.0
 40
0.295
  0
LINE
  5
DE
  8
0
  6
BYBLOCK
 62
     0
 10
-1.185
 20
7.08
 30
0.0
 11
-1.185
 21
4.120026
 31
0.0
  0
LINE
  5
DF
  8
0
  6
BYBLOCK
 62
     0
 10
-3.155
 20
7.08
 30
0.0
 11
-3.155
 21
4.120026
 31
0.0
  0
LINE
  5
E0
  8
0
  6
BYBLOCK
 62
     0
 10
-5.155
 20
7.08
 30
0.0
 11
-5.155
 21
4.120026
 31
0.0
  0
LINE
  5
E1
  8
0
  6
HIDDEN
 62
     0
 10
-6.935
 20
5.95
 30
0.0
 11
-6.81953
 21
6.1
 31
0.0
  0
LINE
  5
E2
  8
0
  6
BYBLOCK
 62
     0
 10
-7.125
 20
7.08
 30
0.0
 11
-7.125
 21
4.120026
 31
0.0
  0
LINE
  5
E3
  8
0
  6
HIDDEN
 62
     0
 10
-5.345
 20
5.95
 30
0.0
 11
-5.46047
 21
6.1
 31
0.0
  0
LINE
  5
E4
  8
0
  6
BYBLOCK
 62
     0
 10
-5.345
 20
5.95
 30
0.0
 11
-3.155
 21
5.95
 31
0.0
  0
LINE
  5
E5
  8
0
  6
BYBLOCK
 62
     0
 10
-3.49495
 20
2.169972
 30
0.0
 11
-4.815028
 21
2.169972
 31
0.0
  0
LINE
  5
E6
  8
0
  6
BYBLOCK
 62
     0
 10
-3.49495
 20
2.009976
 30
0.0
 11
-4.815027
 21
2.009976
 31
0.0
  0
LINE
  5
E7
  8
0
  6
BYBLOCK
 62
     0
 10
-5.155
 20
4.41
 30
0.0
 11
-3.155
 21
4.41
 31
0.0
  0
ARC
  5
E8
  8
0
  6
BYBLOCK
 62
     0
 10
-4.815028
 20
2.294969
 30
0.0
 40
0.124997
 50
180.0
 51
270.0
  0
ARC
  5
E9
  8
0
  6
BYBLOCK
 62
     0
 10
-4.815027
 20
1.884979
 30
0.0
 40
0.124997
 50
90.0
 51
180.0
  0
LINE
  5
EA
  8
0
  6
HIDDEN
 62
     0
 10
-7.125
 20
4.68
 30
0.0
 11
-5.155
 21
4.68
 31
0.0
  0
CIRCLE
  5
EB
  8
0
  6
BYBLOCK
 62
     0
 10
-6.61
 20
3.744649
 30
0.0
 40
0.235
  0
LINE
  5
EC
  8
0
  6
BYBLOCK
 62
     0
 10
-7.16998
 20
4.41
 30
0.0
 11
-7.16998
 21
4.120026
 31
0.0
  0
CIRCLE
  5
ED
  8
0
  6
BYBLOCK
 62
     0
 10
-5.67
 20
3.744649
 30
0.0
 40
0.235
  0
CIRCLE
  5
EE
  8
0
  6
BYBLOCK
 62
     0
 10
-6.14
 20
5.1125
 30
0.0
 40
0.1975
  0
LINE
  5
EF
  8
0
  6
BYBLOCK
 62
     0
 10
-4.940024
 20
4.41
 30
0.0
 11
-4.940024
 21
4.120026
 31
0.0
  0
LINE
  5
F0
  8
0
  6
BYBLOCK
 62
     0
 10
-5.11002
 20
4.41
 30
0.0
 11
-5.11002
 21
4.120026
 31
0.0
  0
LINE
  5
F1
  8
0
  6
BYBLOCK
 62
     0
 10
-0.970002
 20
5.85
 30
0.0
 11
-0.970002
 21
2.146051
 31
0.0
  0
LINE
  5
F2
  8
0
  6
BYBLOCK
 62
     0
 10
-3.369953
 20
2.300058
 30
0.0
 11
-0.970002
 21
2.300058
 31
0.0
  0
ARC
  5
F3
  8
0
  6
BYBLOCK
 62
     0
 10
-3.49495
 20
2.294969
 30
0.0
 40
0.124997
 50
270.0
 51
0.0
  0
ARC
  5
F4
  8
0
  6
BYBLOCK
 62
     0
 10
-3.49495
 20
1.884979
 30
0.0
 40
0.124997
 50
0.0
 51
90.0
  0
LINE
  5
F5
  8
0
  6
BYBLOCK
 62
     0
 10
-0.629992
 20
2.318315
 30
0.0
 11
-0.629992
 21
1.621885
 31
0.0
  0
LINE
  5
F6
  8
0
  6
BYBLOCK
 62
     0
 10
-0.629992
 20
1.62
 30
0.0
 11
-0.970002
 21
1.62
 31
0.0
  0
LINE
  5
F7
  8
0
  6
BYBLOCK
 62
     0
 10
-0.722637
 20
1.501148
 30
0.0
 11
-0.970002
 21
1.35744
 31
0.0
  0
LINE
  5
F8
  8
0
  6
BYBLOCK
 62
     0
 10
-0.629992
 20
1.77
 30
0.0
 11
-0.875102
 21
1.77
 31
0.0
  0
LINE
  5
F9
  8
0
  6
BYBLOCK
 62
     0
 10
-0.629992
 20
2.17
 30
0.0
 11
-0.875102
 21
2.17
 31
0.0
  0
CIRCLE
  5
FA
  8
0
  6
BYBLOCK
 62
     0
 10
-0.875102
 20
1.97
 30
0.0
 40
0.1553
  0
LINE
  5
FB
  8
0
  6
BYBLOCK
 62
     0
 10
-0.749043
 20
1.879296
 30
0.0
 11
-0.965806
 21
2.09606
 31
0.0
  0
ARC
  5
FC
  8
0
  6
BYBLOCK
 62
     0
 10
-0.875102
 20
1.97
 30
0.0
 40
0.2
 50
90.0
 51
270.0
  0
LINE
  5
FD
  8
0
  6
BYBLOCK
 62
     0
 10
-0.784398
 20
1.84394
 30
0.0
 11
-1.001162
 21
2.060704
 31
0.0
  0
ARC
  5
FE
  8
0
  6
BYBLOCK
 62
     0
 10
-0.754988
 20
1.621885
 30
0.0
 40
0.124997
 50
285.0
 51
0.0
  0
LINE
  5
FF
  8
0
  6
BYBLOCK
 62
     0
 10
-0.629992
 20
2.32
 30
0.0
 11
-0.970002
 21
2.32
 31
0.0
  0
LINE
  5
100
  8
0
  6
BYBLOCK
 62
     0
 10
-0.722637
 20
2.439052
 30
0.0
 11
-0.970002
 21
2.58276
 31
0.0
  0
ARC
  5
101
  8
0
  6
BYBLOCK
 62
     0
 10
-0.754988
 20
2.318315
 30
0.0
 40
0.124997
 50
0.0
 51
75.0
  0
LINE
  5
102
  8
0
  6
HIDDEN
 62
     0
 10
-3.155
 20
4.68
 30
0.0
 11
-1.185
 21
4.68
 31
0.0
  0
CIRCLE
  5
103
  8
0
  6
BYBLOCK
 62
     0
 10
-1.7
 20
3.744649
 30
0.0
 40
0.235
  0
LINE
  5
104
  8
0
  6
BYBLOCK
 62
     0
 10
-3.369953
 20
4.120026
 30
0.0
 11
-0.970002
 21
4.120026
 31
0.0
  0
CIRCLE
  5
105
  8
0
  6
BYBLOCK
 62
     0
 10
-2.64
 20
3.744649
 30
0.0
 40
0.235
  0
LINE
  5
106
  8
0
  6
BYBLOCK
 62
     0
 10
-3.369953
 20
4.41
 30
0.0
 11
-3.369953
 21
4.120026
 31
0.0
  0
LINE
  5
107
  8
0
  6
BYBLOCK
 62
     0
 10
-3.199958
 20
4.41
 30
0.0
 11
-3.199958
 21
4.120026
 31
0.0
  0
CIRCLE
  5
108
  8
0
  6
HIDDEN
 62
     1
 10
-2.695
 20
5.45
 30
0.0
 40
0.215
  0
LINE
  5
109
  8
0
  6
BYBLOCK
 62
     1
 10
-2.972
 20
5.45
 30
0.0
 11
-2.418
 21
5.45
 31
0.0
  0
LINE
  5
10A
  8
0
  6
BYBLOCK
 62
     1
 10
-2.695
 20
5.727
 30
0.0
 11
-2.695
 21
5.173
 31
0.0
  0
CIRCLE
  5
10B
  8
0
  6
BYBLOCK
 62
     0
 10
-2.17
 20
5.1125
 30
0.0
 40
0.1975
  0
LINE
  5
10C
  8
0
  6
BYBLOCK
 62
     0
 10
-1.185
 20
4.41
 30
0.0
 11
-0.970002
 21
4.41
 31
0.0
  0
LINE
  5
10D
  8
0
  6
BYBLOCK
 62
     0
 10
-1.139998
 20
4.41
 30
0.0
 11
-1.139998
 21
4.120026
 31
0.0
  0
ARC
  5
10E
  8
0
  6
BYBLOCK
 62
     0
 10
-1.070002
 20
5.85
 30
0.0
 40
0.1
 50
360.0
 51
90.0
  0
LINE
  5
10F
  8
0
  6
BYBLOCK
 62
     0
 10
-1.185
 20
5.95
 30
0.0
 11
-1.070002
 21
5.95
 31
0.0
  0
LINE
  5
110
  8
0
  6
BYBLOCK
 62
     0
 10
-7.125
 20
7.08
 30
0.0
 11
-5.155
 21
7.08
 31
0.0
  0
LINE
  5
111
  8
0
  6
HIDDEN
 62
     0
 10
-5.46047
 20
6.1
 30
0.0
 11
-6.81953
 21
6.1
 31
0.0
  0
CIRCLE
  5
112
  8
0
  6
BYBLOCK
 62
     0
 10
-6.14
 20
6.365
 30
0.0
 40
0.295
  0
LINE
  5
113
  8
0
  6
BYBLOCK
 62
     0
 10
-3.155
 20
7.08
 30
0.0
 11
-1.185
 21
7.08
 31
0.0
  0
CIRCLE
  5
114
  8
0
  6
BYBLOCK
 62
     0
 10
-2.17
 20
6.365
 30
0.0
 40
0.295
  0
LINE
  5
11C
  8
0
 10
-10.2
 20
6.365
 30
0.0
 11
-10.02
 21
6.365
 31
0.0
  0
LINE
  5
11D
  8
0
 10
-10.11
 20
6.275
 30
0.0
 11
-10.11
 21
6.455
 31
0.0
  0
LINE
  5
11E
  8
0
 10
-6.23
 20
6.365
 30
0.0
 11
-6.05
 21
6.365
 31
0.0
  0
LINE
  5
11F
  8
0
 10
-6.14
 20
6.275
 30
0.0
 11
-6.14
 21
6.455
 31
0.0
  0
LINE
  5
120
  8
0
 10
-2.26
 20
6.365
 30
0.0
 11
-2.08
 21
6.365
 31
0.0
  0
LINE
  5
121
  8
0
 10
-2.17
 20
6.275
 30
0.0
 11
-2.17
 21
6.455
 31
0.0
  0
LINE
  5
122
  8
0
 10
-2.26
 20
5.1125
 30
0.0
 11
-2.08
 21
5.1125
 31
0.0
  0
LINE
  5
123
  8
0
 10
-2.17
 20
5.0225
 30
0.0
 11
-2.17
 21
5.2025
 31
0.0
  0
LINE
  5
124
  8
0
 10
-6.23
 20
5.1125
 30
0.0
 11
-6.05
 21
5.1125
 31
0.0
  0
LINE
  5
125
  8
0
 10
-6.14
 20
5.0225
 30
0.0
 11
-6.14
 21
5.2025
 31
0.0
  0
LINE
  5
126
  8
0
 10
-10.2
 20
5.1125
 30
0.0
 11
-10.02
 21
5.1125
 31
0.0
  0
LINE
  5
127
  8
0
 10
-10.11
 20
5.0225
 30
0.0
 11
-10.11
 21
5.2025
 31
0.0
  0
LINE
  5
128
  8
0
 10
-10.2
 20
-5.1125
 30
0.0
 11
-10.02
 21
-5.1125
 31
0.0
  0
LINE
  5
129
  8
0
 10
-10.11
 20
-5.2025
 30
0.0
 11
-10.11
 21
-5.0225
 31
0.0
  0
LINE
  5
12A
  8
0
 10
-10.2
 20
-6.365
 30
0.0
 11
-10.02
 21
-6.365
 31
0.0
  0
LINE
  5
12B
  8
0
 10
-10.11
 20
-6.455
 30
0.0
 11
-10.11
 21
-6.275
 31
0.0
  0
LINE
  5
12C
  8
0
 10
-6.23
 20
-5.1125
 30
0.0
 11
-6.05
 21
-5.1125
 31
0.0
  0
LINE
  5
12D
  8
0
 10
-6.14
 20
-5.2025
 30
0.0
 11
-6.14
 21
-5.0225
 31
0.0
  0
LINE
  5
12E
  8
0
 10
-6.23
 20
-6.365
 30
0.0
 11
-6.05
 21
-6.365
 31
0.0
  0
LINE
  5
12F
  8
0
 10
-6.14
 20
-6.455
 30
0.0
 11
-6.14
 21
-6.275
 31
0.0
  0
LINE
  5
130
  8
0
 10
-2.26
 20
-5.1125
 30
0.0
 11
-2.08
 21
-5.1125
 31
0.0
  0
LINE
  5
131
  8
0
 10
-2.17
 20
-5.2025
 30
0.0
 11
-2.17
 21
-5.0225
 31
0.0
  0
LINE
  5
132
  8
0
 10
-2.26
 20
-6.365
 30
0.0
 11
-2.08
 21
-6.365
 31
0.0
  0
LINE
  5
133
  8
0
 10
-2.17
 20
-6.455
 30
0.0
 11
-2.17
 21
-6.275
 31
0.0
  0
LINE
  5
22B
  8
0
  6
BYBLOCK
 62
     0
 10
7.819972
 20
7.08
 30
0.0
 11
7.509972
 21
7.08
 31
0.0
  0
LINE
  5
237
  8
0
  6
BYBLOCK
 62
     0
 10
15.339974
 20
5.95
 30
0.0
 11
15.509972
 21
5.95
 31
0.0
  0
LINE
  5
238
  8
0
  6
BYBLOCK
 62
     0
 10
14.867532
 20
5.455012
 30
0.0
 11
15.439974
 21
5.455012
 31
0.0
  0
LINE
  5
239
  8
0
  6
BYBLOCK
 62
     0
 10
15.339974
 20
5.95
 30
0.0
 11
15.339974
 21
5.455012
 31
0.0
  0
LINE
  5
23A
  8
0
  6
BYBLOCK
 62
     0
 10
14.451542
 20
5.655007
 30
0.0
 11
14.667537
 21
5.655007
 31
0.0
  0
LINE
  5
23B
  8
0
  6
BYBLOCK
 62
     0
 10
14.667537
 20
5.655007
 30
0.0
 11
14.867532
 21
5.455012
 31
0.0
  0
LINE
  5
241
  8
0
  6
BYBLOCK
 62
     0
 10
15.439974
 20
4.40022
 30
0.0
 11
15.509972
 21
4.40022
 31
0.0
  0
LINE
  5
242
  8
0
  6
BYBLOCK
 62
     0
 10
15.479972
 20
0.85009
 30
0.0
 11
15.439974
 21
0.85009
 31
0.0
  0
LINE
  5
243
  8
0
  6
BYBLOCK
 62
     0
 10
14.644998
 20
0.43
 30
0.0
 11
13.824998
 21
0.43
 31
0.0
  0
LINE
  5
244
  8
0
  6
BYBLOCK
 62
     0
 10
15.439974
 20
5.95
 30
0.0
 11
15.439974
 21
0.85009
 31
0.0
  0
LINE
  5
245
  8
0
  6
BYBLOCK
 62
     0
 10
13.16803
 20
5.95
 30
0.0
 11
13.463023
 21
5.655007
 31
0.0
  0
LINE
  5
246
  8
0
  6
BYBLOCK
 62
     0
 10
11.189968
 20
5.95
 30
0.0
 11
11.074498
 21
6.1
 31
0.0
  0
LINE
  5
247
  8
0
  6
BYBLOCK
 62
     0
 10
10.209028
 20
5.95
 30
0.0
 11
10.324498
 21
6.1
 31
0.0
  0
LINE
  5
248
  8
0
  6
BYBLOCK
 62
     0
 10
10.324498
 20
6.1
 30
0.0
 11
11.074498
 21
6.1
 31
0.0
  0
ARC
  5
249
  8
0
  6
BYBLOCK
 62
     0
 10
8.009972
 20
4.679953
 30
0.0
 40
0.19
 50
180.0
 51
225.0
  0
LINE
  5
24B
  8
0
  6
BYBLOCK
 62
     0
 10
7.875621
 20
4.545603
 30
0.0
 11
8.011224
 21
4.41
 31
0.0
  0
ARC
  5
24D
  8
0
  6
BYBLOCK
 62
     0
 10
8.009972
 20
4.679953
 30
0.0
 40
0.5
 50
180.0
 51
212.677293
  0
LINE
  5
24E
  8
0
  6
BYBLOCK
 62
     0
 10
6.230035
 20
4.41
 30
0.0
 11
5.940061
 21
4.120026
 31
0.0
  0
LINE
  5
24F
  8
0
  6
BYBLOCK
 62
     0
 10
9.030003
 20
4.41
 30
0.0
 11
6.230035
 21
4.41
 31
0.0
  0
LINE
  5
250
  8
0
  6
BYBLOCK
 62
     0
 10
9.030003
 20
5.95
 30
0.0
 11
9.030003
 21
4.41
 31
0.0
  0
LINE
  5
251
  8
0
  6
BYBLOCK
 62
     0
 10
9.465201
 20
5.200012
 30
0.0
 11
9.465201
 21
5.95
 31
0.0
  0
LINE
  5
252
  8
0
  6
BYBLOCK
 62
     0
 10
9.030003
 20
5.95
 30
0.0
 11
13.16803
 21
5.95
 31
0.0
  0
LINE
  5
253
  8
0
  6
BYBLOCK
 62
     0
 10
8.070013
 20
2.58276
 30
0.0
 11
8.070013
 21
2.32
 31
0.0
  0
LINE
  5
254
  8
0
  6
BYBLOCK
 62
     0
 10
8.070013
 20
2.17
 30
0.0
 11
8.070013
 21
1.77
 31
0.0
  0
LINE
  5
255
  8
0
  6
BYBLOCK
 62
     0
 10
7.870013
 20
2.32
 30
0.0
 11
7.870013
 21
2.17
 31
0.0
  0
LINE
  5
256
  8
0
  6
BYBLOCK
 62
     0
 10
8.070013
 20
2.58276
 30
0.0
 11
9.349998
 21
2.58276
 31
0.0
  0
LINE
  5
257
  8
0
  6
BYBLOCK
 62
     0
 10
7.570013
 20
2.32
 30
0.0
 11
7.570013
 21
2.17
 31
0.0
  0
LINE
  5
258
  8
0
  6
BYBLOCK
 62
     0
 10
9.349998
 20
2.32
 30
0.0
 11
7.570013
 21
2.32
 31
0.0
  0
LINE
  5
259
  8
0
  6
BYBLOCK
 62
     0
 10
8.070013
 20
1.62
 30
0.0
 11
8.070013
 21
1.35744
 31
0.0
  0
LINE
  5
25A
  8
0
  6
BYBLOCK
 62
     0
 10
8.070013
 20
1.35744
 30
0.0
 11
9.349998
 21
1.35744
 31
0.0
  0
LINE
  5
25B
  8
0
  6
BYBLOCK
 62
     0
 10
9.349998
 20
1.62
 30
0.0
 11
7.570013
 21
1.62
 31
0.0
  0
LINE
  5
25C
  8
0
  6
BYBLOCK
 62
     0
 10
7.570013
 20
1.77
 30
0.0
 11
7.570013
 21
1.62
 31
0.0
  0
LINE
  5
25D
  8
0
  6
BYBLOCK
 62
     0
 10
7.870013
 20
1.77
 30
0.0
 11
7.870013
 21
1.62
 31
0.0
  0
LINE
  5
25E
  8
0
  6
BYBLOCK
 62
     0
 10
9.349998
 20
5.200012
 30
0.0
 11
15.439974
 21
5.200012
 31
0.0
  0
LINE
  5
25F
  8
0
  6
BYBLOCK
 62
     0
 10
14.667537
 20
5.655007
 30
0.0
 11
13.463023
 21
5.655007
 31
0.0
  0
LINE
  5
261
  8
0
  6
BYBLOCK
 62
     0
 10
7.509972
 20
7.08
 30
0.0
 11
7.509972
 21
4.679953
 31
0.0
  0
ARC
  5
273
  8
0
  6
BYBLOCK
 62
     0
 10
5.534975
 20
3.995029
 30
0.0
 40
0.124997
 50
90.0
 51
180.0
  0
ARC
  5
274
  8
0
  6
BYBLOCK
 62
     0
 10
5.284981
 20
2.425055
 30
0.0
 40
0.124997
 50
270.0
 51
0.0
  0
ARC
  5
275
  8
0
  6
BYBLOCK
 62
     0
 10
4.154995
 20
2.175061
 30
0.0
 40
0.124997
 50
90.0
 51
180.0
  0
LINE
  5
276
  8
0
  6
BYBLOCK
 62
     0
 10
5.284981
 20
2.300058
 30
0.0
 11
4.154995
 21
2.300058
 31
0.0
  0
LINE
  5
277
  8
0
  6
BYBLOCK
 62
     0
 10
5.409978
 20
3.995029
 30
0.0
 11
5.409978
 21
2.425055
 31
0.0
  0
LINE
  5
278
  8
0
  6
BYBLOCK
 62
     0
 10
8.070013
 20
1.77
 30
0.0
 11
4.029998
 21
1.77
 31
0.0
  0
LINE
  5
279
  8
0
  6
BYBLOCK
 62
     0
 10
8.070013
 20
2.17
 30
0.0
 11
4.029998
 21
2.17
 31
0.0
  0
LINE
  5
27A
  8
0
  6
BYBLOCK
 62
     0
 10
5.940061
 20
4.120026
 30
0.0
 11
5.534975
 21
4.120026
 31
0.0
  0
LINE
  5
283
  8
0
  6
BYBLOCK
 62
     0
 10
15.479972
 20
-0.84989
 30
0.0
 11
15.439974
 21
-0.84989
 31
0.0
  0
LINE
  5
284
  8
0
  6
BYBLOCK
 62
     0
 10
15.439974
 20
-4.480003
 30
0.0
 11
15.509972
 21
-4.480003
 31
0.0
  0
LINE
  5
285
  8
0
  6
BYBLOCK
 62
     0
 10
15.509972
 20
-5.95
 30
0.0
 11
15.349974
 21
-5.95
 31
0.0
  0
LINE
  5
286
  8
0
  6
BYBLOCK
 62
     0
 10
15.349974
 20
-5.57
 30
0.0
 11
15.349974
 21
-5.95
 31
0.0
  0
LINE
  5
28C
  8
0
  6
BYBLOCK
 62
     0
 10
15.439974
 20
-0.84989
 30
0.0
 11
15.439974
 21
-5.95
 31
0.0
  0
LINE
  5
28D
  8
0
  6
BYBLOCK
 62
     0
 10
13.394998
 20
0.0
 30
0.0
 11
13.394998
 21
-0.28
 31
0.0
  0
ARC
  5
28E
  8
0
  6
BYBLOCK
 62
     0
 10
13.544998
 20
-0.28
 30
0.0
 40
0.15
 50
180.0
 51
270.0
  0
LINE
  5
28F
  8
0
  6
BYBLOCK
 62
     0
 10
8.070013
 20
-1.35724
 30
0.0
 11
8.070013
 21
-1.62
 31
0.0
  0
LINE
  5
290
  8
0
  6
BYBLOCK
 62
     0
 10
8.070013
 20
-1.35724
 30
0.0
 11
9.349998
 21
-1.35724
 31
0.0
  0
LINE
  5
291
  8
0
  6
BYBLOCK
 62
     0
 10
9.349998
 20
-1.62
 30
0.0
 11
7.570013
 21
-1.62
 31
0.0
  0
LINE
  5
292
  8
0
  6
BYBLOCK
 62
     0
 10
8.070013
 20
-1.77
 30
0.0
 11
8.070013
 21
-2.17
 31
0.0
  0
LINE
  5
293
  8
0
  6
BYBLOCK
 62
     0
 10
8.070013
 20
-2.32
 30
0.0
 11
8.070013
 21
-2.58256
 31
0.0
  0
LINE
  5
294
  8
0
  6
BYBLOCK
 62
     0
 10
7.870013
 20
-2.17
 30
0.0
 11
7.870013
 21
-2.32
 31
0.0
  0
LINE
  5
295
  8
0
  6
BYBLOCK
 62
     0
 10
8.070013
 20
-2.58256
 30
0.0
 11
9.349998
 21
-2.58256
 31
0.0
  0
LINE
  5
296
  8
0
  6
BYBLOCK
 62
     0
 10
7.570013
 20
-2.17
 30
0.0
 11
7.570013
 21
-2.32
 31
0.0
  0
LINE
  5
297
  8
0
  6
BYBLOCK
 62
     0
 10
9.349998
 20
-2.32
 30
0.0
 11
7.570013
 21
-2.32
 31
0.0
  0
LINE
  5
298
  8
0
  6
BYBLOCK
 62
     0
 10
7.570013
 20
-1.62
 30
0.0
 11
7.570013
 21
-1.77
 31
0.0
  0
LINE
  5
299
  8
0
  6
BYBLOCK
 62
     0
 10
7.870013
 20
-1.62
 30
0.0
 11
7.870013
 21
-1.77
 31
0.0
  0
LINE
  5
29A
  8
0
  6
BYBLOCK
 62
     0
 10
12.299974
 20
-5.57
 30
0.0
 11
11.222431
 21
-5.76
 31
0.0
  0
ARC
  5
29B
  8
0
  6
BYBLOCK
 62
     0
 10
8.009972
 20
-4.679953
 30
0.0
 40
0.19
 50
135.0
 51
180.0
  0
LINE
  5
29D
  8
0
  6
BYBLOCK
 62
     0
 10
7.875621
 20
-4.545603
 30
0.0
 11
8.011224
 21
-4.41
 31
0.0
  0
ARC
  5
29F
  8
0
  6
BYBLOCK
 62
     0
 10
8.009972
 20
-4.679953
 30
0.0
 40
0.5
 50
147.322707
 51
180.0
  0
LINE
  5
2A0
  8
0
  6
BYBLOCK
 62
     0
 10
6.230235
 20
-4.41
 30
0.0
 11
5.940061
 21
-4.119826
 31
0.0
  0
LINE
  5
2A1
  8
0
  6
BYBLOCK
 62
     0
 10
9.030003
 20
-4.41
 30
0.0
 11
6.230235
 21
-4.41
 31
0.0
  0
LINE
  5
2A2
  8
0
  6
BYBLOCK
 62
     0
 10
9.349998
 20
-5.76
 30
0.0
 11
9.030003
 21
-5.76
 31
0.0
  0
LINE
  5
2A3
  8
0
  6
BYBLOCK
 62
     0
 10
9.349998
 20
-6.0
 30
0.0
 11
9.030003
 21
-6.0
 31
0.0
  0
LINE
  5
2A4
  8
0
  6
BYBLOCK
 62
     0
 10
7.819972
 20
-5.929962
 30
0.0
 11
8.375049
 21
-5.929962
 31
0.0
  0
ARC
  5
2A5
  8
0
  6
BYBLOCK
 62
     0
 10
6.290024
 20
-5.709914
 30
0.0
 40
0.059999
 50
0.0
 51
90.0
  0
LINE
  5
2A6
  8
0
  6
BYBLOCK
 62
     0
 10
5.610024
 20
-5.649915
 30
0.0
 11
6.290024
 21
-5.649915
 31
0.0
  0
ARC
  5
2A7
  8
0
  6
BYBLOCK
 62
     0
 10
6.410021
 20
-5.869963
 30
0.0
 40
0.059999
 50
180.0
 51
270.0
  0
LINE
  5
2A8
  8
0
  6
BYBLOCK
 62
     0
 10
6.350023
 20
-5.709914
 30
0.0
 11
6.350023
 21
-5.869963
 31
0.0
  0
LINE
  5
2A9
  8
0
  6
BYBLOCK
 62
     0
 10
6.410021
 20
-5.929962
 30
0.0
 11
7.509972
 21
-5.929962
 31
0.0
  0
LINE
  5
2AA
  8
0
  6
BYBLOCK
 62
     0
 10
9.030003
 20
-6.0
 30
0.0
 11
9.030003
 21
-4.41
 31
0.0
  0
LINE
  5
2AB
  8
0
  6
BYBLOCK
 62
     0
 10
8.375049
 20
-4.41
 30
0.0
 11
8.375049
 21
-5.929962
 31
0.0
  0
LINE
  5
2AC
  8
0
  6
BYBLOCK
 62
     0
 10
11.222431
 20
-5.76
 30
0.0
 11
9.349998
 21
-5.76
 31
0.0
  0
LINE
  5
2AD
  8
0
  6
BYBLOCK
 62
     0
 10
15.349974
 20
-5.57
 30
0.0
 11
12.299974
 21
-5.57
 31
0.0
  0
LINE
  5
2AE
  8
0
  6
BYBLOCK
 62
     0
 10
13.544998
 20
-0.43
 30
0.0
 11
14.644998
 21
-0.43
 31
0.0
  0
LINE
  5
2B1
  8
0
  6
BYBLOCK
 62
     0
 10
7.819972
 20
-7.08
 30
0.0
 11
7.509972
 21
-7.08
 31
0.0
  0
LINE
  5
2B9
  8
0
  6
BYBLOCK
 62
     0
 10
7.509972
 20
-7.08
 30
0.0
 11
7.509972
 21
-4.7425
 31
0.0
  0
LINE
  5
2BA
  8
0
  6
BYBLOCK
 62
     0
 10
7.819972
 20
-4.679953
 30
0.0
 11
7.819972
 21
-7.08
 31
0.0
  0
LINE
  5
2BC
  8
0
  6
BYBLOCK
 62
     0
 10
7.509972
 20
-7.08
 30
0.0
 11
7.509972
 21
-4.679953
 31
0.0
  0
ARC
  5
2BE
  8
0
  6
BYBLOCK
 62
     0
 10
5.284981
 20
-2.424855
 30
0.0
 40
0.124997
 50
360.0
 51
90.0
  0
ARC
  5
2BF
  8
0
  6
BYBLOCK
 62
     0
 10
4.154995
 20
-2.174861
 30
0.0
 40
0.124997
 50
180.0
 51
270.0
  0
LINE
  5
2C0
  8
0
  6
BYBLOCK
 62
     0
 10
5.284981
 20
-2.299858
 30
0.0
 11
4.154995
 21
-2.299858
 31
0.0
  0
ARC
  5
2C1
  8
0
  6
BYBLOCK
 62
     0
 10
5.534975
 20
-3.994829
 30
0.0
 40
0.124997
 50
180.0
 51
270.0
  0
LINE
  5
2C2
  8
0
  6
BYBLOCK
 62
     0
 10
5.550026
 20
-4.119826
 30
0.0
 11
5.550026
 21
-5.589917
 31
0.0
  0
LINE
  5
2C3
  8
0
  6
BYBLOCK
 62
     0
 10
5.409978
 20
-3.994829
 30
0.0
 11
5.409978
 21
-2.424855
 31
0.0
  0
ARC
  5
2D5
  8
0
  6
BYBLOCK
 62
     0
 10
5.610024
 20
-5.589917
 30
0.0
 40
0.059999
 50
180.0
 51
270.0
  0
LINE
  5
2D6
  8
0
  6
BYBLOCK
 62
     0
 10
5.940061
 20
-4.119826
 30
0.0
 11
5.534975
 21
-4.119826
 31
0.0
  0
LINE
  5
2D7
  8
0
  6
BYBLOCK
 62
     0
 10
8.070013
 20
-2.17
 30
0.0
 11
4.029998
 21
-2.17
 31
0.0
  0
LINE
  5
2D8
  8
0
  6
BYBLOCK
 62
     0
 10
8.070013
 20
-1.77
 30
0.0
 11
4.029998
 21
-1.77
 31
0.0
  0
LINE
  5
2DB
  8
0
  6
BYBLOCK
 62
     0
 10
4.029998
 20
2.175061
 30
0.0
 11
4.029998
 21
-2.174861
 31
0.0
  0
LINE
  5
2DC
  8
0
  6
BYBLOCK
 62
     0
 10
8.490013
 20
4.41
 30
0.0
 11
8.490013
 21
-4.41
 31
0.0
  0
LINE
  5
2DD
  8
0
  6
BYBLOCK
 62
     0
 10
9.349998
 20
5.200012
 30
0.0
 11
9.349998
 21
-6.0
 31
0.0
  0
LINE
  5
2E1
  8
0
  6
BYBLOCK
 62
     0
 10
15.479972
 20
0.85009
 30
0.0
 11
15.479972
 21
-0.84989
 31
0.0
  0
ARC
  5
2E2
  8
0
  6
BYBLOCK
 62
     0
 10
13.824998
 20
0.0
 30
0.0
 40
0.43
 50
90.0
 51
180.0
  0
ARC
  5
2E3
  8
0
  6
BYBLOCK
 62
     0
 10
14.644998
 20
0.0
 30
0.0
 40
0.43
 50
270.0
 51
90.0
  0
LINE
  5
2EB
  8
0
 10
7.819972
 20
7.08
 30
0.0
 11
7.819972
 21
4.679953
 31
0.0
  0
LINE
  5
2EC
  8
0
 10
15.509972
 20
5.95
 30
0.0
 11
15.509972
 21
-5.95
 31
0.0
  0
ENDSEC
  0
EOF
