  0
SECTION
  2
HEADER
  9
$ACADVER
  1
AC1009
  9
$INSBASE
 10
0.0
 20
0.0
 30
0.0
  9
$EXTMIN
 10
-4.331528
 20
-5.08586
 30
0.0
  9
$EXTMAX
 10
18.196515
 20
5.080169
 30
0.0
  9
$LIMMIN
 10
0.0
 20
0.0
  9
$LIMMAX
 10
12.0
 20
9.0
  9
$ORTHOMODE
 70
     1
  9
$REGENMODE
 70
     1
  9
$FILLMODE
 70
     1
  9
$QTEXTMODE
 70
     0
  9
$MIRRTEXT
 70
     1
  9
$DRAGMODE
 70
     2
  9
$LTSCALE
 40
1.0
  9
$OSMODE
 70
     0
  9
$ATTMODE
 70
     1
  9
$TEXTSIZE
 40
0.2
  9
$TRACEWID
 40
0.05
  9
$TEXTSTYLE
  7
STANDARD
  9
$CLAYER
  8
0
  9
$CELTYPE
  6
BYLAYER
  9
$CECOLOR
 62
   256
  9
$DIMSCALE
 40
1.0
  9
$DIMASZ
 40
0.18
  9
$DIMEXO
 40
0.0625
  9
$DIMDLI
 40
0.38
  9
$DIMRND
 40
0.0
  9
$DIMDLE
 40
0.0
  9
$DIMEXE
 40
0.18
  9
$DIMTP
 40
0.0
  9
$DIMTM
 40
0.0
  9
$DIMTXT
 40
0.18
  9
$DIMCEN
 40
0.09
  9
$DIMTSZ
 40
0.0
  9
$DIMTOL
 70
     0
  9
$DIMLIM
 70
     0
  9
$DIMTIH
 70
     1
  9
$DIMTOH
 70
     1
  9
$DIMSE1
 70
     0
  9
$DIMSE2
 70
     0
  9
$DIMTAD
 70
     0
  9
$DIMZIN
 70
     0
  9
$DIMBLK
  1

  9
$DIMASO
 70
     1
  9
$DIMSHO
 70
     1
  9
$DIMPOST
  1

  9
$DIMAPOST
  1

  9
$DIMALT
 70
     0
  9
$DIMALTD
 70
     2
  9
$DIMALTF
 40
25.4
  9
$DIMLFAC
 40
1.0
  9
$DIMTOFL
 70
     0
  9
$DIMTVP
 40
0.0
  9
$DIMTIX
 70
     0
  9
$DIMSOXD
 70
     0
  9
$DIMSAH
 70
     0
  9
$DIMBLK1
  1

  9
$DIMBLK2
  1

  9
$DIMSTYLE
  2
STANDARD
  9
$DIMCLRD
 70
     0
  9
$DIMCLRE
 70
     0
  9
$DIMCLRT
 70
     0
  9
$DIMTFAC
 40
1.0
  9
$DIMGAP
 40
0.09
  9
$LUNITS
 70
     2
  9
$LUPREC
 70
     4
  9
$SKETCHINC
 40
0.1
  9
$FILLETRAD
 40
0.0
  9
$AUNITS
 70
     0
  9
$AUPREC
 70
     0
  9
$MENU
  1
acad
  9
$ELEVATION
 40
0.0
  9
$PELEVATION
 40
0.0
  9
$THICKNESS
 40
0.0
  9
$LIMCHECK
 70
     0
  9
$BLIPMODE
 70
     1
  9
$CHAMFERA
 40
0.0
  9
$CHAMFERB
 40
0.0
  9
$SKPOLY
 70
     0
  9
$TDCREATE
 40
2451127.564125
  9
$TDUPDATE
 40
2451129.667501
  9
$TDINDWG
 40
0.216838
  9
$TDUSRTIMER
 40
0.216838
  9
$USRTIMER
 70
     1
  9
$ANGBASE
 50
0.0
  9
$ANGDIR
 70
     0
  9
$PDMODE
 70
     0
  9
$PDSIZE
 40
0.0
  9
$PLINEWID
 40
0.0
  9
$COORDS
 70
     1
  9
$SPLFRAME
 70
     0
  9
$SPLINETYPE
 70
     6
  9
$SPLINESEGS
 70
     8
  9
$ATTDIA
 70
     0
  9
$ATTREQ
 70
     1
  9
$HANDLING
 70
     1
  9
$HANDSEED
  5
1179
  9
$SURFTAB1
 70
     6
  9
$SURFTAB2
 70
     6
  9
$SURFTYPE
 70
     6
  9
$SURFU
 70
     6
  9
$SURFV
 70
     6
  9
$UCSNAME
  2

  9
$UCSORG
 10
0.0
 20
0.0
 30
0.0
  9
$UCSXDIR
 10
1.0
 20
0.0
 30
0.0
  9
$UCSYDIR
 10
0.0
 20
1.0
 30
0.0
  9
$PUCSNAME
  2

  9
$PUCSORG
 10
0.0
 20
0.0
 30
0.0
  9
$PUCSXDIR
 10
1.0
 20
0.0
 30
0.0
  9
$PUCSYDIR
 10
0.0
 20
1.0
 30
0.0
  9
$USERI1
 70
     0
  9
$USERI2
 70
     0
  9
$USERI3
 70
     0
  9
$USERI4
 70
     0
  9
$USERI5
 70
     0
  9
$USERR1
 40
0.0
  9
$USERR2
 40
0.0
  9
$USERR3
 40
0.0
  9
$USERR4
 40
0.0
  9
$USERR5
 40
0.0
  9
$WORLDVIEW
 70
     1
  9
$SHADEDGE
 70
     3
  9
$SHADEDIF
 70
    70
  9
$TILEMODE
 70
     1
  9
$MAXACTVP
 70
    16
  9
$PLIMCHECK
 70
     0
  9
$PEXTMIN
 10
1.000000E+020
 20
1.000000E+020
 30
1.000000E+020
  9
$PEXTMAX
 10
-1.000000E+020
 20
-1.000000E+020
 30
-1.000000E+020
  9
$PLIMMIN
 10
0.0
 20
0.0
  9
$PLIMMAX
 10
12.0
 20
9.0
  9
$UNITMODE
 70
     0
  9
$VISRETAIN
 70
     0
  9
$PLINEGEN
 70
     0
  9
$PSLTSCALE
 70
     1
  0
ENDSEC
  0
SECTION
  2
TABLES
  0
TABLE
  2
VPORT
 70
     2
  0
VPORT
  2
*ACTIVE
 70
     0
 10
0.0
 20
0.0
 11
1.0
 21
1.0
 12
6.932494
 22
-0.002845
 13
0.0
 23
0.0
 14
1.0
 24
1.0
 15
0.0
 25
0.0
 16
0.0
 26
0.0
 36
1.0
 17
0.0
 27
0.0
 37
0.0
 40
14.886891
 41
1.603066
 42
50.0
 43
0.0
 44
0.0
 50
0.0
 51
0.0
 71
     0
 72
 20000
 73
     1
 74
     0
 75
     0
 76
     0
 77
     0
 78
     0
  0
ENDTAB
  0
TABLE
  2
LTYPE
 70
     2
  0
LTYPE
  2
CONTINUOUS
 70
     0
  3
Solid line
 72
    65
 73
     0
 40
0.0
  0
LTYPE
  2
HIDDEN
 70
     0
  3
__ __ __ __ __ __ __ __ __ __ __ __ __ __ __ __
 72
    65
 73
     2
 40
0.375
 49
0.25
 49
-0.125
  0
ENDTAB
  0
TABLE
  2
LAYER
 70
     1
  0
LAYER
  2
0
 70
     0
 62
     7
  6
CONTINUOUS
  0
ENDTAB
  0
TABLE
  2
STYLE
 70
     1
  0
STYLE
  2
STANDARD
 70
     0
 40
0.0
 41
1.0
 50
0.0
 71
     0
 42
0.2
  3
txt
  4

  0
ENDTAB
  0
TABLE
  2
VIEW
 70
     0
  0
ENDTAB
  0
TABLE
  2
UCS
 70
     0
  0
ENDTAB
  0
TABLE
  2
APPID
 70
     1
  0
APPID
  2
ACAD
 70
     0
  0
ENDTAB
  0
TABLE
  2
DIMSTYLE
 70
     1
  0
DIMSTYLE
  2
STANDARD
 70
     0
  3

  4

  5

  6

  7

 40
1.0
 41
0.18
 42
0.0625
 43
0.38
 44
0.18
 45
0.0
 46
0.0
 47
0.0
 48
0.0
140
0.18
141
0.09
142
0.0
143
25.4
144
1.0
145
0.0
146
1.0
147
0.09
 71
     0
 72
     0
 73
     1
 74
     1
 75
     0
 76
     0
 77
     0
 78
     0
170
     0
171
     2
172
     0
173
     0
174
     0
175
     0
176
     0
177
     0
178
     0
  0
ENDTAB
  0
ENDSEC
  0
SECTION
  2
BLOCKS
  0
BLOCK
  8
0
  2
$MODEL_SPACE
 70
     0
 10
0.0
 20
0.0
 30
0.0
  3
$MODEL_SPACE
  1

  0
ENDBLK
  5
1C
  8
0
  0
BLOCK
 67
     1
  8
0
  2
$PAPER_SPACE
 70
     0
 10
0.0
 20
0.0
 30
0.0
  3
$PAPER_SPACE
  1

  0
ENDBLK
  5
19
 67
     1
  8
0
  0
ENDSEC
  0
SECTION
  2
ENTITIES
  0
LINE
  5
BC9
  8
0
  6
BYBLOCK
 62
     0
 10
3.914902
 20
3.25
 30
0.0
 11
3.914902
 21
2.960026
 31
0.0
  0
LINE
  5
BCB
  8
0
  6
BYBLOCK
 62
     0
 10
3.929902
 20
3.25
 30
0.0
 11
4.084898
 21
3.25
 31
0.0
  0
CIRCLE
  5
BCD
  8
0
  6
BYBLOCK
 62
     0
 10
3.58
 20
2.584649
 30
0.0
 40
0.19
  0
LINE
  5
BD9
  8
0
  6
BYBLOCK
 62
     0
 10
2.134947
 20
3.25
 30
0.0
 11
2.134947
 21
2.960026
 31
0.0
  0
LINE
  5
BDA
  8
0
  6
BYBLOCK
 62
     0
 10
2.304942
 20
3.25
 30
0.0
 11
2.304942
 21
2.960026
 31
0.0
  0
LINE
  5
BDF
  8
0
  6
BYBLOCK
 62
     0
 10
0.80498
 20
3.25
 30
0.0
 11
0.80498
 21
2.960026
 31
0.0
  0
LINE
  5
BE1
  8
0
  6
BYBLOCK
 62
     0
 10
0.974976
 20
3.25
 30
0.0
 11
0.974976
 21
2.960026
 31
0.0
  0
LINE
  5
BE3
  8
0
  6
BYBLOCK
 62
     0
 10
0.80498
 20
3.25
 30
0.0
 11
2.304942
 21
3.25
 31
0.0
  0
ARC
  5
BE5
  8
0
  6
BYBLOCK
 62
     0
 10
2.00995
 20
1.247569
 30
0.0
 40
0.124997
 50
270.0
 51
0.0
  0
CIRCLE
  5
BE6
  8
0
  6
BYBLOCK
 62
     0
 10
0.47
 20
2.584649
 30
0.0
 40
0.19
  0
ARC
  5
BE7
  8
0
  6
BYBLOCK
 62
     0
 10
1.099972
 20
1.247569
 30
0.0
 40
0.124997
 50
180.0
 51
270.0
  0
LINE
  5
BE8
  8
0
  6
BYBLOCK
 62
     0
 10
2.00995
 20
1.122572
 30
0.0
 11
1.099972
 21
1.122572
 31
0.0
  0
LINE
  5
BEC
  8
0
  6
BYBLOCK
 62
     0
 10
-0.80498
 20
3.25
 30
0.0
 11
-0.80498
 21
2.960026
 31
0.0
  0
LINE
  5
BED
  8
0
  6
BYBLOCK
 62
     0
 10
-0.974976
 20
3.25
 30
0.0
 11
-0.974976
 21
2.960026
 31
0.0
  0
LINE
  5
BFA
  8
0
  6
BYBLOCK
 62
     0
 10
-2.134947
 20
3.25
 30
0.0
 11
-2.134947
 21
2.960026
 31
0.0
  0
LINE
  5
BFB
  8
0
  6
BYBLOCK
 62
     0
 10
-2.304942
 20
3.25
 30
0.0
 11
-2.304942
 21
2.960026
 31
0.0
  0
LINE
  5
BFD
  8
0
  6
BYBLOCK
 62
     0
 10
-2.322442
 20
3.25
 30
0.0
 11
-0.80498
 21
3.25
 31
0.0
  0
CIRCLE
  5
BFF
  8
0
  6
BYBLOCK
 62
     0
 10
-0.47
 20
2.584649
 30
0.0
 40
0.19
  0
ARC
  5
C00
  8
0
  6
BYBLOCK
 62
     0
 10
-1.099973
 20
1.247569
 30
0.0
 40
0.124997
 50
270.0
 51
0.0
  0
ARC
  5
C01
  8
0
  6
BYBLOCK
 62
     0
 10
-2.00995
 20
1.247569
 30
0.0
 40
0.124997
 50
180.0
 51
270.0
  0
LINE
  5
C02
  8
0
  6
BYBLOCK
 62
     0
 10
-1.099973
 20
1.122572
 30
0.0
 11
-2.00995
 21
1.122572
 31
0.0
  0
CIRCLE
  5
C03
  8
0
  6
BYBLOCK
 62
     0
 10
-1.838711
 20
2.75
 30
0.0
 40
0.151199
  0
CIRCLE
  5
C04
  8
0
  6
BYBLOCK
 62
     0
 10
-1.288711
 20
2.75
 30
0.0
 40
0.151199
  0
LINE
  5
C07
  8
0
  6
BYBLOCK
 62
     0
 10
-0.974976
 20
1.680058
 30
0.0
 11
0.974976
 21
1.680058
 31
0.0
  0
LINE
  5
C08
  8
0
  6
BYBLOCK
 62
     0
 10
-0.974976
 20
2.960026
 30
0.0
 11
0.974976
 21
2.960026
 31
0.0
  0
LINE
  5
C09
  8
0
  6
BYBLOCK
 62
     0
 10
0.75
 20
1.25
 30
0.0
 11
-0.75
 21
1.25
 31
0.0
  0
LINE
  5
C12
  8
0
  6
BYBLOCK
 62
     0
 10
2.134947
 20
2.960026
 30
0.0
 11
4.084898
 21
2.960026
 31
0.0
  0
LINE
  5
C13
  8
0
  6
BYBLOCK
 62
     0
 10
2.134947
 20
1.680058
 30
0.0
 11
4.084898
 21
1.680058
 31
0.0
  0
CIRCLE
  5
C14
  8
0
  6
BYBLOCK
 62
     0
 10
2.64
 20
2.584649
 30
0.0
 40
0.19
  0
LINE
  5
C1F
  8
0
  6
BYBLOCK
 62
     0
 10
-3.914902
 20
3.25
 30
0.0
 11
-3.914902
 21
2.960026
 31
0.0
  0
LINE
  5
C27
  8
0
  6
BYBLOCK
 62
     0
 10
-4.084898
 20
3.25
 30
0.0
 11
-4.084898
 21
2.960026
 31
0.0
  0
LINE
  5
C29
  8
0
  6
BYBLOCK
 62
     0
 10
-4.084898
 20
3.25
 30
0.0
 11
-3.897403
 21
3.25
 31
0.0
  0
CIRCLE
  5
C2A
  8
0
  6
BYBLOCK
 62
     0
 10
-3.58
 20
2.584649
 30
0.0
 40
0.19
  0
LINE
  5
C2D
  8
0
  6
BYBLOCK
 62
     0
 10
-4.084898
 20
1.680058
 30
0.0
 11
-2.134947
 21
1.680058
 31
0.0
  0
LINE
  5
C2E
  8
0
  6
BYBLOCK
 62
     0
 10
-4.084898
 20
2.960026
 30
0.0
 11
-2.134947
 21
2.960026
 31
0.0
  0
CIRCLE
  5
C2F
  8
0
  6
BYBLOCK
 62
     0
 10
-2.64
 20
2.584649
 30
0.0
 40
0.19
  0
ARC
  5
C34
  8
0
  6
BYBLOCK
 62
     0
 10
4.204962
 20
0.348315
 30
0.0
 40
0.124997
 50
0.0
 51
45.0
  0
ARC
  5
C35
  8
0
  6
BYBLOCK
 62
     0
 10
4.204962
 20
-0.348115
 30
0.0
 40
0.124997
 50
315.0
 51
0.0
  0
LINE
  5
C36
  8
0
  6
BYBLOCK
 62
     0
 10
4.329958
 20
0.348315
 30
0.0
 11
4.329958
 21
-0.348115
 31
0.0
  0
ARC
  5
C37
  8
0
  6
BYBLOCK
 62
     0
 10
4.084898
 20
0.0
 30
0.0
 40
0.2
 50
90.0
 51
270.0
  0
CIRCLE
  5
C38
  8
0
  6
BYBLOCK
 62
     0
 10
4.084898
 20
0.0
 30
0.0
 40
0.1553
  0
LINE
  5
C39
  8
0
  6
BYBLOCK
 62
     0
 10
4.175602
 20
-0.12606
 30
0.0
 11
3.958838
 21
0.090704
 31
0.0
  0
LINE
  5
C3A
  8
0
  6
BYBLOCK
 62
     0
 10
4.329958
 20
-0.2
 30
0.0
 11
4.084898
 21
-0.2
 31
0.0
  0
LINE
  5
C3B
  8
0
  6
BYBLOCK
 62
     0
 10
4.329958
 20
-0.35
 30
0.0
 11
4.084898
 21
-0.35
 31
0.0
  0
LINE
  5
C3C
  8
0
  6
BYBLOCK
 62
     0
 10
4.329958
 20
0.35
 30
0.0
 11
4.084898
 21
0.35
 31
0.0
  0
LINE
  5
C3D
  8
0
  6
BYBLOCK
 62
     0
 10
4.329958
 20
0.2
 30
0.0
 11
4.084898
 21
0.2
 31
0.0
  0
LINE
  5
C3E
  8
0
  6
BYBLOCK
 62
     0
 10
4.293348
 20
0.436701
 30
0.0
 11
4.084898
 21
0.80008
 31
0.0
  0
LINE
  5
C3F
  8
0
  6
BYBLOCK
 62
     0
 10
4.210957
 20
-0.090704
 30
0.0
 11
3.994194
 21
0.12606
 31
0.0
  0
LINE
  5
C40
  8
0
  6
BYBLOCK
 62
     0
 10
3.834898
 20
0.680058
 30
0.0
 11
3.834898
 21
-0.819942
 31
0.0
  0
LINE
  5
C41
  8
0
  6
BYBLOCK
 62
     0
 10
4.293348
 20
-0.436501
 30
0.0
 11
4.084898
 21
-0.79988
 31
0.0
  0
LINE
  5
C56
  8
0
  6
BYBLOCK
 62
     0
 10
3.914902
 20
-2.959826
 30
0.0
 11
3.914902
 21
-3.25
 31
0.0
  0
LINE
  5
C57
  8
0
  6
BYBLOCK
 62
     0
 10
4.084898
 20
-2.959826
 30
0.0
 11
4.084898
 21
-3.25
 31
0.0
  0
LINE
  5
C58
  8
0
  6
BYBLOCK
 62
     0
 10
3.897403
 20
-3.25
 30
0.0
 11
4.084898
 21
-3.25
 31
0.0
  0
LINE
  5
C5A
  8
0
  6
BYBLOCK
 62
     0
 10
3.929902
 20
-3.25
 30
0.0
 11
3.929902
 21
-3.585
 31
0.0
  0
CIRCLE
  5
C63
  8
0
  6
BYBLOCK
 62
     0
 10
3.58
 20
-2.584649
 30
0.0
 40
0.19
  0
LINE
  5
C64
  8
0
  6
BYBLOCK
 62
     0
 10
4.084898
 20
-0.2
 30
0.0
 11
4.084898
 21
-2.959826
 31
0.0
  0
ARC
  5
C65
  8
0
  6
BYBLOCK
 62
     0
 10
2.00995
 20
0.837579
 30
0.0
 40
0.124997
 50
0.0
 51
90.0
  0
ARC
  5
C66
  8
0
  6
BYBLOCK
 62
     0
 10
1.099973
 20
0.837579
 30
0.0
 40
0.124997
 50
90.0
 51
180.0
  0
LINE
  5
C67
  8
0
  6
BYBLOCK
 62
     0
 10
2.00995
 20
0.962576
 30
0.0
 11
1.099973
 21
0.962576
 31
0.0
  0
ARC
  5
C68
  8
0
  6
BYBLOCK
 62
     0
 10
2.00995
 20
-1.247369
 30
0.0
 40
0.124997
 50
0.0
 51
90.0
  0
ARC
  5
C69
  8
0
  6
BYBLOCK
 62
     0
 10
2.00995
 20
-0.837379
 30
0.0
 40
0.124997
 50
270.0
 51
0.0
  0
ARC
  5
C6A
  8
0
  6
BYBLOCK
 62
     0
 10
1.099973
 20
-1.247369
 30
0.0
 40
0.124997
 50
90.0
 51
180.0
  0
ARC
  5
C6B
  8
0
  6
BYBLOCK
 62
     0
 10
1.099972
 20
-0.837379
 30
0.0
 40
0.124997
 50
180.0
 51
270.0
  0
LINE
  5
C6C
  8
0
  6
BYBLOCK
 62
     0
 10
2.00995
 20
-1.122372
 30
0.0
 11
1.099973
 21
-1.122372
 31
0.0
  0
LINE
  5
C6D
  8
0
  6
BYBLOCK
 62
     0
 10
2.00995
 20
-0.962376
 30
0.0
 11
1.099972
 21
-0.962376
 31
0.0
  0
LINE
  5
C6E
  8
0
  6
BYBLOCK
 62
     0
 10
2.434898
 20
0.680058
 30
0.0
 11
2.434898
 21
-0.819942
 31
0.0
  0
ARC
  5
C6F
  8
0
  6
BYBLOCK
 62
     0
 10
-1.099973
 20
0.837579
 30
0.0
 40
0.124997
 50
0.0
 51
90.0
  0
ARC
  5
C70
  8
0
  6
BYBLOCK
 62
     0
 10
-2.00995
 20
0.837579
 30
0.0
 40
0.124997
 50
90.0
 51
180.0
  0
LINE
  5
C71
  8
0
  6
BYBLOCK
 62
     0
 10
-1.099973
 20
0.962576
 30
0.0
 11
-2.00995
 21
0.962576
 31
0.0
  0
ARC
  5
C72
  8
0
  6
BYBLOCK
 62
     0
 10
-1.099973
 20
-1.247369
 30
0.0
 40
0.124997
 50
0.0
 51
90.0
  0
ARC
  5
C73
  8
0
  6
BYBLOCK
 62
     0
 10
-1.099973
 20
-0.837379
 30
0.0
 40
0.124997
 50
270.0
 51
0.0
  0
ARC
  5
C75
  8
0
  6
BYBLOCK
 62
     0
 10
-2.00995
 20
-1.247369
 30
0.0
 40
0.124997
 50
90.0
 51
180.0
  0
ARC
  5
C76
  8
0
  6
BYBLOCK
 62
     0
 10
-2.00995
 20
-0.837379
 30
0.0
 40
0.124997
 50
180.0
 51
270.0
  0
LINE
  5
C7A
  8
0
  6
BYBLOCK
 62
     0
 10
-1.099973
 20
-0.962376
 30
0.0
 11
-2.00995
 21
-0.962376
 31
0.0
  0
LINE
  5
C7C
  8
0
  6
BYBLOCK
 62
     0
 10
-1.099973
 20
-1.122372
 30
0.0
 11
-2.00995
 21
-1.122372
 31
0.0
  0
LINE
  5
C7E
  8
0
  6
BYBLOCK
 62
     0
 10
-2.254898
 20
0.680058
 30
0.0
 11
-2.254898
 21
-0.949942
 31
0.0
  0
LINE
  5
C7F
  8
0
  6
BYBLOCK
 62
     0
 10
-0.974976
 20
-1.679858
 30
0.0
 11
0.974976
 21
-1.679858
 31
0.0
  0
LINE
  5
C80
  8
0
  6
BYBLOCK
 62
     0
 10
-0.75
 20
-1.25
 30
0.0
 11
0.75
 21
-1.25
 31
0.0
  0
LINE
  5
C81
  8
0
  6
BYBLOCK
 62
     0
 10
2.134947
 20
-3.25
 30
0.0
 11
2.322442
 21
-3.25
 31
0.0
  0
LINE
  5
C82
  8
0
  6
BYBLOCK
 62
     0
 10
2.134947
 20
-2.959826
 30
0.0
 11
2.134947
 21
-3.25
 31
0.0
  0
LINE
  5
C83
  8
0
  6
BYBLOCK
 62
     0
 10
2.304942
 20
-2.959826
 30
0.0
 11
2.304942
 21
-3.25
 31
0.0
  0
LINE
  5
C88
  8
0
  6
BYBLOCK
 62
     0
 10
0.795
 20
-3.25
 30
0.0
 11
0.974976
 21
-3.25
 31
0.0
  0
LINE
  5
C89
  8
0
  6
BYBLOCK
 62
     0
 10
0.80498
 20
-2.959826
 30
0.0
 11
0.80498
 21
-3.25
 31
0.0
  0
LINE
  5
C8A
  8
0
  6
BYBLOCK
 62
     0
 10
0.974976
 20
-2.959826
 30
0.0
 11
0.974976
 21
-3.25
 31
0.0
  0
LINE
  5
CA6
  8
0
  6
BYBLOCK
 62
     0
 10
-0.974976
 20
-2.959826
 30
0.0
 11
-0.974976
 21
-3.25
 31
0.0
  0
LINE
  5
CA7
  8
0
  6
BYBLOCK
 62
     0
 10
-0.80498
 20
-2.959826
 30
0.0
 11
-0.80498
 21
-3.25
 31
0.0
  0
LINE
  5
CA8
  8
0
  6
BYBLOCK
 62
     0
 10
-0.974976
 20
-3.25
 30
0.0
 11
-0.795
 21
-3.25
 31
0.0
  0
LINE
  5
CAC
  8
0
  6
BYBLOCK
 62
     0
 10
-2.304942
 20
-2.959826
 30
0.0
 11
-2.304942
 21
-3.25
 31
0.0
  0
LINE
  5
CAD
  8
0
  6
BYBLOCK
 62
     0
 10
-2.134947
 20
-2.959826
 30
0.0
 11
-2.134947
 21
-3.25
 31
0.0
  0
LINE
  5
CAE
  8
0
  6
BYBLOCK
 62
     0
 10
-2.322442
 20
-3.25
 30
0.0
 11
-2.134947
 21
-3.25
 31
0.0
  0
LINE
  5
CDE
  8
0
  6
BYBLOCK
 62
     0
 10
-0.974976
 20
-2.959826
 30
0.0
 11
0.974976
 21
-2.959826
 31
0.0
  0
CIRCLE
  5
CE3
  8
0
  6
BYBLOCK
 62
     0
 10
-0.47
 20
-2.584649
 30
0.0
 40
0.19
  0
CIRCLE
  5
CE5
  8
0
  6
BYBLOCK
 62
     0
 10
0.47
 20
-2.584649
 30
0.0
 40
0.19
  0
LINE
  5
CF1
  8
0
  6
BYBLOCK
 62
     0
 10
2.134947
 20
-2.959826
 30
0.0
 11
4.084898
 21
-2.959826
 31
0.0
  0
LINE
  5
CF2
  8
0
  6
BYBLOCK
 62
     0
 10
2.134947
 20
-1.679858
 30
0.0
 11
4.084898
 21
-1.679858
 31
0.0
  0
LINE
  5
CF4
  8
0
  6
BYBLOCK
 62
     0
 10
3.834898
 20
-0.819942
 30
0.0
 11
2.434898
 21
-0.819942
 31
0.0
  0
LINE
  5
CF5
  8
0
  6
BYBLOCK
 62
     0
 10
3.834898
 20
0.680058
 30
0.0
 11
2.434898
 21
0.680058
 31
0.0
  0
CIRCLE
  5
CF6
  8
0
  6
BYBLOCK
 62
     0
 10
2.64
 20
-2.584649
 30
0.0
 40
0.19
  0
LINE
  5
D3A
  8
0
  6
BYBLOCK
 62
     0
 10
-4.329958
 20
0.2
 30
0.0
 11
-4.084898
 21
0.2
 31
0.0
  0
LINE
  5
D3B
  8
0
  6
BYBLOCK
 62
     0
 10
-4.329958
 20
0.35
 30
0.0
 11
-4.084898
 21
0.35
 31
0.0
  0
ARC
  5
D3C
  8
0
  6
BYBLOCK
 62
     0
 10
-4.204962
 20
0.348315
 30
0.0
 40
0.124997
 50
135.0
 51
180.0
  0
LINE
  5
D3D
  8
0
  6
BYBLOCK
 62
     0
 10
-4.293348
 20
0.436701
 30
0.0
 11
-4.084898
 21
0.80008
 31
0.0
  0
LINE
  5
D3E
  8
0
  6
BYBLOCK
 62
     0
 10
-4.175602
 20
-0.12606
 30
0.0
 11
-3.958838
 21
0.090704
 31
0.0
  0
ARC
  5
D3F
  8
0
  6
BYBLOCK
 62
     0
 10
-4.204962
 20
-0.348115
 30
0.0
 40
0.124997
 50
180.0
 51
225.0
  0
LINE
  5
D40
  8
0
  6
BYBLOCK
 62
     0
 10
-4.329958
 20
-0.2
 30
0.0
 11
-4.084898
 21
-0.2
 31
0.0
  0
LINE
  5
D41
  8
0
  6
BYBLOCK
 62
     0
 10
-4.329958
 20
-0.35
 30
0.0
 11
-4.084898
 21
-0.35
 31
0.0
  0
LINE
  5
D42
  8
0
  6
BYBLOCK
 62
     0
 10
-4.210957
 20
-0.090704
 30
0.0
 11
-3.994194
 21
0.12606
 31
0.0
  0
LINE
  5
D43
  8
0
  6
BYBLOCK
 62
     0
 10
-4.329958
 20
0.348315
 30
0.0
 11
-4.329958
 21
-0.348115
 31
0.0
  0
CIRCLE
  5
D44
  8
0
  6
BYBLOCK
 62
     0
 10
-4.084898
 20
0.0
 30
0.0
 40
0.1553
  0
ARC
  5
D45
  8
0
  6
BYBLOCK
 62
     0
 10
-4.084898
 20
0.0
 30
0.0
 40
0.2
 50
270.0
 51
90.0
  0
LINE
  5
D46
  8
0
  6
BYBLOCK
 62
     0
 10
-3.884898
 20
0.680058
 30
0.0
 11
-3.884898
 21
-0.949942
 31
0.0
  0
LINE
  5
D47
  8
0
  6
BYBLOCK
 62
     0
 10
-4.293348
 20
-0.436501
 30
0.0
 11
-4.084898
 21
-0.79988
 31
0.0
  0
LINE
  5
D48
  8
0
  6
BYBLOCK
 62
     0
 10
-3.914902
 20
-2.959826
 30
0.0
 11
-3.914902
 21
-3.25
 31
0.0
  0
LINE
  5
D4B
  8
0
  6
BYBLOCK
 62
     0
 10
-4.084898
 20
-2.959826
 30
0.0
 11
-4.084898
 21
-3.25
 31
0.0
  0
LINE
  5
D4C
  8
0
  6
BYBLOCK
 62
     0
 10
-3.929902
 20
-3.25
 30
0.0
 11
-3.929902
 21
-3.585
 31
0.0
  0
LINE
  5
D4D
  8
0
  6
BYBLOCK
 62
     0
 10
-4.084898
 20
-3.25
 30
0.0
 11
-3.897403
 21
-3.25
 31
0.0
  0
LINE
  5
D62
  8
0
  6
BYBLOCK
 62
     0
 10
-4.084898
 20
-0.2
 30
0.0
 11
-4.084898
 21
-2.959826
 31
0.0
  0
CIRCLE
  5
D63
  8
0
  6
BYBLOCK
 62
     0
 10
-3.58
 20
-2.584649
 30
0.0
 40
0.19
  0
LINE
  5
D7B
  8
0
  6
BYBLOCK
 62
     0
 10
-4.084898
 20
-2.959826
 30
0.0
 11
-2.134947
 21
-2.959826
 31
0.0
  0
CIRCLE
  5
D7D
  8
0
  6
BYBLOCK
 62
     0
 10
-2.64
 20
-2.584649
 30
0.0
 40
0.19
  0
LINE
  5
D7E
  8
0
  6
BYBLOCK
 62
     0
 10
-3.884898
 20
-0.949942
 30
0.0
 11
-2.254898
 21
-0.949942
 31
0.0
  0
LINE
  5
D7F
  8
0
  6
BYBLOCK
 62
     0
 10
-4.084898
 20
-1.679858
 30
0.0
 11
-2.134947
 21
-1.679858
 31
0.0
  0
LINE
  5
D80
  8
0
  6
BYBLOCK
 62
     0
 10
-3.884898
 20
0.680058
 30
0.0
 11
-2.254898
 21
0.680058
 31
0.0
  0
LINE
  5
D97
  8
0
  6
BYBLOCK
 62
     0
 10
-2.134947
 20
2.960026
 30
0.0
 11
-2.134947
 21
-2.959826
 31
0.0
  0
LINE
  5
D98
  8
0
  6
BYBLOCK
 62
     0
 10
-4.084898
 20
2.960026
 30
0.0
 11
-4.084898
 21
0.2
 31
0.0
  0
LINE
  5
D99
  8
0
  6
BYBLOCK
 62
     0
 10
-0.75
 20
1.25
 30
0.0
 11
-0.75
 21
-1.25
 31
0.0
  0
LINE
  5
D9A
  8
0
  6
BYBLOCK
 62
     0
 10
0.75
 20
-1.25
 30
0.0
 11
0.75
 21
1.25
 31
0.0
  0
LINE
  5
D9B
  8
0
  6
BYBLOCK
 62
     0
 10
0.974976
 20
2.960026
 30
0.0
 11
0.974976
 21
-2.959826
 31
0.0
  0
LINE
  5
D9C
  8
0
  6
BYBLOCK
 62
     0
 10
2.134947
 20
2.960026
 30
0.0
 11
2.134947
 21
-2.959826
 31
0.0
  0
LINE
  5
D9D
  8
0
  6
BYBLOCK
 62
     0
 10
-0.974976
 20
2.960026
 30
0.0
 11
-0.974976
 21
-2.959826
 31
0.0
  0
LINE
  5
D9E
  8
0
  6
BYBLOCK
 62
     0
 10
4.084898
 20
3.25
 30
0.0
 11
4.084898
 21
0.2
 31
0.0
  0
LINE
  5
DCB
  8
0
  6
BYBLOCK
 62
     0
 10
2.315
 20
-2.959826
 30
0.0
 11
2.315
 21
-5.08
 31
0.0
  0
LINE
  5
DCC
  8
0
  6
BYBLOCK
 62
     0
 10
0.795
 20
-2.959826
 30
0.0
 11
0.795
 21
-5.08
 31
0.0
  0
LINE
  5
DCD
  8
0
  6
BYBLOCK
 62
     0
 10
3.905
 20
-2.959826
 30
0.0
 11
3.905
 21
-5.08
 31
0.0
  0
LINE
  5
DCE
  8
0
  6
BYBLOCK
 62
     0
 10
-2.315
 20
-2.959826
 30
0.0
 11
-2.315
 21
-5.08
 31
0.0
  0
LINE
  5
DCF
  8
0
  6
BYBLOCK
 62
     0
 10
-3.905
 20
-2.959826
 30
0.0
 11
-3.905
 21
-5.08
 31
0.0
  0
LINE
  5
DD0
  8
0
  6
BYBLOCK
 62
     0
 10
-1.084932
 20
-1.89982
 30
0.0
 11
-1.084932
 21
-4.549862
 31
0.0
  0
LINE
  5
DD1
  8
0
  6
BYBLOCK
 62
     0
 10
-2.024908
 20
-1.89982
 30
0.0
 11
-2.024908
 21
-4.549862
 31
0.0
  0
LINE
  5
DD2
  8
0
  6
BYBLOCK
 62
     0
 10
-0.795
 20
-2.959826
 30
0.0
 11
-0.795
 21
-5.08
 31
0.0
  0
LINE
  5
DD4
  8
0
  6
HIDDEN
 62
     0
 10
-3.929902
 20
-4.6
 30
0.0
 11
-2.342
 21
-4.6
 31
0.0
  0
LINE
  5
DD5
  8
0
  6
BYBLOCK
 62
     0
 10
-3.905
 20
-5.08
 30
0.0
 11
-2.315
 21
-5.08
 31
0.0
  0
LINE
  5
DD6
  8
0
  6
BYBLOCK
 62
     0
 10
-3.929902
 20
-3.25
 30
0.0
 11
-3.929902
 21
-4.6
 31
0.0
  0
LINE
  5
DD7
  8
0
  6
HIDDEN
 62
     0
 10
2.341941
 20
-4.6
 30
0.0
 11
3.905
 21
-4.6
 31
0.0
  0
LINE
  5
DD8
  8
0
  6
BYBLOCK
 62
     0
 10
2.315
 20
-5.08
 30
0.0
 11
3.905
 21
-5.08
 31
0.0
  0
CIRCLE
  5
DD9
  8
0
 10
0.0
 20
-4.525
 30
0.0
 40
0.246063
  0
LINE
  5
DDA
  8
0
  6
HIDDEN
 62
     0
 10
-1.988
 20
-4.6
 30
0.0
 11
1.98795
 21
-4.6
 31
0.0
  0
LINE
  5
DDB
  8
0
  6
BYBLOCK
 62
     0
 10
-0.795
 20
-5.08
 30
0.0
 11
0.795
 21
-5.08
 31
0.0
  0
LINE
  5
DDC
  8
0
  6
BYBLOCK
 62
     0
 10
-1.187646
 20
-5.06
 30
0.0
 11
-0.786941
 21
-4.6
 31
0.0
  0
LINE
  5
DDD
  8
0
  6
BYBLOCK
 62
     0
 10
-1.922277
 20
-5.06
 30
0.0
 11
-2.322981
 21
-4.6
 31
0.0
  0
LINE
  5
DDE
  8
0
  6
BYBLOCK
 62
     0
 10
-1.922277
 20
-5.06
 30
0.0
 11
-1.187646
 21
-5.06
 31
0.0
  0
CIRCLE
  5
DDF
  8
0
  6
BYBLOCK
 62
     0
 10
-1.791824
 20
-4.246579
 30
0.0
 40
0.139997
  0
LINE
  5
DE0
  8
0
  6
BYBLOCK
 62
     0
 10
-1.084932
 20
-4.549862
 30
0.0
 11
-2.024908
 21
-4.549862
 31
0.0
  0
CIRCLE
  5
DE1
  8
0
 10
-3.11
 20
-4.525
 30
0.0
 40
0.246063
  0
CIRCLE
  5
DE2
  8
0
 62
     1
 10
-2.163604
 20
-4.331969
 30
0.0
 40
0.177165
  0
CIRCLE
  5
DE3
  8
0
  6
BYBLOCK
 62
     0
 10
-1.318016
 20
-4.246579
 30
0.0
 40
0.139997
  0
LINE
  5
DE4
  8
0
  6
BYBLOCK
 62
     0
 10
1.922277
 20
-5.06
 30
0.0
 11
2.322981
 21
-4.6
 31
0.0
  0
LINE
  5
DE5
  8
0
  6
BYBLOCK
 62
     0
 10
1.187646
 20
-5.06
 30
0.0
 11
0.786941
 21
-4.6
 31
0.0
  0
LINE
  5
DE6
  8
0
  6
BYBLOCK
 62
     0
 10
1.187646
 20
-5.06
 30
0.0
 11
1.922277
 21
-5.06
 31
0.0
  0
LINE
  5
DE7
  8
0
  6
BYBLOCK
 62
     0
 10
0.795
 20
-4.9255
 30
0.0
 11
1.070483
 21
-4.9255
 31
0.0
  0
LINE
  5
DE8
  8
0
  6
BYBLOCK
 62
     0
 10
2.039439
 20
-4.9255
 30
0.0
 11
2.315
 21
-4.9255
 31
0.0
  0
CIRCLE
  5
DE9
  8
0
 62
     1
 10
2.167105
 20
-4.331969
 30
0.0
 40
0.177165
  0
CIRCLE
  5
DEA
  8
0
 10
3.11
 20
-4.525
 30
0.0
 40
0.246063
  0
LINE
  5
DEB
  8
0
  6
BYBLOCK
 62
     0
 10
3.929902
 20
-3.25
 30
0.0
 11
3.929902
 21
-4.6
 31
0.0
  0
LINE
  5
DEC
  8
0
  6
BYBLOCK
 62
     0
 10
3.905
 20
-4.6
 30
0.0
 11
3.929902
 21
-4.6
 31
0.0
  0
LINE
  5
DED
  8
0
  6
BYBLOCK
 62
     0
 10
-1.390122
 20
-2.853581
 30
0.0
 11
-1.390122
 21
-3.566029
 31
0.0
  0
LINE
  5
DEE
  8
0
  6
BYBLOCK
 62
     0
 10
-1.730099
 20
-2.853581
 30
0.0
 11
-1.730099
 21
-3.566029
 31
0.0
  0
LINE
  5
DEF
  8
0
  6
BYBLOCK
 62
     0
 10
-1.390122
 20
-3.566029
 30
0.0
 11
-1.730099
 21
-3.566029
 31
0.0
  0
CIRCLE
  5
DF0
  8
0
  6
BYBLOCK
 62
     0
 10
-1.791824
 20
-3.894824
 30
0.0
 40
0.139997
  0
LINE
  5
DF1
  8
0
  6
BYBLOCK
 62
     0
 10
-1.457975
 20
-4.249815
 30
0.0
 11
-1.651865
 21
-4.249815
 31
0.0
  0
LINE
  5
DF2
  8
0
  6
BYBLOCK
 62
     0
 10
-1.084932
 20
-4.249815
 30
0.0
 11
-1.178057
 21
-4.249815
 31
0.0
  0
CIRCLE
  5
DF3
  8
0
  6
BYBLOCK
 62
     0
 10
-1.318016
 20
-3.894824
 30
0.0
 40
0.139997
  0
LINE
  5
DF4
  8
0
  6
BYBLOCK
 62
     0
 10
-1.390122
 20
-2.853581
 30
0.0
 11
-1.730099
 21
-2.853581
 31
0.0
  0
CIRCLE
  5
DF5
  8
0
  6
BYBLOCK
 62
     0
 10
-1.791824
 20
-2.554858
 30
0.0
 40
0.139997
  0
CIRCLE
  5
DF6
  8
0
  6
BYBLOCK
 62
     0
 10
-1.791824
 20
-2.203102
 30
0.0
 40
0.139997
  0
LINE
  5
DF7
  8
0
  6
BYBLOCK
 62
     0
 10
-1.084932
 20
-1.89982
 30
0.0
 11
-2.024908
 21
-1.89982
 31
0.0
  0
LINE
  5
DF8
  8
0
  6
BYBLOCK
 62
     0
 10
-1.931783
 20
-2.199866
 30
0.0
 11
-2.024908
 21
-2.199866
 31
0.0
  0
CIRCLE
  5
DF9
  8
0
  6
BYBLOCK
 62
     0
 10
-1.318016
 20
-2.203102
 30
0.0
 40
0.139997
  0
CIRCLE
  5
DFA
  8
0
  6
BYBLOCK
 62
     0
 10
-1.318016
 20
-2.554858
 30
0.0
 40
0.139997
  0
LINE
  5
DFB
  8
0
  6
BYBLOCK
 62
     0
 10
-1.457975
 20
-2.199866
 30
0.0
 11
-1.651865
 21
-2.199866
 31
0.0
  0
LINE
  5
DFC
  8
0
  6
BYBLOCK
 62
     0
 10
-1.084932
 20
-2.199866
 30
0.0
 11
-1.178057
 21
-2.199866
 31
0.0
  0
LINE
  5
DFD
  8
0
  6
BYBLOCK
 62
     0
 10
-3.905
 20
5.08
 30
0.0
 11
-2.315
 21
5.08
 31
0.0
  0
CIRCLE
  5
DFE
  8
0
 10
3.11175
 20
4.525
 30
0.0
 40
0.246063
  0
CIRCLE
  5
DFF
  8
0
 10
0.00175
 20
4.525
 30
0.0
 40
0.246063
  0
CIRCLE
  5
E00
  8
0
 10
-3.10825
 20
4.525
 30
0.0
 40
0.246063
  0
LINE
  5
E01
  8
0
  6
BYBLOCK
 62
     0
 10
3.929902
 20
4.6
 30
0.0
 11
3.929902
 21
3.25
 31
0.0
  0
LINE
  5
E02
  8
0
  6
BYBLOCK
 62
     0
 10
0.795
 20
2.959826
 30
0.0
 11
0.795
 21
5.08
 31
0.0
  0
LINE
  5
E03
  8
0
  6
BYBLOCK
 62
     0
 10
2.315
 20
2.959826
 30
0.0
 11
2.315
 21
5.08
 31
0.0
  0
LINE
  5
E04
  8
0
  6
BYBLOCK
 62
     0
 10
3.905
 20
2.959826
 30
0.0
 11
3.905
 21
5.08
 31
0.0
  0
LINE
  5
E05
  8
0
  6
BYBLOCK
 62
     0
 10
-2.315
 20
2.959826
 30
0.0
 11
-2.315
 21
5.08
 31
0.0
  0
LINE
  5
E06
  8
0
  6
BYBLOCK
 62
     0
 10
-0.795
 20
2.959826
 30
0.0
 11
-0.795
 21
5.08
 31
0.0
  0
CIRCLE
  5
E07
  8
0
 62
     1
 10
-2.163604
 20
4.329449
 30
0.0
 40
0.177165
  0
CIRCLE
  5
E08
  8
0
 62
     1
 10
2.167105
 20
4.329449
 30
0.0
 40
0.177165
  0
LINE
  5
E09
  8
0
  6
BYBLOCK
 62
     0
 10
2.315
 20
5.08
 30
0.0
 11
3.905
 21
5.08
 31
0.0
  0
LINE
  5
E0A
  8
0
  6
HIDDEN
 62
     0
 10
0.67953
 20
4.8
 30
0.0
 11
-0.67953
 21
4.8
 31
0.0
  0
LINE
  5
E0B
  8
0
  6
BYBLOCK
 62
     0
 10
-0.795
 20
5.08
 30
0.0
 11
0.795
 21
5.08
 31
0.0
  0
LINE
  5
E0C
  8
0
  6
BYBLOCK
 62
     0
 10
-2.315
 20
4.6
 30
0.0
 11
-0.795
 21
4.6
 31
0.0
  0
LINE
  5
E0D
  8
0
  6
HIDDEN
 62
     0
 10
-0.795
 20
4.6
 30
0.0
 11
-0.67953
 21
4.8
 31
0.0
  0
LINE
  5
E0E
  8
0
  6
BYBLOCK
 62
     0
 10
0.795
 20
4.6
 30
0.0
 11
2.315
 21
4.6
 31
0.0
  0
LINE
  5
E0F
  8
0
  6
HIDDEN
 62
     0
 10
0.795
 20
4.6
 30
0.0
 11
0.67953
 21
4.8
 31
0.0
  0
LINE
  5
E10
  8
0
  6
BYBLOCK
 62
     0
 10
3.905
 20
4.6
 30
0.0
 11
3.929902
 21
4.6
 31
0.0
  0
LINE
  5
E11
  8
0
  6
BYBLOCK
 62
     0
 10
-3.905
 20
2.959826
 30
0.0
 11
-3.905
 21
5.08
 31
0.0
  0
LINE
  5
E12
  8
0
  6
BYBLOCK
 62
     0
 10
-3.929902
 20
4.6
 30
0.0
 11
-3.929902
 21
3.25
 31
0.0
  0
LINE
  5
E13
  8
0
  6
BYBLOCK
 62
     0
 10
-3.929902
 20
4.6
 30
0.0
 11
-3.905
 21
4.6
 31
0.0
  0
LINE
  5
EB0
  8
0
 10
-3.19825
 20
4.525
 30
0.0
 11
-3.01825
 21
4.525
 31
0.0
  0
LINE
  5
EB1
  8
0
 10
-3.10825
 20
4.435
 30
0.0
 11
-3.10825
 21
4.615
 31
0.0
  0
LINE
  5
EB2
  8
0
 10
-2.253604
 20
4.329449
 30
0.0
 11
-2.073604
 21
4.329449
 31
0.0
  0
LINE
  5
EB3
  8
0
 10
-2.163604
 20
4.239449
 30
0.0
 11
-2.163604
 21
4.419449
 31
0.0
  0
LINE
  5
EB4
  8
0
 10
-0.08825
 20
4.525
 30
0.0
 11
0.09175
 21
4.525
 31
0.0
  0
LINE
  5
EB5
  8
0
 10
0.00175
 20
4.435
 30
0.0
 11
0.00175
 21
4.615
 31
0.0
  0
LINE
  5
EB6
  8
0
 10
2.077105
 20
4.329449
 30
0.0
 11
2.257105
 21
4.329449
 31
0.0
  0
LINE
  5
EB7
  8
0
 10
2.167105
 20
4.239449
 30
0.0
 11
2.167105
 21
4.419449
 31
0.0
  0
LINE
  5
EB8
  8
0
 10
3.02175
 20
4.525
 30
0.0
 11
3.20175
 21
4.525
 31
0.0
  0
LINE
  5
EB9
  8
0
 10
3.11175
 20
4.435
 30
0.0
 11
3.11175
 21
4.615
 31
0.0
  0
LINE
  5
EBA
  8
0
 10
3.02
 20
-4.525
 30
0.0
 11
3.2
 21
-4.525
 31
0.0
  0
LINE
  5
EBB
  8
0
 10
3.11
 20
-4.615
 30
0.0
 11
3.11
 21
-4.435
 31
0.0
  0
LINE
  5
EBC
  8
0
 10
2.077105
 20
-4.331969
 30
0.0
 11
2.257105
 21
-4.331969
 31
0.0
  0
LINE
  5
EBD
  8
0
 10
2.167105
 20
-4.421969
 30
0.0
 11
2.167105
 21
-4.241969
 31
0.0
  0
LINE
  5
EBE
  8
0
 10
-0.09
 20
-4.525
 30
0.0
 11
0.09
 21
-4.525
 31
0.0
  0
LINE
  5
EBF
  8
0
 10
0.0
 20
-4.615
 30
0.0
 11
0.0
 21
-4.435
 31
0.0
  0
LINE
  5
EC0
  8
0
 10
-2.253604
 20
-4.331969
 30
0.0
 11
-2.073604
 21
-4.331969
 31
0.0
  0
LINE
  5
EC1
  8
0
 10
-2.163604
 20
-4.421969
 30
0.0
 11
-2.163604
 21
-4.241969
 31
0.0
  0
LINE
  5
EC2
  8
0
 10
-3.2
 20
-4.525
 30
0.0
 11
-3.02
 21
-4.525
 31
0.0
  0
LINE
  5
EC3
  8
0
 10
-3.11
 20
-4.615
 30
0.0
 11
-3.11
 21
-4.435
 31
0.0
  0
LINE
  5
1019
  8
0
  6
BYBLOCK
 62
     0
 10
17.896774
 20
3.80502
 30
0.0
 11
17.969772
 21
3.80502
 31
0.0
  0
LINE
  5
101A
  8
0
  6
BYBLOCK
 62
     0
 10
17.796774
 20
4.6
 30
0.0
 11
17.969772
 21
4.6
 31
0.0
  0
LINE
  5
101B
  8
0
  6
BYBLOCK
 62
     0
 10
17.796774
 20
4.6
 30
0.0
 11
17.796774
 21
4.105012
 31
0.0
  0
LINE
  5
101C
  8
0
  6
BYBLOCK
 62
     0
 10
17.969772
 20
4.6
 30
0.0
 11
17.969772
 21
3.80502
 31
0.0
  0
LINE
  5
101D
  8
0
  6
BYBLOCK
 62
     0
 10
18.195139
 20
4.322
 30
0.0
 11
17.472055
 21
4.322
 31
0.0
  0
LINE
  5
101E
  8
0
  6
BYBLOCK
 62
     0
 10
17.124337
 20
4.305007
 30
0.0
 11
17.324332
 21
4.105012
 31
0.0
  0
LINE
  5
101F
  8
0
  6
BYBLOCK
 62
     0
 10
16.908342
 20
4.305007
 30
0.0
 11
17.124337
 21
4.305007
 31
0.0
  0
LINE
  5
1020
  8
0
  6
BYBLOCK
 62
     0
 10
17.324332
 20
4.105012
 30
0.0
 11
17.324332
 21
3.930017
 31
0.0
  0
LINE
  5
1021
  8
0
  6
BYBLOCK
 62
     0
 10
17.124337
 20
4.305007
 30
0.0
 11
15.919823
 21
4.305007
 31
0.0
  0
LINE
  5
1022
  8
0
  6
BYBLOCK
 62
     0
 10
14.419824
 20
4.105012
 30
0.0
 11
14.980705
 21
3.930017
 31
0.0
  0
LINE
  5
1023
  8
0
  6
BYBLOCK
 62
     0
 10
17.324332
 20
3.930017
 30
0.0
 11
14.980705
 21
3.930017
 31
0.0
  0
LINE
  5
1024
  8
0
  6
BYBLOCK
 62
     0
 10
15.62483
 20
4.6
 30
0.0
 11
15.919823
 21
4.305007
 31
0.0
  0
LINE
  5
1025
  8
0
  6
BYBLOCK
 62
     0
 10
12.902955
 20
4.74
 30
0.0
 11
13.21247
 21
4.74
 31
0.0
  0
LINE
  5
1026
  8
0
  6
BYBLOCK
 62
     0
 10
13.608098
 20
4.8
 30
0.0
 11
14.358098
 21
4.8
 31
0.0
  0
LINE
  5
1027
  8
0
  6
BYBLOCK
 62
     0
 10
13.035101
 20
4.105012
 30
0.0
 11
13.035101
 21
4.6
 31
0.0
  0
LINE
  5
1028
  8
0
  6
BYBLOCK
 62
     0
 10
12.902955
 20
4.74
 30
0.0
 11
12.902955
 21
4.6
 31
0.0
  0
LINE
  5
1029
  8
0
  6
BYBLOCK
 62
     0
 10
13.492628
 20
4.6
 30
0.0
 11
13.608098
 21
4.8
 31
0.0
  0
LINE
  5
102A
  8
0
  6
BYBLOCK
 62
     0
 10
13.21247
 20
4.74
 30
0.0
 11
13.454957
 21
4.6
 31
0.0
  0
LINE
  5
1030
  8
0
  6
BYBLOCK
 62
     0
 10
11.719772
 20
5.08
 30
0.0
 11
11.469772
 21
5.08
 31
0.0
  0
LINE
  5
1043
  8
0
  6
BYBLOCK
 62
     0
 10
11.792995
 20
3.521777
 30
0.0
 11
12.064772
 21
3.25
 31
0.0
  0
ARC
  5
1044
  8
0
  6
BYBLOCK
 62
     0
 10
11.969772
 20
3.698553
 30
0.0
 40
0.25
 50
180.0
 51
225.0
  0
ARC
  5
1045
  8
0
  6
BYBLOCK
 62
     0
 10
11.969772
 20
3.698553
 30
0.0
 40
0.5
 50
180.0
 51
225.0
  0
LINE
  5
1046
  8
0
  6
BYBLOCK
 62
     0
 10
11.616218
 20
3.345
 30
0.0
 11
11.711218
 21
3.25
 31
0.0
  0
LINE
  5
1047
  8
0
  6
BYBLOCK
 62
     0
 10
11.469772
 20
3.698553
 30
0.0
 11
11.469772
 21
5.08
 31
0.0
  0
LINE
  5
1048
  8
0
  6
BYBLOCK
 62
     0
 10
11.719772
 20
5.08
 30
0.0
 11
11.719772
 21
3.698553
 31
0.0
  0
LINE
  5
1049
  8
0
  6
BYBLOCK
 62
     0
 10
11.469772
 20
5.08
 30
0.0
 11
11.469772
 21
3.698553
 31
0.0
  0
LINE
  5
104A
  8
0
  6
BYBLOCK
 62
     0
 10
12.719903
 20
4.6
 30
0.0
 11
12.719903
 21
3.25
 31
0.0
  0
LINE
  5
104B
  8
0
  6
BYBLOCK
 62
     0
 10
12.719903
 20
4.6
 30
0.0
 11
15.62483
 21
4.6
 31
0.0
  0
LINE
  5
104C
  8
0
  6
BYBLOCK
 62
     0
 10
12.919898
 20
4.105012
 30
0.0
 11
14.419824
 21
4.105012
 31
0.0
  0
LINE
  5
104D
  8
0
  6
BYBLOCK
 62
     0
 10
14.473568
 20
4.6
 30
0.0
 11
14.358098
 21
4.8
 31
0.0
  0
LINE
  5
104F
  8
0
  6
BYBLOCK
 62
     0
 10
17.324332
 20
4.105012
 30
0.0
 11
17.896774
 21
4.105012
 31
0.0
  0
LINE
  5
1094
  8
0
  6
BYBLOCK
 62
     0
 10
10.394961
 20
2.960026
 30
0.0
 11
9.989875
 21
2.960026
 31
0.0
  0
LINE
  5
1095
  8
0
  6
BYBLOCK
 62
     0
 10
10.684935
 20
3.25
 30
0.0
 11
10.394961
 21
2.960026
 31
0.0
  0
ARC
  5
109B
  8
0
  6
BYBLOCK
 62
     0
 10
9.989875
 20
2.835029
 30
0.0
 40
0.124997
 50
90.0
 51
180.0
  0
LINE
  5
10A5
  8
0
  6
BYBLOCK
 62
     0
 10
12.719903
 20
3.25
 30
0.0
 11
10.684935
 21
3.25
 31
0.0
  0
LINE
  5
10AB
  8
0
  6
BYBLOCK
 62
     0
 10
17.939772
 20
0.40009
 30
0.0
 11
17.896774
 21
0.40009
 31
0.0
  0
LINE
  5
10AC
  8
0
  6
BYBLOCK
 62
     0
 10
17.939772
 20
-0.39989
 30
0.0
 11
17.896774
 21
-0.39989
 31
0.0
  0
ARC
  5
10AD
  8
0
  6
BYBLOCK
 62
     0
 10
17.429898
 20
0.0
 30
0.0
 40
0.295
 50
270.0
 51
90.0
  0
LINE
  5
10AE
  8
0
  6
BYBLOCK
 62
     0
 10
17.939772
 20
0.40009
 30
0.0
 11
17.939772
 21
-0.39989
 31
0.0
  0
LINE
  5
10AF
  8
0
  6
BYBLOCK
 62
     0
 10
17.896774
 20
-3.884803
 30
0.0
 11
17.969772
 21
-3.884803
 31
0.0
  0
LINE
  5
10B0
  8
0
  6
BYBLOCK
 62
     0
 10
18.195139
 20
-4.312
 30
0.0
 11
17.484933
 21
-4.312
 31
0.0
  0
LINE
  5
10B1
  8
0
  6
BYBLOCK
 62
     0
 10
17.969772
 20
-3.884803
 30
0.0
 11
17.969772
 21
-4.6
 31
0.0
  0
LINE
  5
10B2
  8
0
  6
BYBLOCK
 62
     0
 10
17.896774
 20
-0.39989
 30
0.0
 11
17.896774
 21
-4.6
 31
0.0
  0
ARC
  5
10B3
  8
0
  6
BYBLOCK
 62
     0
 10
16.489898
 20
0.0
 30
0.0
 40
0.295
 50
90.0
 51
270.0
  0
LINE
  5
10B4
  8
0
  6
BYBLOCK
 62
     0
 10
11.399913
 20
0.35
 30
0.0
 11
11.399913
 21
0.2
 31
0.0
  0
LINE
  5
10B5
  8
0
  6
BYBLOCK
 62
     0
 10
11.699913
 20
0.35
 30
0.0
 11
11.699913
 21
0.2
 31
0.0
  0
LINE
  5
10B6
  8
0
  6
BYBLOCK
 62
     0
 10
11.899913
 20
0.80008
 30
0.0
 11
11.899913
 21
0.35
 31
0.0
  0
LINE
  5
10B7
  8
0
  6
BYBLOCK
 62
     0
 10
12.919898
 20
0.35
 30
0.0
 11
11.399913
 21
0.35
 31
0.0
  0
LINE
  5
10B8
  8
0
  6
BYBLOCK
 62
     0
 10
11.899913
 20
0.80008
 30
0.0
 11
12.919898
 21
0.80008
 31
0.0
  0
LINE
  5
10B9
  8
0
  6
BYBLOCK
 62
     0
 10
11.399913
 20
-0.2
 30
0.0
 11
11.399913
 21
-0.35
 31
0.0
  0
LINE
  5
10BA
  8
0
  6
BYBLOCK
 62
     0
 10
11.699913
 20
-0.2
 30
0.0
 11
11.699913
 21
-0.35
 31
0.0
  0
LINE
  5
10BB
  8
0
  6
BYBLOCK
 62
     0
 10
11.899913
 20
-0.35
 30
0.0
 11
11.899913
 21
-0.79988
 31
0.0
  0
LINE
  5
10BC
  8
0
  6
BYBLOCK
 62
     0
 10
12.919898
 20
-0.35
 30
0.0
 11
11.399913
 21
-0.35
 31
0.0
  0
LINE
  5
10BD
  8
0
  6
BYBLOCK
 62
     0
 10
11.899913
 20
-0.79988
 30
0.0
 11
12.919898
 21
-0.79988
 31
0.0
  0
LINE
  5
10BE
  8
0
  6
BYBLOCK
 62
     0
 10
11.899913
 20
0.2
 30
0.0
 11
11.899913
 21
-0.2
 31
0.0
  0
LINE
  5
10BF
  8
0
  6
BYBLOCK
 62
     0
 10
11.616218
 20
-3.345
 30
0.0
 11
11.711218
 21
-3.25
 31
0.0
  0
LINE
  5
10C0
  8
0
  6
BYBLOCK
 62
     0
 10
13.299898
 20
-4.71
 30
0.0
 11
12.919898
 21
-4.71
 31
0.0
  0
LINE
  5
10C1
  8
0
  6
BYBLOCK
 62
     0
 10
13.299898
 20
-4.6
 30
0.0
 11
13.299898
 21
-4.71
 31
0.0
  0
LINE
  5
10C2
  8
0
  6
BYBLOCK
 62
     0
 10
13.154536
 20
-4.6
 30
0.0
 11
12.919898
 21
-4.193594
 31
0.0
  0
ARC
  5
10C6
  8
0
  6
BYBLOCK
 62
     0
 10
11.969772
 20
-3.698553
 30
0.0
 40
0.25
 50
135.0
 51
180.0
  0
LINE
  5
10D1
  8
0
  6
HIDDEN
 62
     0
 10
11.469772
 20
-5.085
 30
0.0
 11
11.551854
 21
-5.085
 31
0.0
  0
LINE
  5
10D2
  8
0
  6
BYBLOCK
 62
     0
 10
11.719772
 20
-5.08
 30
0.0
 11
11.469772
 21
-5.08
 31
0.0
  0
LINE
  5
10DA
  8
0
  6
BYBLOCK
 62
     0
 10
11.719772
 20
-5.08
 30
0.0
 11
11.719772
 21
-3.698553
 31
0.0
  0
LINE
  5
10DF
  8
0
  6
BYBLOCK
 62
     0
 10
12.919898
 20
-5.06
 30
0.0
 11
12.719903
 21
-5.06
 31
0.0
  0
LINE
  5
10E0
  8
0
  6
BYBLOCK
 62
     0
 10
12.919898
 20
-4.6
 30
0.0
 11
12.719903
 21
-4.6
 31
0.0
  0
ARC
  5
10E1
  8
0
  6
BYBLOCK
 62
     0
 10
11.969772
 20
-3.698553
 30
0.0
 40
0.5
 50
135.0
 51
180.0
  0
LINE
  5
10E2
  8
0
  6
BYBLOCK
 62
     0
 10
11.792995
 20
-3.521777
 30
0.0
 11
12.064772
 21
-3.25
 31
0.0
  0
LINE
  5
10E4
  8
0
  6
BYBLOCK
 62
     0
 10
12.719903
 20
-5.06
 30
0.0
 11
12.719903
 21
-3.25
 31
0.0
  0
LINE
  5
10E5
  8
0
  6
BYBLOCK
 62
     0
 10
17.969772
 20
-4.6
 30
0.0
 11
13.154536
 21
-4.6
 31
0.0
  0
LINE
  5
10E6
  8
0
  6
BYBLOCK
 62
     0
 10
17.429898
 20
-0.295
 30
0.0
 11
16.489898
 21
-0.295
 31
0.0
  0
LINE
  5
10E7
  8
0
  6
BYBLOCK
 62
     0
 10
17.429898
 20
0.295
 30
0.0
 11
16.489898
 21
0.295
 31
0.0
  0
ARC
  5
10E9
  8
0
  6
BYBLOCK
 62
     0
 10
9.739881
 20
1.805055
 30
0.0
 40
0.124997
 50
270.0
 51
0.0
  0
LINE
  5
10EA
  8
0
  6
BYBLOCK
 62
     0
 10
9.739881
 20
1.680058
 30
0.0
 11
9.209895
 21
1.680058
 31
0.0
  0
ARC
  5
10EB
  8
0
  6
BYBLOCK
 62
     0
 10
9.209895
 20
1.555061
 30
0.0
 40
0.124997
 50
90.0
 51
180.0
  0
LINE
  5
10EC
  8
0
  6
BYBLOCK
 62
     0
 10
9.739881
 20
-1.679858
 30
0.0
 11
9.209895
 21
-1.679858
 31
0.0
  0
ARC
  5
10ED
  8
0
  6
BYBLOCK
 62
     0
 10
9.209895
 20
-1.554861
 30
0.0
 40
0.124997
 50
180.0
 51
270.0
  0
LINE
  5
10EE
  8
0
  6
BYBLOCK
 62
     0
 10
9.084898
 20
1.555061
 30
0.0
 11
9.084898
 21
-1.554861
 31
0.0
  0
LINE
  5
10EF
  8
0
  6
BYBLOCK
 62
     0
 10
10.394961
 20
-2.959826
 30
0.0
 11
9.989875
 21
-2.959826
 31
0.0
  0
LINE
  5
10F0
  8
0
  6
BYBLOCK
 62
     0
 10
10.685135
 20
-3.25
 30
0.0
 11
10.394961
 21
-2.959826
 31
0.0
  0
LINE
  5
10F3
  8
0
  6
BYBLOCK
 62
     0
 10
9.864878
 20
-2.834829
 30
0.0
 11
9.864878
 21
-1.804855
 31
0.0
  0
ARC
  5
10F4
  8
0
  6
BYBLOCK
 62
     0
 10
9.989875
 20
-2.834829
 30
0.0
 40
0.124997
 50
180.0
 51
270.0
  0
ARC
  5
110B
  8
0
  6
BYBLOCK
 62
     0
 10
9.739881
 20
-1.804855
 30
0.0
 40
0.124997
 50
360.0
 51
90.0
  0
LINE
  5
1136
  8
0
  6
BYBLOCK
 62
     0
 10
12.719903
 20
-3.25
 30
0.0
 11
10.685135
 21
-3.25
 31
0.0
  0
LINE
  5
113A
  8
0
  6
BYBLOCK
 62
     0
 10
11.899913
 20
-0.2
 30
0.0
 11
9.084898
 21
-0.2
 31
0.0
  0
LINE
  5
113B
  8
0
  6
BYBLOCK
 62
     0
 10
11.899913
 20
0.2
 30
0.0
 11
9.084898
 21
0.2
 31
0.0
  0
LINE
  5
113C
  8
0
  6
BYBLOCK
 62
     0
 10
9.864878
 20
2.835029
 30
0.0
 11
9.864878
 21
1.805055
 31
0.0
  0
LINE
  5
113D
  8
0
  6
BYBLOCK
 62
     0
 10
12.919898
 20
4.105012
 30
0.0
 11
12.919898
 21
-5.06
 31
0.0
  0
LINE
  5
113E
  8
0
  6
BYBLOCK
 62
     0
 10
17.896774
 20
4.6
 30
0.0
 11
17.896774
 21
0.40009
 31
0.0
  0
LINE
  5
113F
  8
0
  6
BYBLOCK
 62
     0
 10
12.299913
 20
3.25
 30
0.0
 11
12.299913
 21
-3.25
 31
0.0
  0
LINE
  5
114D
  8
0
 10
11.469772
 20
-5.08
 30
0.0
 11
11.469772
 21
-3.698553
 31
0.0
  0
ENDSEC
  0
EOF
