  0
SECTION
  2
HEADER
  9
$ACADVER
  1
AC1009
  9
$INSBASE
 10
0.0
 20
0.0
 30
0.0
  9
$EXTMIN
 10
-6.529078
 20
-9.974186
 30
-0.001526
  9
$EXTMAX
 10
25.673463
 20
9.42827
 30
0.0
  9
$LIMMIN
 10
0.0
 20
0.0
  9
$LIMMAX
 10
12.0
 20
9.0
  9
$ORTHOMODE
 70
     1
  9
$REGENMODE
 70
     1
  9
$FILLMODE
 70
     1
  9
$QTEXTMODE
 70
     0
  9
$MIRRTEXT
 70
     1
  9
$DRAGMODE
 70
     2
  9
$LTSCALE
 40
1.0
  9
$OSMODE
 70
     0
  9
$ATTMODE
 70
     1
  9
$TEXTSIZE
 40
0.2
  9
$TRACEWID
 40
0.05
  9
$TEXTSTYLE
  7
STANDARD
  9
$CLAYER
  8
0
  9
$CELTYPE
  6
BYLAYER
  9
$CECOLOR
 62
   256
  9
$DIMSCALE
 40
1.0
  9
$DIMASZ
 40
0.18
  9
$DIMEXO
 40
0.0625
  9
$DIMDLI
 40
0.38
  9
$DIMRND
 40
0.0
  9
$DIMDLE
 40
0.0
  9
$DIMEXE
 40
0.18
  9
$DIMTP
 40
0.0
  9
$DIMTM
 40
0.0
  9
$DIMTXT
 40
0.18
  9
$DIMCEN
 40
0.09
  9
$DIMTSZ
 40
0.0
  9
$DIMTOL
 70
     0
  9
$DIMLIM
 70
     0
  9
$DIMTIH
 70
     1
  9
$DIMTOH
 70
     1
  9
$DIMSE1
 70
     0
  9
$DIMSE2
 70
     0
  9
$DIMTAD
 70
     0
  9
$DIMZIN
 70
     0
  9
$DIMBLK
  1

  9
$DIMASO
 70
     1
  9
$DIMSHO
 70
     1
  9
$DIMPOST
  1

  9
$DIMAPOST
  1

  9
$DIMALT
 70
     0
  9
$DIMALTD
 70
     2
  9
$DIMALTF
 40
25.4
  9
$DIMLFAC
 40
1.0
  9
$DIMTOFL
 70
     0
  9
$DIMTVP
 40
0.0
  9
$DIMTIX
 70
     0
  9
$DIMSOXD
 70
     0
  9
$DIMSAH
 70
     0
  9
$DIMBLK1
  1

  9
$DIMBLK2
  1

  9
$DIMSTYLE
  2
STANDARD
  9
$DIMCLRD
 70
     0
  9
$DIMCLRE
 70
     0
  9
$DIMCLRT
 70
     0
  9
$DIMTFAC
 40
1.0
  9
$DIMGAP
 40
0.09
  9
$LUNITS
 70
     2
  9
$LUPREC
 70
     4
  9
$SKETCHINC
 40
0.1
  9
$FILLETRAD
 40
0.0
  9
$AUNITS
 70
     0
  9
$AUPREC
 70
     0
  9
$MENU
  1
acad
  9
$ELEVATION
 40
0.0
  9
$PELEVATION
 40
0.0
  9
$THICKNESS
 40
0.0
  9
$LIMCHECK
 70
     0
  9
$BLIPMODE
 70
     1
  9
$CHAMFERA
 40
0.0
  9
$CHAMFERB
 40
0.0
  9
$SKPOLY
 70
     0
  9
$TDCREATE
 40
2451127.571165
  9
$TDUPDATE
 40
2451129.621608
  9
$TDINDWG
 40
0.06754
  9
$TDUSRTIMER
 40
0.06754
  9
$USRTIMER
 70
     1
  9
$ANGBASE
 50
0.0
  9
$ANGDIR
 70
     0
  9
$PDMODE
 70
     0
  9
$PDSIZE
 40
0.0
  9
$PLINEWID
 40
0.0
  9
$COORDS
 70
     1
  9
$SPLFRAME
 70
     0
  9
$SPLINETYPE
 70
     6
  9
$SPLINESEGS
 70
     8
  9
$ATTDIA
 70
     0
  9
$ATTREQ
 70
     1
  9
$HANDLING
 70
     1
  9
$HANDSEED
  5
921
  9
$SURFTAB1
 70
     6
  9
$SURFTAB2
 70
     6
  9
$SURFTYPE
 70
     6
  9
$SURFU
 70
     6
  9
$SURFV
 70
     6
  9
$UCSNAME
  2

  9
$UCSORG
 10
0.0
 20
0.0
 30
0.0
  9
$UCSXDIR
 10
1.0
 20
0.0
 30
0.0
  9
$UCSYDIR
 10
0.0
 20
1.0
 30
0.0
  9
$PUCSNAME
  2

  9
$PUCSORG
 10
0.0
 20
0.0
 30
0.0
  9
$PUCSXDIR
 10
1.0
 20
0.0
 30
0.0
  9
$PUCSYDIR
 10
0.0
 20
1.0
 30
0.0
  9
$USERI1
 70
     0
  9
$USERI2
 70
     0
  9
$USERI3
 70
     0
  9
$USERI4
 70
     0
  9
$USERI5
 70
     0
  9
$USERR1
 40
0.0
  9
$USERR2
 40
0.0
  9
$USERR3
 40
0.0
  9
$USERR4
 40
0.0
  9
$USERR5
 40
0.0
  9
$WORLDVIEW
 70
     1
  9
$SHADEDGE
 70
     3
  9
$SHADEDIF
 70
    70
  9
$TILEMODE
 70
     1
  9
$MAXACTVP
 70
    16
  9
$PLIMCHECK
 70
     0
  9
$PEXTMIN
 10
1.000000E+020
 20
1.000000E+020
 30
1.000000E+020
  9
$PEXTMAX
 10
-1.000000E+020
 20
-1.000000E+020
 30
-1.000000E+020
  9
$PLIMMIN
 10
0.0
 20
0.0
  9
$PLIMMAX
 10
12.0
 20
9.0
  9
$UNITMODE
 70
     0
  9
$VISRETAIN
 70
     0
  9
$PLINEGEN
 70
     0
  9
$PSLTSCALE
 70
     1
  0
ENDSEC
  0
SECTION
  2
TABLES
  0
TABLE
  2
VPORT
 70
     2
  0
VPORT
  2
*ACTIVE
 70
     0
 10
0.0
 20
0.0
 11
1.0
 21
1.0
 12
9.572192
 22
-0.272958
 13
0.0
 23
0.0
 14
1.0
 24
1.0
 15
0.0
 25
0.0
 16
0.0
 26
0.0
 36
1.0
 17
0.0
 27
0.0
 37
0.0
 40
21.279955
 41
1.603066
 42
50.0
 43
0.0
 44
0.0
 50
0.0
 51
0.0
 71
     0
 72
 20000
 73
     1
 74
     1
 75
     0
 76
     0
 77
     0
 78
     0
  0
ENDTAB
  0
TABLE
  2
LTYPE
 70
     3
  0
LTYPE
  2
CONTINUOUS
 70
     0
  3
Solid line
 72
    65
 73
     0
 40
0.0
  0
LTYPE
  2
HIDDEN
 70
     0
  3
__ __ __ __ __ __ __ __ __ __ __ __ __ __ __ __
 72
    65
 73
     2
 40
0.375
 49
0.25
 49
-0.125
  0
LTYPE
  2
CENTER
 70
     0
  3
____ _ ____ _ ____ _ ____ _ ____ _ ____ _ ____ 
 72
    65
 73
     4
 40
2.0
 49
1.25
 49
-0.25
 49
0.25
 49
-0.25
  0
ENDTAB
  0
TABLE
  2
LAYER
 70
     1
  0
LAYER
  2
0
 70
     0
 62
     7
  6
CONTINUOUS
  0
ENDTAB
  0
TABLE
  2
STYLE
 70
     1
  0
STYLE
  2
STANDARD
 70
     0
 40
0.0
 41
1.0
 50
0.0
 71
     0
 42
0.2
  3
txt
  4

  0
ENDTAB
  0
TABLE
  2
VIEW
 70
     0
  0
ENDTAB
  0
TABLE
  2
UCS
 70
     0
  0
ENDTAB
  0
TABLE
  2
APPID
 70
     1
  0
APPID
  2
ACAD
 70
     0
  0
ENDTAB
  0
TABLE
  2
DIMSTYLE
 70
     1
  0
DIMSTYLE
  2
STANDARD
 70
     0
  3

  4

  5

  6

  7

 40
1.0
 41
0.18
 42
0.0625
 43
0.38
 44
0.18
 45
0.0
 46
0.0
 47
0.0
 48
0.0
140
0.18
141
0.09
142
0.0
143
25.4
144
1.0
145
0.0
146
1.0
147
0.09
 71
     0
 72
     0
 73
     1
 74
     1
 75
     0
 76
     0
 77
     0
 78
     0
170
     0
171
     2
172
     0
173
     0
174
     0
175
     0
176
     0
177
     0
178
     0
  0
ENDTAB
  0
ENDSEC
  0
SECTION
  2
BLOCKS
  0
BLOCK
  8
0
  2
$MODEL_SPACE
 70
     0
 10
0.0
 20
0.0
 30
0.0
  3
$MODEL_SPACE
  1

  0
ENDBLK
  5
1C
  8
0
  0
BLOCK
 67
     1
  8
0
  2
$PAPER_SPACE
 70
     0
 10
0.0
 20
0.0
 30
0.0
  3
$PAPER_SPACE
  1

  0
ENDBLK
  5
19
 67
     1
  8
0
  0
ENDSEC
  0
SECTION
  2
ENTITIES
  0
LINE
  5
32D
  8
0
  6
BYBLOCK
 62
     0
 10
6.0
 20
7.406694
 30
0.0
 11
6.0
 21
7.906694
 31
0.0
  0
LINE
  5
35F
  8
0
  6
BYBLOCK
 62
     0
 10
2.092205
 20
7.261694
 30
0.0
 11
2.632205
 21
7.261694
 31
0.0
  0
LINE
  5
372
  8
0
  6
BYBLOCK
 62
     0
 10
5.130118
 20
5.656506
 30
0.0
 11
5.130118
 21
9.427678
 31
0.0
  0
ARC
  5
373
  8
0
  6
BYBLOCK
 62
     0
 10
6.150998
 20
4.96028
 30
0.0
 40
0.244563
 50
310.417438
 51
49.582562
  0
LINE
  5
374
  8
0
  6
BYBLOCK
 62
     0
 10
6.39556
 20
3.843107
 30
0.0
 11
6.39556
 21
4.96028
 31
0.0
  0
ARC
  5
375
  8
0
  6
BYBLOCK
 62
     0
 10
5.54631
 20
4.401694
 30
0.0
 40
0.84925
 50
333.992176
 51
26.007824
  0
ARC
  5
376
  8
0
  6
BYBLOCK
 62
     0
 10
6.084562
 20
4.96028
 30
0.0
 40
0.244563
 50
130.417438
 51
229.582562
  0
ARC
  5
377
  8
0
  6
BYBLOCK
 62
     0
 10
6.68925
 20
4.401694
 30
0.0
 40
0.84925
 50
153.992176
 51
206.007824
  0
LINE
  5
378
  8
0
  6
BYBLOCK
 62
     0
 10
5.84
 20
3.843107
 30
0.0
 11
5.84
 21
4.96028
 31
0.0
  0
LINE
  5
379
  8
0
  6
BYBLOCK
 62
     0
 10
5.926
 20
5.146475
 30
0.0
 11
6.30956
 21
5.146475
 31
0.0
  0
LINE
  5
37A
  8
0
  6
BYBLOCK
 62
     0
 10
5.926
 20
4.774084
 30
0.0
 11
6.30956
 21
4.774084
 31
0.0
  0
LINE
  5
37B
  8
0
  6
BYBLOCK
 62
     0
 10
5.926
 20
4.029303
 30
0.0
 11
6.30956
 21
4.029303
 31
0.0
  0
LINE
  5
37C
  8
0
  6
BYBLOCK
 62
     0
 10
6.47
 20
2.694104
 30
0.0
 11
6.47
 21
2.814104
 31
0.0
  0
LINE
  5
37D
  8
0
  6
BYBLOCK
 62
     0
 10
6.44
 20
2.814104
 30
0.0
 11
6.44
 21
3.064104
 31
0.0
  0
LINE
  5
37E
  8
0
  6
BYBLOCK
 62
     0
 10
6.424
 20
2.814104
 30
0.0
 11
6.424
 21
3.064104
 31
0.0
  0
LINE
  5
37F
  8
0
  6
BYBLOCK
 62
     0
 10
5.701
 20
3.164104
 30
0.0
 11
5.701
 21
3.414104
 31
0.0
  0
LINE
  5
380
  8
0
  6
BYBLOCK
 62
     0
 10
6.0165
 20
3.164104
 30
0.0
 11
6.0165
 21
3.414104
 31
0.0
  0
LINE
  5
381
  8
0
  6
BYBLOCK
 62
     0
 10
5.84275
 20
3.357251
 30
0.0
 11
5.84275
 21
3.220957
 31
0.0
  0
LINE
  5
382
  8
0
  6
BYBLOCK
 62
     0
 10
5.87475
 20
3.357251
 30
0.0
 11
5.87475
 21
3.220957
 31
0.0
  0
CIRCLE
  5
383
  8
0
  6
BYBLOCK
 62
     0
 10
5.85875
 20
3.289104
 30
0.0
 40
0.07
  0
LINE
  5
384
  8
0
  6
BYBLOCK
 62
     0
 10
5.685
 20
3.164104
 30
0.0
 11
6.0325
 21
3.164104
 31
0.0
  0
LINE
  5
385
  8
0
  6
BYBLOCK
 62
     0
 10
5.685
 20
3.414104
 30
0.0
 11
6.0325
 21
3.414104
 31
0.0
  0
LINE
  5
386
  8
0
  6
BYBLOCK
 62
     0
 10
5.655
 20
2.694104
 30
0.0
 11
5.655
 21
2.814104
 31
0.0
  0
LINE
  5
387
  8
0
  6
BYBLOCK
 62
     0
 10
6.0625
 20
2.694104
 30
0.0
 11
6.0625
 21
2.814104
 31
0.0
  0
LINE
  5
388
  8
0
  6
BYBLOCK
 62
     0
 10
5.685
 20
2.814104
 30
0.0
 11
5.685
 21
3.414104
 31
0.0
  0
LINE
  5
389
  8
0
  6
BYBLOCK
 62
     0
 10
6.0325
 20
2.814104
 30
0.0
 11
6.0325
 21
3.414104
 31
0.0
  0
LINE
  5
38A
  8
0
  6
BYBLOCK
 62
     0
 10
6.0925
 20
2.814104
 30
0.0
 11
6.0925
 21
3.064104
 31
0.0
  0
LINE
  5
38B
  8
0
  6
BYBLOCK
 62
     0
 10
6.1085
 20
2.814104
 30
0.0
 11
6.1085
 21
3.064104
 31
0.0
  0
LINE
  5
38C
  8
0
  6
BYBLOCK
 62
     0
 10
6.25025
 20
3.007251
 30
0.0
 11
6.25025
 21
2.870957
 31
0.0
  0
LINE
  5
38D
  8
0
  6
BYBLOCK
 62
     0
 10
6.28225
 20
3.007251
 30
0.0
 11
6.28225
 21
2.870957
 31
0.0
  0
LINE
  5
38E
  8
0
  6
BYBLOCK
 62
     0
 10
5.655
 20
2.814104
 30
0.0
 11
6.47
 21
2.814104
 31
0.0
  0
LINE
  5
38F
  8
0
  6
BYBLOCK
 62
     0
 10
6.0925
 20
3.064104
 30
0.0
 11
6.44
 21
3.064104
 31
0.0
  0
CIRCLE
  5
390
  8
0
  6
BYBLOCK
 62
     0
 10
6.26625
 20
2.939104
 30
0.0
 40
0.07
  0
LINE
  5
391
  8
0
  6
BYBLOCK
 62
     0
 10
5.625
 20
2.694104
 30
0.0
 11
6.5
 21
2.694104
 31
0.0
  0
LINE
  5
392
  8
0
  6
BYBLOCK
 62
     0
 10
5.926
 20
3.656912
 30
0.0
 11
6.30956
 21
3.656912
 31
0.0
  0
LINE
  5
393
  8
0
  6
BYBLOCK
 62
     0
 10
6.5
 20
1.128061
 30
0.0
 11
6.5
 21
1.068061
 31
0.0
  0
LINE
  5
394
  8
0
  6
BYBLOCK
 62
     0
 10
6.44
 20
0.949104
 30
0.0
 11
6.44
 21
1.199104
 31
0.0
  0
CIRCLE
  5
395
  8
0
  6
BYBLOCK
 62
     0
 10
6.0625
 20
1.799104
 30
0.0
 40
0.12
  0
LINE
  5
396
  8
0
  6
BYBLOCK
 62
     0
 10
6.178155
 20
1.767104
 30
0.0
 11
5.946845
 21
1.767104
 31
0.0
  0
LINE
  5
397
  8
0
  6
BYBLOCK
 62
     0
 10
6.178155
 20
1.831104
 30
0.0
 11
5.946845
 21
1.831104
 31
0.0
  0
ARC
  5
398
  8
0
  6
BYBLOCK
 62
     0
 10
5.807512
 20
1.008061
 30
0.0
 40
0.12
 50
90.0
 51
141.135623
  0
LINE
  5
399
  8
0
  6
BYBLOCK
 62
     0
 10
5.685987
 20
0.835415
 30
0.0
 11
5.760794
 21
1.045709
 31
0.0
  0
ARC
  5
39A
  8
0
  6
BYBLOCK
 62
     0
 10
5.807512
 20
1.008061
 30
0.0
 40
0.06
 50
90.0
 51
141.135623
  0
LINE
  5
39B
  8
0
  6
BYBLOCK
 62
     0
 10
6.178155
 20
0.581104
 30
0.0
 11
5.946845
 21
0.581104
 31
0.0
  0
LINE
  5
39C
  8
0
  6
BYBLOCK
 62
     0
 10
6.178155
 20
0.517104
 30
0.0
 11
5.946845
 21
0.517104
 31
0.0
  0
CIRCLE
  5
39D
  8
0
  6
BYBLOCK
 62
     0
 10
6.0625
 20
0.549104
 30
0.0
 40
0.12
  0
LINE
  5
39E
  8
0
  6
BYBLOCK
 62
     0
 10
5.88
 20
0.949104
 30
0.0
 11
5.88
 21
1.199104
 31
0.0
  0
LINE
  5
39F
  8
0
  6
BYBLOCK
 62
     0
 10
5.260129
 20
0.863065
 30
0.0
 11
5.020094
 21
0.863065
 31
0.0
  0
ARC
  5
3A0
  8
0
  6
BYBLOCK
 62
     0
 10
5.260129
 20
0.923078
 30
0.0
 40
0.060013
 50
270.0
 51
0.0
  0
LINE
  5
3A1
  8
0
  6
BYBLOCK
 62
     0
 10
5.632142
 20
0.848891
 30
0.0
 11
5.714076
 21
1.083358
 31
0.0
  0
LINE
  5
3A2
  8
0
  6
BYBLOCK
 62
     0
 10
5.807512
 20
1.128061
 30
0.0
 11
6.5
 21
1.128061
 31
0.0
  0
LINE
  5
3A3
  8
0
  6
BYBLOCK
 62
     0
 10
5.807512
 20
1.068061
 30
0.0
 11
6.5
 21
1.068061
 31
0.0
  0
LINE
  5
3A4
  8
0
  6
BYBLOCK
 62
     0
 10
5.625
 20
0.764104
 30
0.0
 11
6.5
 21
0.764104
 31
0.0
  0
LINE
  5
3A5
  8
0
  6
BYBLOCK
 62
     0
 10
6.44
 20
0.949104
 30
0.0
 11
5.88
 21
0.949104
 31
0.0
  0
LINE
  5
3A6
  8
0
  6
BYBLOCK
 62
     0
 10
6.44
 20
1.199104
 30
0.0
 11
5.88
 21
1.199104
 31
0.0
  0
LINE
  5
3A7
  8
0
  6
BYBLOCK
 62
     0
 10
5.625
 20
1.324104
 30
0.0
 11
6.5
 21
1.324104
 31
0.0
  0
LINE
  5
3A8
  8
0
  6
BYBLOCK
 62
     0
 10
5.84
 20
3.414104
 30
0.0
 11
5.84
 21
5.656506
 31
0.0
  0
LINE
  5
3A9
  8
0
  6
BYBLOCK
 62
     0
 10
5.320142
 20
5.656506
 30
0.0
 11
5.320142
 21
0.923078
 31
0.0
  0
ARC
  5
3AA
  8
0
  6
BYBLOCK
 62
     0
 10
6.150998
 20
3.843107
 30
0.0
 40
0.244563
 50
310.417438
 51
49.582562
  0
ARC
  5
3AB
  8
0
  6
BYBLOCK
 62
     0
 10
6.084562
 20
3.843107
 30
0.0
 40
0.244563
 50
130.417438
 51
229.582562
  0
LINE
  5
3B0
  8
0
  6
BYBLOCK
 62
     0
 10
3.034954
 20
5.489906
 30
0.0
 11
3.034954
 21
5.707906
 31
0.0
  0
ARC
  5
3B1
  8
0
  6
BYBLOCK
 62
     0
 10
2.987954
 20
5.707906
 30
0.0
 40
0.047
 50
0.0
 51
90.0
  0
LINE
  5
3B2
  8
0
  6
BYBLOCK
 62
     0
 10
2.749597
 20
5.754906
 30
0.0
 11
2.749597
 21
9.427678
 31
0.0
  0
LINE
  5
3B3
  8
0
  6
BYBLOCK
 62
     0
 10
3.034954
 20
5.489906
 30
0.0
 11
4.434954
 21
5.489906
 31
0.0
  0
LINE
  5
3B6
  8
0
  6
BYBLOCK
 62
     0
 10
4.94135
 20
4.979775
 30
0.0
 11
4.94135
 21
3.942023
 31
0.0
  0
LINE
  5
3B7
  8
0
  6
BYBLOCK
 62
     0
 10
3.034954
 20
5.031906
 30
0.0
 11
3.034954
 21
5.249906
 31
0.0
  0
ARC
  5
3B8
  8
0
  6
BYBLOCK
 62
     0
 10
2.987954
 20
5.031906
 30
0.0
 40
0.047
 50
270.0
 51
0.0
  0
LINE
  5
3B9
  8
0
  6
BYBLOCK
 62
     0
 10
2.938365
 20
4.979775
 30
0.0
 11
2.938365
 21
3.942023
 31
0.0
  0
LINE
  5
3BA
  8
0
  6
BYBLOCK
 62
     0
 10
3.034954
 20
5.249906
 30
0.0
 11
4.434954
 21
5.249906
 31
0.0
  0
LINE
  5
3BB
  8
0
  6
BYBLOCK
 62
     0
 10
2.938365
 20
4.979775
 30
0.0
 11
4.94135
 21
4.979775
 31
0.0
  0
LINE
  5
3BC
  8
0
  6
BYBLOCK
 62
     0
 10
2.938365
 20
3.942023
 30
0.0
 11
4.94135
 21
3.942023
 31
0.0
  0
LINE
  5
3BD
  8
0
  6
BYBLOCK
 62
     0
 10
4.434954
 20
5.249906
 30
0.0
 11
4.434954
 21
5.489906
 31
0.0
  0
ARC
  5
3BE
  8
0
  6
BYBLOCK
 62
     0
 10
1.501954
 20
5.707906
 30
0.0
 40
0.047
 50
90.0
 51
180.0
  0
LINE
  5
3BF
  8
0
  6
BYBLOCK
 62
     0
 10
1.454954
 20
5.489906
 30
0.0
 11
1.454954
 21
5.707906
 31
0.0
  0
LINE
  5
3C0
  8
0
  6
BYBLOCK
 62
     0
 10
1.19026
 20
5.489906
 30
0.0
 11
1.19026
 21
9.427678
 31
0.0
  0
LINE
  5
3C5
  8
0
  6
BYBLOCK
 62
     0
 10
0.054954
 20
5.489906
 30
0.0
 11
1.454954
 21
5.489906
 31
0.0
  0
ARC
  5
3C6
  8
0
  6
BYBLOCK
 62
     0
 10
1.501954
 20
5.031906
 30
0.0
 40
0.047
 50
180.0
 51
270.0
  0
LINE
  5
3C7
  8
0
  6
BYBLOCK
 62
     0
 10
1.454954
 20
5.031906
 30
0.0
 11
1.454954
 21
5.249906
 31
0.0
  0
LINE
  5
3C8
  8
0
  6
BYBLOCK
 62
     0
 10
1.001493
 20
4.979775
 30
0.0
 11
1.001493
 21
3.942023
 31
0.0
  0
LINE
  5
3C9
  8
0
  6
BYBLOCK
 62
     0
 10
0.054954
 20
5.249906
 30
0.0
 11
1.454954
 21
5.249906
 31
0.0
  0
LINE
  5
3CA
  8
0
  6
BYBLOCK
 62
     0
 10
-0.060133
 20
5.249906
 30
0.0
 11
-0.060133
 21
5.489906
 31
0.0
  0
LINE
  5
3CB
  8
0
  6
BYBLOCK
 62
     0
 10
-0.060133
 20
5.249906
 30
0.0
 11
-0.060133
 21
5.489906
 31
0.0
  0
LINE
  5
3CC
  8
0
  6
BYBLOCK
 62
     0
 10
0.054954
 20
5.249906
 30
0.0
 11
0.054954
 21
5.489906
 31
0.0
  0
LINE
  5
3CD
  8
0
  6
BYBLOCK
 62
     0
 10
0.054954
 20
5.249906
 30
0.0
 11
0.054954
 21
5.489906
 31
0.0
  0
LINE
  5
3CE
  8
0
  6
BYBLOCK
 62
     0
 10
1.501954
 20
4.984906
 30
0.0
 11
2.987954
 21
4.984906
 31
0.0
  0
LINE
  5
3CF
  8
0
  6
BYBLOCK
 62
     0
 10
1.501954
 20
5.754906
 30
0.0
 11
2.987954
 21
5.754906
 31
0.0
  0
CIRCLE
  5
3D0
  8
0
  6
BYBLOCK
 62
     0
 10
2.244954
 20
5.369906
 30
0.0
 40
0.305
  0
LINE
  5
3D1
  8
0
  6
BYBLOCK
 62
     0
 10
2.038399
 20
5.229068
 30
0.0
 11
2.41129
 21
5.556539
 31
0.0
  0
LINE
  5
3D2
  8
0
  6
BYBLOCK
 62
     0
 10
2.077905
 20
5.183909
 30
0.0
 11
2.450968
 21
5.511532
 31
0.0
  0
CIRCLE
  5
3D3
  8
0
  6
BYBLOCK
 62
     0
 10
2.244954
 20
5.369906
 30
0.0
 40
0.25
  0
LINE
  5
3D4
  8
0
  6
BYBLOCK
 62
     0
 10
3.213284
 20
2.898738
 30
0.0
 11
4.666431
 21
2.898738
 31
0.0
  0
ARC
  5
3D5
  8
0
  6
BYBLOCK
 62
     0
 10
2.619586
 20
0.923078
 30
0.0
 40
0.060013
 50
180.0
 51
270.0
  0
LINE
  5
3D6
  8
0
  6
BYBLOCK
 62
     0
 10
2.619586
 20
0.863065
 30
0.0
 11
2.779621
 21
0.863065
 31
0.0
  0
ARC
  5
3D7
  8
0
  6
BYBLOCK
 62
     0
 10
2.788078
 20
0.689461
 30
0.0
 40
0.17381
 50
40.808743
 51
92.78889
  0
LINE
  5
3D8
  8
0
  6
BYBLOCK
 62
     0
 10
3.213284
 20
1.622631
 30
0.0
 11
4.666431
 21
1.622631
 31
0.0
  0
LINE
  5
3D9
  8
0
  6
BYBLOCK
 62
     0
 10
3.213284
 20
0.638054
 30
0.0
 11
4.666431
 21
0.638054
 31
0.0
  0
LINE
  5
3DA
  8
0
  6
BYBLOCK
 62
     0
 10
3.213284
 20
2.898738
 30
0.0
 11
3.213284
 21
1.622631
 31
0.0
  0
LINE
  5
3DB
  8
0
  6
BYBLOCK
 62
     0
 10
4.666431
 20
2.898738
 30
0.0
 11
4.666431
 21
1.622631
 31
0.0
  0
LINE
  5
3DC
  8
0
  6
BYBLOCK
 62
     0
 10
2.244784
 20
2.381694
 30
0.0
 11
1.694784
 21
2.381694
 31
0.0
  0
LINE
  5
3DD
  8
0
  6
BYBLOCK
 62
     0
 10
1.320271
 20
0.863065
 30
0.0
 11
1.080236
 21
0.863065
 31
0.0
  0
ARC
  5
3DE
  8
0
  6
BYBLOCK
 62
     0
 10
1.320271
 20
0.923078
 30
0.0
 40
0.060013
 50
270.0
 51
0.0
  0
ARC
  5
3DF
  8
0
  6
BYBLOCK
 62
     0
 10
1.080236
 20
0.803052
 30
0.0
 40
0.060013
 50
90.0
 51
180.0
  0
LINE
  5
3E0
  8
0
  6
BYBLOCK
 62
     0
 10
0.726573
 20
2.898738
 30
0.0
 11
0.726573
 21
1.622631
 31
0.0
  0
LINE
  5
3E1
  8
0
  6
BYBLOCK
 62
     0
 10
1.380284
 20
5.249906
 30
0.0
 11
1.380284
 21
0.923078
 31
0.0
  0
LINE
  5
3E2
  8
0
  6
BYBLOCK
 62
     0
 10
2.559573
 20
4.91736
 30
0.0
 11
2.559573
 21
0.923078
 31
0.0
  0
LINE
  5
3E3
  8
0
  6
BYBLOCK
 62
     0
 10
5.320142
 20
3.342006
 30
0.0
 11
2.559573
 21
3.342006
 31
0.0
  0
ARC
  5
3E4
  8
0
  6
BYBLOCK
 62
     0
 10
5.020094
 20
0.803052
 30
0.0
 40
0.060013
 50
90.0
 51
180.0
  0
LINE
  5
3E6
  8
0
  6
BYBLOCK
 62
     0
 10
3.035047
 20
5.656506
 30
0.0
 11
5.84
 21
5.656506
 31
0.0
  0
LINE
  5
3EC
  8
0
  6
BYBLOCK
 62
     0
 10
6.5
 20
2.694104
 30
0.0
 11
6.5
 21
7.406694
 31
0.0
  0
LINE
  5
3ED
  8
0
  6
BYBLOCK
 62
     0
 10
2.362205
 20
6.991694
 30
0.0
 11
2.362205
 21
7.531694
 31
0.0
  0
LINE
  5
406
  8
0
  6
BYBLOCK
 62
     0
 10
-2.632205
 20
7.261694
 30
0.0
 11
-2.092205
 21
7.261694
 31
0.0
  0
LINE
  5
42D
  8
0
  6
BYBLOCK
 62
     0
 10
-6.0
 20
7.406694
 30
0.0
 11
-6.0
 21
7.906694
 31
0.0
  0
LINE
  5
42E
  8
0
  6
BYBLOCK
 62
     0
 10
-6.5
 20
7.406694
 30
0.0
 11
-5.130118
 21
7.406694
 31
0.0
  0
LINE
  5
42F
  8
0
  6
BYBLOCK
 62
     0
 10
6.0
 20
7.906694
 30
0.0
 11
5.130118
 21
7.906694
 31
0.0
  0
ARC
  5
430
  8
0
  6
BYBLOCK
 62
     0
 10
-1.507133
 20
5.707906
 30
0.0
 40
0.047
 50
0.0
 51
90.0
  0
LINE
  5
431
  8
0
  6
BYBLOCK
 62
     0
 10
-1.460133
 20
5.489906
 30
0.0
 11
-1.460133
 21
5.707906
 31
0.0
  0
LINE
  5
432
  8
0
  6
BYBLOCK
 62
     0
 10
-1.19026
 20
5.489906
 30
0.0
 11
-1.19026
 21
9.427678
 31
0.0
  0
LINE
  5
433
  8
0
  6
BYBLOCK
 62
     0
 10
-2.749597
 20
5.754906
 30
0.0
 11
-2.749597
 21
9.427678
 31
0.0
  0
ARC
  5
434
  8
0
  6
BYBLOCK
 62
     0
 10
-1.507133
 20
5.031906
 30
0.0
 40
0.047
 50
270.0
 51
0.0
  0
LINE
  5
435
  8
0
  6
BYBLOCK
 62
     0
 10
-1.460133
 20
5.031906
 30
0.0
 11
-1.460133
 21
5.249906
 31
0.0
  0
LINE
  5
436
  8
0
  6
BYBLOCK
 62
     0
 10
-1.380284
 20
5.249906
 30
0.0
 11
-1.380284
 21
5.013031
 31
0.0
  0
LINE
  5
437
  8
0
  6
BYBLOCK
 62
     0
 10
-1.001493
 20
4.979775
 30
0.0
 11
-1.001493
 21
3.942023
 31
0.0
  0
CIRCLE
  5
438
  8
0
  6
BYBLOCK
 62
     0
 10
-2.250133
 20
5.369906
 30
0.0
 40
0.305
  0
LINE
  5
439
  8
0
  6
BYBLOCK
 62
     0
 10
-2.083084
 20
5.183909
 30
0.0
 11
-2.456147
 21
5.511532
 31
0.0
  0
LINE
  5
43A
  8
0
  6
BYBLOCK
 62
     0
 10
-2.043579
 20
5.229068
 30
0.0
 11
-2.416469
 21
5.556539
 31
0.0
  0
CIRCLE
  5
43B
  8
0
  6
BYBLOCK
 62
     0
 10
-2.250133
 20
5.369906
 30
0.0
 40
0.25
  0
ARC
  5
440
  8
0
  6
BYBLOCK
 62
     0
 10
-2.993133
 20
5.707906
 30
0.0
 40
0.047
 50
90.0
 51
180.0
  0
LINE
  5
441
  8
0
  6
BYBLOCK
 62
     0
 10
-3.040133
 20
5.489906
 30
0.0
 11
-3.040133
 21
5.707906
 31
0.0
  0
LINE
  5
442
  8
0
  6
BYBLOCK
 62
     0
 10
-5.130118
 20
5.656506
 30
0.0
 11
-5.130118
 21
9.427678
 31
0.0
  0
LINE
  5
443
  8
0
  6
BYBLOCK
 62
     0
 10
-3.040133
 20
5.489906
 30
0.0
 11
-4.440133
 21
5.489906
 31
0.0
  0
ARC
  5
446
  8
0
  6
BYBLOCK
 62
     0
 10
-2.993133
 20
5.031906
 30
0.0
 40
0.047
 50
180.0
 51
270.0
  0
LINE
  5
447
  8
0
  6
BYBLOCK
 62
     0
 10
-3.040133
 20
5.031906
 30
0.0
 11
-3.040133
 21
5.249906
 31
0.0
  0
LINE
  5
448
  8
0
  6
BYBLOCK
 62
     0
 10
-2.938365
 20
4.979775
 30
0.0
 11
-2.938365
 21
3.942023
 31
0.0
  0
LINE
  5
449
  8
0
  6
BYBLOCK
 62
     0
 10
-4.94135
 20
4.979775
 30
0.0
 11
-4.94135
 21
3.942023
 31
0.0
  0
LINE
  5
44A
  8
0
  6
BYBLOCK
 62
     0
 10
-3.040133
 20
5.249906
 30
0.0
 11
-4.440133
 21
5.249906
 31
0.0
  0
LINE
  5
44B
  8
0
  6
BYBLOCK
 62
     0
 10
-4.94135
 20
3.942023
 30
0.0
 11
-2.938365
 21
3.942023
 31
0.0
  0
LINE
  5
44C
  8
0
  6
BYBLOCK
 62
     0
 10
-4.94135
 20
4.979775
 30
0.0
 11
-2.938365
 21
4.979775
 31
0.0
  0
LINE
  5
44D
  8
0
  6
BYBLOCK
 62
     0
 10
-4.440133
 20
5.249906
 30
0.0
 11
-4.440133
 21
5.489906
 31
0.0
  0
LINE
  5
44F
  8
0
  6
BYBLOCK
 62
     0
 10
-1.507133
 20
4.984906
 30
0.0
 11
-2.993133
 21
4.984906
 31
0.0
  0
LINE
  5
450
  8
0
  6
BYBLOCK
 62
     0
 10
-1.507133
 20
5.754906
 30
0.0
 11
-2.993133
 21
5.754906
 31
0.0
  0
LINE
  5
451
  8
0
  6
BYBLOCK
 62
     0
 10
-1.695073
 20
2.381694
 30
0.0
 11
-2.245073
 21
2.381694
 31
0.0
  0
LINE
  5
452
  8
0
  6
BYBLOCK
 62
     0
 10
-1.320271
 20
0.863065
 30
0.0
 11
-1.160236
 21
0.863065
 31
0.0
  0
ARC
  5
453
  8
0
  6
BYBLOCK
 62
     0
 10
-1.320271
 20
0.923078
 30
0.0
 40
0.060013
 50
180.0
 51
270.0
  0
ARC
  5
454
  8
0
  6
BYBLOCK
 62
     0
 10
-1.151779
 20
0.689461
 30
0.0
 40
0.17381
 50
40.808743
 51
92.78889
  0
LINE
  5
455
  8
0
  6
BYBLOCK
 62
     0
 10
-2.619586
 20
0.863065
 30
0.0
 11
-2.859621
 21
0.863065
 31
0.0
  0
ARC
  5
456
  8
0
  6
BYBLOCK
 62
     0
 10
-2.619586
 20
0.923078
 30
0.0
 40
0.060013
 50
270.0
 51
0.0
  0
LINE
  5
457
  8
0
  6
BYBLOCK
 62
     0
 10
-0.726573
 20
2.898738
 30
0.0
 11
-0.726573
 21
1.622631
 31
0.0
  0
LINE
  5
458
  8
0
  6
BYBLOCK
 62
     0
 10
-4.666431
 20
2.898738
 30
0.0
 11
-3.213284
 21
2.898738
 31
0.0
  0
ARC
  5
459
  8
0
  6
BYBLOCK
 62
     0
 10
-5.260129
 20
0.923078
 30
0.0
 40
0.060013
 50
180.0
 51
270.0
  0
ARC
  5
45A
  8
0
  6
BYBLOCK
 62
     0
 10
-5.260129
 20
0.923078
 30
0.0
 40
0.060013
 50
180.0
 51
270.0
  0
ARC
  5
45B
  8
0
  6
BYBLOCK
 62
     0
 10
-5.091637
 20
0.689461
 30
0.0
 40
0.17381
 50
40.808743
 51
92.78889
  0
LINE
  5
45C
  8
0
  6
BYBLOCK
 62
     0
 10
-5.260129
 20
0.863065
 30
0.0
 11
-5.100094
 21
0.863065
 31
0.0
  0
LINE
  5
45D
  8
0
  6
BYBLOCK
 62
     0
 10
-4.666431
 20
1.622631
 30
0.0
 11
-3.213284
 21
1.622631
 31
0.0
  0
LINE
  5
45E
  8
0
  6
BYBLOCK
 62
     0
 10
-4.666431
 20
0.638054
 30
0.0
 11
-3.213284
 21
0.638054
 31
0.0
  0
LINE
  5
45F
  8
0
  6
BYBLOCK
 62
     0
 10
-4.666431
 20
2.898738
 30
0.0
 11
-4.666431
 21
1.622631
 31
0.0
  0
LINE
  5
460
  8
0
  6
BYBLOCK
 62
     0
 10
-3.213284
 20
2.898738
 30
0.0
 11
-3.213284
 21
1.622631
 31
0.0
  0
LINE
  5
461
  8
0
  6
BYBLOCK
 62
     0
 10
-5.320142
 20
3.330651
 30
0.0
 11
-2.559573
 21
3.330651
 31
0.0
  0
ARC
  5
462
  8
0
  6
BYBLOCK
 62
     0
 10
-2.859621
 20
0.803052
 30
0.0
 40
0.060013
 50
90.0
 51
180.0
  0
LINE
  5
463
  8
0
  6
BYBLOCK
 62
     0
 10
-2.559573
 20
4.984906
 30
0.0
 11
-2.559573
 21
0.923078
 31
0.0
  0
LINE
  5
464
  8
0
  6
BYBLOCK
 62
     0
 10
-5.320142
 20
5.656506
 30
0.0
 11
-5.320142
 21
0.923078
 31
0.0
  0
LINE
  5
465
  8
0
  6
BYBLOCK
 62
     0
 10
-1.380284
 20
5.18236
 30
0.0
 11
-1.380284
 21
0.923078
 31
0.0
  0
LINE
  5
466
  8
0
  6
BYBLOCK
 62
     0
 10
-5.729096
 20
3.164104
 30
0.0
 11
-5.729096
 21
3.414104
 31
0.0
  0
LINE
  5
467
  8
0
  6
BYBLOCK
 62
     0
 10
-6.044596
 20
3.164104
 30
0.0
 11
-6.044596
 21
3.414104
 31
0.0
  0
LINE
  5
468
  8
0
  6
BYBLOCK
 62
     0
 10
-5.870846
 20
3.357251
 30
0.0
 11
-5.870846
 21
3.220957
 31
0.0
  0
LINE
  5
469
  8
0
  6
BYBLOCK
 62
     0
 10
-5.902846
 20
3.357251
 30
0.0
 11
-5.902846
 21
3.220957
 31
0.0
  0
CIRCLE
  5
46A
  8
0
  6
BYBLOCK
 62
     0
 10
-5.886846
 20
3.289104
 30
0.0
 40
0.07
  0
LINE
  5
46B
  8
0
  6
BYBLOCK
 62
     0
 10
-5.713096
 20
3.164104
 30
0.0
 11
-6.060596
 21
3.164104
 31
0.0
  0
LINE
  5
46C
  8
0
  6
BYBLOCK
 62
     0
 10
-5.713096
 20
3.414104
 30
0.0
 11
-6.060596
 21
3.414104
 31
0.0
  0
LINE
  5
46D
  8
0
  6
BYBLOCK
 62
     0
 10
-6.120596
 20
3.064104
 30
0.0
 11
-6.468096
 21
3.064104
 31
0.0
  0
LINE
  5
46E
  8
0
  6
BYBLOCK
 62
     0
 10
-5.683096
 20
2.694104
 30
0.0
 11
-5.683096
 21
2.814104
 31
0.0
  0
LINE
  5
46F
  8
0
  6
BYBLOCK
 62
     0
 10
-6.090596
 20
2.694104
 30
0.0
 11
-6.090596
 21
2.814104
 31
0.0
  0
LINE
  5
470
  8
0
  6
BYBLOCK
 62
     0
 10
-6.498096
 20
2.694104
 30
0.0
 11
-6.498096
 21
2.814104
 31
0.0
  0
LINE
  5
471
  8
0
  6
BYBLOCK
 62
     0
 10
-5.683096
 20
2.814104
 30
0.0
 11
-6.498096
 21
2.814104
 31
0.0
  0
LINE
  5
472
  8
0
  6
BYBLOCK
 62
     0
 10
-5.653096
 20
2.694104
 30
0.0
 11
-6.528096
 21
2.694104
 31
0.0
  0
LINE
  5
473
  8
0
  6
BYBLOCK
 62
     0
 10
-5.713096
 20
2.814104
 30
0.0
 11
-5.713096
 21
3.414104
 31
0.0
  0
LINE
  5
474
  8
0
  6
BYBLOCK
 62
     0
 10
-6.060596
 20
2.814104
 30
0.0
 11
-6.060596
 21
3.414104
 31
0.0
  0
LINE
  5
475
  8
0
  6
BYBLOCK
 62
     0
 10
-6.468096
 20
2.814104
 30
0.0
 11
-6.468096
 21
3.064104
 31
0.0
  0
LINE
  5
476
  8
0
  6
BYBLOCK
 62
     0
 10
-6.120596
 20
2.814104
 30
0.0
 11
-6.120596
 21
3.064104
 31
0.0
  0
LINE
  5
477
  8
0
  6
BYBLOCK
 62
     0
 10
-6.452096
 20
2.814104
 30
0.0
 11
-6.452096
 21
3.064104
 31
0.0
  0
LINE
  5
478
  8
0
  6
BYBLOCK
 62
     0
 10
-6.136596
 20
2.814104
 30
0.0
 11
-6.136596
 21
3.064104
 31
0.0
  0
CIRCLE
  5
479
  8
0
  6
BYBLOCK
 62
     0
 10
-6.294346
 20
2.939104
 30
0.0
 40
0.07
  0
LINE
  5
47A
  8
0
  6
BYBLOCK
 62
     0
 10
-6.278346
 20
3.007251
 30
0.0
 11
-6.278346
 21
2.870957
 31
0.0
  0
LINE
  5
47B
  8
0
  6
BYBLOCK
 62
     0
 10
-6.310346
 20
3.007251
 30
0.0
 11
-6.310346
 21
2.870957
 31
0.0
  0
LINE
  5
47C
  8
0
  6
BYBLOCK
 62
     0
 10
-5.653096
 20
1.324104
 30
0.0
 11
-6.528096
 21
1.324104
 31
0.0
  0
CIRCLE
  5
47D
  8
0
  6
BYBLOCK
 62
     0
 10
-6.090596
 20
1.799104
 30
0.0
 40
0.12
  0
LINE
  5
47E
  8
0
  6
BYBLOCK
 62
     0
 10
-6.20625
 20
1.767104
 30
0.0
 11
-5.974941
 21
1.767104
 31
0.0
  0
LINE
  5
47F
  8
0
  6
BYBLOCK
 62
     0
 10
-6.20625
 20
1.831104
 30
0.0
 11
-5.974941
 21
1.831104
 31
0.0
  0
LINE
  5
480
  8
0
  6
BYBLOCK
 62
     0
 10
-5.660238
 20
0.848891
 30
0.0
 11
-5.742172
 21
1.083358
 31
0.0
  0
ARC
  5
481
  8
0
  6
BYBLOCK
 62
     0
 10
-5.835608
 20
1.008061
 30
0.0
 40
0.06
 50
38.864377
 51
90.0
  0
ARC
  5
482
  8
0
  6
BYBLOCK
 62
     0
 10
-5.835608
 20
1.008061
 30
0.0
 40
0.12
 50
38.864377
 51
90.0
  0
LINE
  5
483
  8
0
  6
BYBLOCK
 62
     0
 10
-5.714082
 20
0.835415
 30
0.0
 11
-5.78889
 21
1.045709
 31
0.0
  0
LINE
  5
484
  8
0
  6
BYBLOCK
 62
     0
 10
-5.908096
 20
0.949104
 30
0.0
 11
-5.908096
 21
1.199104
 31
0.0
  0
LINE
  5
485
  8
0
  6
BYBLOCK
 62
     0
 10
-6.528096
 20
1.128061
 30
0.0
 11
-6.528096
 21
1.068061
 31
0.0
  0
LINE
  5
486
  8
0
  6
BYBLOCK
 62
     0
 10
-6.468096
 20
0.949104
 30
0.0
 11
-6.468096
 21
1.199104
 31
0.0
  0
LINE
  5
487
  8
0
  6
BYBLOCK
 62
     0
 10
-5.835608
 20
1.068061
 30
0.0
 11
-6.528096
 21
1.068061
 31
0.0
  0
LINE
  5
488
  8
0
  6
BYBLOCK
 62
     0
 10
-5.835608
 20
1.128061
 30
0.0
 11
-6.528096
 21
1.128061
 31
0.0
  0
LINE
  5
489
  8
0
  6
BYBLOCK
 62
     0
 10
-6.20625
 20
0.581104
 30
0.0
 11
-5.974941
 21
0.581104
 31
0.0
  0
LINE
  5
48A
  8
0
  6
BYBLOCK
 62
     0
 10
-6.20625
 20
0.517104
 30
0.0
 11
-5.974941
 21
0.517104
 31
0.0
  0
CIRCLE
  5
48B
  8
0
  6
BYBLOCK
 62
     0
 10
-6.090596
 20
0.549104
 30
0.0
 40
0.12
  0
LINE
  5
48C
  8
0
  6
BYBLOCK
 62
     0
 10
-5.653096
 20
0.764104
 30
0.0
 11
-6.528096
 21
0.764104
 31
0.0
  0
LINE
  5
48D
  8
0
  6
BYBLOCK
 62
     0
 10
-6.468096
 20
0.949104
 30
0.0
 11
-5.908096
 21
0.949104
 31
0.0
  0
LINE
  5
48E
  8
0
  6
BYBLOCK
 62
     0
 10
-6.468096
 20
1.199104
 30
0.0
 11
-5.908096
 21
1.199104
 31
0.0
  0
LINE
  5
48F
  8
0
  6
BYBLOCK
 62
     0
 10
-5.84
 20
3.414104
 30
0.0
 11
-5.84
 21
5.656506
 31
0.0
  0
LINE
  5
490
  8
0
  6
BYBLOCK
 62
     0
 10
-5.84
 20
5.656506
 30
0.0
 11
-3.033344
 21
5.656506
 31
0.0
  0
LINE
  5
496
  8
0
  6
BYBLOCK
 62
     0
 10
-6.5
 20
2.694104
 30
0.0
 11
-6.5
 21
7.406694
 31
0.0
  0
LINE
  5
497
  8
0
  6
BYBLOCK
 62
     0
 10
-2.362205
 20
6.991694
 30
0.0
 11
-2.362205
 21
7.531694
 31
0.0
  0
LINE
  5
499
  8
0
  6
BYBLOCK
 62
     0
 10
-1.380284
 20
3.330651
 30
0.0
 11
1.380284
 21
3.330651
 31
0.0
  0
LINE
  5
49A
  8
0
  6
BYBLOCK
 62
     0
 10
-0.726573
 20
1.622631
 30
0.0
 11
0.726573
 21
1.622631
 31
0.0
  0
LINE
  5
49B
  8
0
  6
BYBLOCK
 62
     0
 10
-0.726573
 20
0.638054
 30
0.0
 11
0.726573
 21
0.638054
 31
0.0
  0
LINE
  5
49C
  8
0
  6
BYBLOCK
 62
     0
 10
-0.726573
 20
2.898738
 30
0.0
 11
0.726573
 21
2.898738
 31
0.0
  0
LINE
  5
49D
  8
0
  6
BYBLOCK
 62
     0
 10
-1.001493
 20
3.942023
 30
0.0
 11
1.001493
 21
3.942023
 31
0.0
  0
LINE
  5
49E
  8
0
  6
BYBLOCK
 62
     0
 10
-1.001493
 20
4.979775
 30
0.0
 11
1.001493
 21
4.979775
 31
0.0
  0
LINE
  5
4A0
  8
0
  6
BYBLOCK
 62
     0
 10
-0.060133
 20
5.489906
 30
0.0
 11
-1.460133
 21
5.489906
 31
0.0
  0
LINE
  5
4A1
  8
0
  6
BYBLOCK
 62
     0
 10
-0.060133
 20
5.249906
 30
0.0
 11
-1.460133
 21
5.249906
 31
0.0
  0
LINE
  5
4A9
  8
0
  6
BYBLOCK
 62
     0
 10
6.5
 20
-0.733958
 30
0.0
 11
6.5
 21
-0.673958
 31
0.0
  0
ARC
  5
4AA
  8
0
  6
BYBLOCK
 62
     0
 10
5.807512
 20
-0.613958
 30
0.0
 40
0.12
 50
218.864377
 51
270.0
  0
ARC
  5
4AB
  8
0
  6
BYBLOCK
 62
     0
 10
5.807512
 20
-0.613958
 30
0.0
 40
0.06
 50
218.864377
 51
270.0
  0
LINE
  5
4AC
  8
0
  6
BYBLOCK
 62
     0
 10
5.260129
 20
-0.857311
 30
0.0
 11
5.020094
 21
-0.857311
 31
0.0
  0
ARC
  5
4AD
  8
0
  6
BYBLOCK
 62
     0
 10
5.260129
 20
-0.917324
 30
0.0
 40
0.060013
 50
0.0
 51
90.0
  0
LINE
  5
4AE
  8
0
  6
BYBLOCK
 62
     0
 10
5.632142
 20
-0.454788
 30
0.0
 11
5.714076
 21
-0.689255
 31
0.0
  0
ARC
  5
4AF
  8
0
  6
BYBLOCK
 62
     0
 10
5.752142
 20
-0.454788
 30
0.0
 40
0.12
 50
180.0
 51
218.864377
  0
LINE
  5
4B0
  8
0
  6
BYBLOCK
 62
     0
 10
5.685987
 20
-0.441313
 30
0.0
 11
5.760794
 21
-0.651606
 31
0.0
  0
ARC
  5
4B1
  8
0
  6
BYBLOCK
 62
     0
 10
5.745987
 20
-0.44715
 30
0.0
 40
0.06
 50
180.0
 51
218.864377
  0
LINE
  5
4B2
  8
0
  6
BYBLOCK
 62
     0
 10
5.807512
 20
-0.673958
 30
0.0
 11
6.5
 21
-0.673958
 31
0.0
  0
LINE
  5
4B3
  8
0
  6
BYBLOCK
 62
     0
 10
5.807512
 20
-0.733958
 30
0.0
 11
6.5
 21
-0.733958
 31
0.0
  0
LINE
  5
4B4
  8
0
  6
BYBLOCK
 62
     0
 10
5.625
 20
0.334104
 30
0.0
 11
6.5
 21
0.334104
 31
0.0
  0
LINE
  5
4B5
  8
0
  6
BYBLOCK
 62
     0
 10
6.5
 20
-3.203306
 30
0.0
 11
5.84
 21
-3.203306
 31
0.0
  0
LINE
  5
4B6
  8
0
  6
BYBLOCK
 62
     0
 10
5.320142
 20
-0.917324
 30
0.0
 11
5.320142
 21
-6.093119
 31
0.0
  0
LINE
  5
4B7
  8
0
  6
BYBLOCK
 62
     0
 10
5.84
 20
-6.093119
 30
0.0
 11
5.84
 21
-0.733958
 31
0.0
  0
ARC
  5
4B8
  8
0
  6
BYBLOCK
 62
     0
 10
2.619586
 20
-0.917324
 30
0.0
 40
0.060013
 50
90.0
 51
180.0
  0
ARC
  5
4B9
  8
0
  6
BYBLOCK
 62
     0
 10
2.788078
 20
-0.683707
 30
0.0
 40
0.17381
 50
267.21111
 51
319.191257
  0
LINE
  5
4BA
  8
0
  6
BYBLOCK
 62
     0
 10
2.619586
 20
-0.857311
 30
0.0
 11
2.779621
 21
-0.857311
 31
0.0
  0
LINE
  5
4BB
  8
0
  6
BYBLOCK
 62
     0
 10
3.213284
 20
-0.638054
 30
0.0
 11
4.666431
 21
-0.638054
 31
0.0
  0
LINE
  5
4BC
  8
0
  6
BYBLOCK
 62
     0
 10
1.320271
 20
-0.857311
 30
0.0
 11
1.080236
 21
-0.857311
 31
0.0
  0
ARC
  5
4BD
  8
0
  6
BYBLOCK
 62
     0
 10
1.320271
 20
-0.917324
 30
0.0
 40
0.060013
 50
0.0
 51
90.0
  0
ARC
  5
4BE
  8
0
  6
BYBLOCK
 62
     0
 10
1.080236
 20
-0.797298
 30
0.0
 40
0.060013
 50
180.0
 51
270.0
  0
LINE
  5
4BF
  8
0
  6
BYBLOCK
 62
     0
 10
2.244784
 20
-2.818306
 30
0.0
 11
1.694784
 21
-2.818306
 31
0.0
  0
LINE
  5
4C0
  8
0
  6
BYBLOCK
 62
     0
 10
4.434954
 20
-5.856244
 30
0.0
 11
4.434954
 21
-5.616244
 31
0.0
  0
ARC
  5
4C1
  8
0
  6
BYBLOCK
 62
     0
 10
2.987954
 20
-5.398244
 30
0.0
 40
0.047
 50
0.0
 51
90.0
  0
LINE
  5
4C2
  8
0
  6
BYBLOCK
 62
     0
 10
3.034954
 20
-6.074244
 30
0.0
 11
3.034954
 21
-5.856244
 31
0.0
  0
ARC
  5
4C3
  8
0
  6
BYBLOCK
 62
     0
 10
2.987954
 20
-6.074244
 30
0.0
 40
0.047
 50
270.0
 51
0.0
  0
LINE
  5
4C4
  8
0
  6
BYBLOCK
 62
     0
 10
3.034954
 20
-5.616244
 30
0.0
 11
3.034954
 21
-5.398244
 31
0.0
  0
LINE
  5
4C5
  8
0
  6
BYBLOCK
 62
     0
 10
3.034954
 20
-5.616244
 30
0.0
 11
4.434954
 21
-5.616244
 31
0.0
  0
LINE
  5
4C6
  8
0
  6
BYBLOCK
 62
     0
 10
3.034954
 20
-5.856244
 30
0.0
 11
4.434954
 21
-5.856244
 31
0.0
  0
ARC
  5
4C7
  8
0
  6
BYBLOCK
 62
     0
 10
1.501954
 20
-5.398244
 30
0.0
 40
0.047
 50
90.0
 51
180.0
  0
ARC
  5
4C8
  8
0
  6
BYBLOCK
 62
     0
 10
1.501954
 20
-6.074244
 30
0.0
 40
0.047
 50
180.0
 51
270.0
  0
LINE
  5
4C9
  8
0
  6
BYBLOCK
 62
     0
 10
1.375105
 20
-5.856244
 30
0.0
 11
1.375105
 21
-6.093119
 31
0.0
  0
LINE
  5
4CA
  8
0
  6
BYBLOCK
 62
     0
 10
1.454954
 20
-6.074244
 30
0.0
 11
1.454954
 21
-5.856244
 31
0.0
  0
LINE
  5
4CB
  8
0
  6
BYBLOCK
 62
     0
 10
1.454954
 20
-5.616244
 30
0.0
 11
1.454954
 21
-5.398244
 31
0.0
  0
LINE
  5
4CC
  8
0
  6
BYBLOCK
 62
     0
 10
0.054954
 20
-5.856244
 30
0.0
 11
0.054954
 21
-5.616244
 31
0.0
  0
LINE
  5
4CD
  8
0
  6
BYBLOCK
 62
     0
 10
0.054954
 20
-5.856244
 30
0.0
 11
0.054954
 21
-5.616244
 31
0.0
  0
LINE
  5
4CE
  8
0
  6
BYBLOCK
 62
     0
 10
-0.060133
 20
-5.856244
 30
0.0
 11
-0.060133
 21
-5.616244
 31
0.0
  0
LINE
  5
4CF
  8
0
  6
BYBLOCK
 62
     0
 10
-0.060133
 20
-5.856244
 30
0.0
 11
-0.060133
 21
-5.616244
 31
0.0
  0
LINE
  5
4D0
  8
0
  6
BYBLOCK
 62
     0
 10
0.054954
 20
-5.616244
 30
0.0
 11
1.454954
 21
-5.616244
 31
0.0
  0
LINE
  5
4D1
  8
0
  6
BYBLOCK
 62
     0
 10
0.054954
 20
-5.856244
 30
0.0
 11
1.454954
 21
-5.856244
 31
0.0
  0
LINE
  5
4D2
  8
0
  6
BYBLOCK
 62
     0
 10
1.501954
 20
-6.121244
 30
0.0
 11
2.987954
 21
-6.121244
 31
0.0
  0
LINE
  5
4D3
  8
0
  6
BYBLOCK
 62
     0
 10
1.501954
 20
-5.351244
 30
0.0
 11
2.987954
 21
-5.351244
 31
0.0
  0
LINE
  5
4D4
  8
0
  6
BYBLOCK
 62
     0
 10
2.077905
 20
-5.922241
 30
0.0
 11
2.450968
 21
-5.594618
 31
0.0
  0
LINE
  5
4D5
  8
0
  6
BYBLOCK
 62
     0
 10
2.038399
 20
-5.877082
 30
0.0
 11
2.41129
 21
-5.54961
 31
0.0
  0
CIRCLE
  5
4D6
  8
0
  6
BYBLOCK
 62
     0
 10
2.244954
 20
-5.736244
 30
0.0
 40
0.25
  0
CIRCLE
  5
4D7
  8
0
  6
BYBLOCK
 62
     0
 10
2.244954
 20
-5.736244
 30
0.0
 40
0.305
  0
LINE
  5
4D8
  8
0
  6
BYBLOCK
 62
     0
 10
2.559573
 20
-0.917324
 30
0.0
 11
2.559573
 21
-5.351244
 31
0.0
  0
LINE
  5
4D9
  8
0
  6
BYBLOCK
 62
     0
 10
1.380284
 20
-0.917324
 30
0.0
 11
1.380284
 21
-5.616244
 31
0.0
  0
LINE
  5
4DA
  8
0
  6
BYBLOCK
 62
     0
 10
2.559573
 20
-3.750897
 30
0.0
 11
5.320142
 21
-3.750897
 31
0.0
  0
LINE
  5
4DB
  8
0
  6
BYBLOCK
 62
     0
 10
3.032631
 20
-6.093119
 30
0.0
 11
5.84
 21
-6.093119
 31
0.0
  0
ARC
  5
4DC
  8
0
  6
BYBLOCK
 62
     0
 10
5.020094
 20
-0.797298
 30
0.0
 40
0.060013
 50
180.0
 51
270.0
  0
LINE
  5
4DD
  8
0
  6
BYBLOCK
 62
     0
 10
6.5
 20
-7.843306
 30
0.0
 11
5.130118
 21
-7.843306
 31
0.0
  0
LINE
  5
4DF
  8
0
  6
BYBLOCK
 62
     0
 10
6.0
 20
-7.843306
 30
0.0
 11
6.0
 21
-8.593306
 31
0.0
  0
LINE
  5
52F
  8
0
  6
BYBLOCK
 62
     0
 10
1.19026
 20
-9.843306
 30
0.0
 11
1.19026
 21
-6.093119
 31
0.0
  0
LINE
  5
530
  8
0
  6
BYBLOCK
 62
     0
 10
5.130118
 20
-9.843306
 30
0.0
 11
5.130118
 21
-6.093119
 31
0.0
  0
LINE
  5
531
  8
0
  6
BYBLOCK
 62
     0
 10
2.749597
 20
-9.843306
 30
0.0
 11
2.749597
 21
-6.121244
 31
0.0
  0
LINE
  5
532
  8
0
  6
BYBLOCK
 62
     0
 10
6.5
 20
-3.203306
 30
0.0
 11
6.5
 21
-7.843306
 31
0.0
  0
LINE
  5
533
  8
0
  6
BYBLOCK
 62
     0
 10
-1.320271
 20
-0.857311
 30
0.0
 11
-1.160236
 21
-0.857311
 31
0.0
  0
ARC
  5
534
  8
0
  6
BYBLOCK
 62
     0
 10
-1.320271
 20
-0.917324
 30
0.0
 40
0.060013
 50
90.0
 51
180.0
  0
ARC
  5
535
  8
0
  6
BYBLOCK
 62
     0
 10
-1.151779
 20
-0.683707
 30
0.0
 40
0.17381
 50
267.21111
 51
319.191257
  0
LINE
  5
536
  8
0
  6
BYBLOCK
 62
     0
 10
-2.619586
 20
-0.857311
 30
0.0
 11
-2.859621
 21
-0.857311
 31
0.0
  0
ARC
  5
537
  8
0
  6
BYBLOCK
 62
     0
 10
-2.619586
 20
-0.917324
 30
0.0
 40
0.060013
 50
0.0
 51
90.0
  0
LINE
  5
538
  8
0
  6
BYBLOCK
 62
     0
 10
-1.695073
 20
-2.818306
 30
0.0
 11
-2.245073
 21
-2.818306
 31
0.0
  0
ARC
  5
539
  8
0
  6
BYBLOCK
 62
     0
 10
-5.260129
 20
-0.917324
 30
0.0
 40
0.060013
 50
90.0
 51
180.0
  0
ARC
  5
53A
  8
0
  6
BYBLOCK
 62
     0
 10
-5.091637
 20
-0.683707
 30
0.0
 40
0.17381
 50
267.21111
 51
319.191257
  0
LINE
  5
53B
  8
0
  6
BYBLOCK
 62
     0
 10
-5.260129
 20
-0.857311
 30
0.0
 11
-5.100094
 21
-0.857311
 31
0.0
  0
LINE
  5
53C
  8
0
  6
BYBLOCK
 62
     0
 10
-4.666431
 20
-0.638054
 30
0.0
 11
-3.213284
 21
-0.638054
 31
0.0
  0
ARC
  5
53D
  8
0
  6
BYBLOCK
 62
     0
 10
-2.859621
 20
-0.797298
 30
0.0
 40
0.060013
 50
180.0
 51
270.0
  0
ARC
  5
53E
  8
0
  6
BYBLOCK
 62
     0
 10
-1.507133
 20
-5.398244
 30
0.0
 40
0.047
 50
0.0
 51
90.0
  0
ARC
  5
53F
  8
0
  6
BYBLOCK
 62
     0
 10
-1.507133
 20
-6.074244
 30
0.0
 40
0.047
 50
270.0
 51
0.0
  0
LINE
  5
540
  8
0
  6
BYBLOCK
 62
     0
 10
-1.460133
 20
-6.074244
 30
0.0
 11
-1.460133
 21
-5.856244
 31
0.0
  0
LINE
  5
541
  8
0
  6
BYBLOCK
 62
     0
 10
-1.380284
 20
-5.856244
 30
0.0
 11
-1.380284
 21
-6.093119
 31
0.0
  0
LINE
  5
542
  8
0
  6
BYBLOCK
 62
     0
 10
-1.460133
 20
-5.616244
 30
0.0
 11
-1.460133
 21
-5.398244
 31
0.0
  0
LINE
  5
543
  8
0
  6
BYBLOCK
 62
     0
 10
-2.043579
 20
-5.877082
 30
0.0
 11
-2.416469
 21
-5.54961
 31
0.0
  0
LINE
  5
544
  8
0
  6
BYBLOCK
 62
     0
 10
-2.083084
 20
-5.922241
 30
0.0
 11
-2.456147
 21
-5.594618
 31
0.0
  0
CIRCLE
  5
545
  8
0
  6
BYBLOCK
 62
     0
 10
-2.250133
 20
-5.736244
 30
0.0
 40
0.305
  0
CIRCLE
  5
546
  8
0
  6
BYBLOCK
 62
     0
 10
-2.250133
 20
-5.736244
 30
0.0
 40
0.25
  0
ARC
  5
547
  8
0
  6
BYBLOCK
 62
     0
 10
-2.993133
 20
-5.398244
 30
0.0
 40
0.047
 50
90.0
 51
180.0
  0
ARC
  5
548
  8
0
  6
BYBLOCK
 62
     0
 10
-2.993133
 20
-6.074244
 30
0.0
 40
0.047
 50
180.0
 51
270.0
  0
LINE
  5
549
  8
0
  6
BYBLOCK
 62
     0
 10
-3.040133
 20
-6.074244
 30
0.0
 11
-3.040133
 21
-5.856244
 31
0.0
  0
LINE
  5
54A
  8
0
  6
BYBLOCK
 62
     0
 10
-3.040133
 20
-5.616244
 30
0.0
 11
-3.040133
 21
-5.398244
 31
0.0
  0
LINE
  5
54B
  8
0
  6
BYBLOCK
 62
     0
 10
-4.440133
 20
-5.856244
 30
0.0
 11
-4.440133
 21
-5.616244
 31
0.0
  0
LINE
  5
54C
  8
0
  6
BYBLOCK
 62
     0
 10
-3.040133
 20
-5.856244
 30
0.0
 11
-4.440133
 21
-5.856244
 31
0.0
  0
LINE
  5
54D
  8
0
  6
BYBLOCK
 62
     0
 10
-3.040133
 20
-5.616244
 30
0.0
 11
-4.440133
 21
-5.616244
 31
0.0
  0
LINE
  5
54E
  8
0
  6
BYBLOCK
 62
     0
 10
-5.320142
 20
-3.750897
 30
0.0
 11
-2.559573
 21
-3.750897
 31
0.0
  0
LINE
  5
54F
  8
0
  6
BYBLOCK
 62
     0
 10
-1.507133
 20
-5.351244
 30
0.0
 11
-2.993133
 21
-5.351244
 31
0.0
  0
LINE
  5
550
  8
0
  6
BYBLOCK
 62
     0
 10
-1.507133
 20
-6.121244
 30
0.0
 11
-2.993133
 21
-6.121244
 31
0.0
  0
LINE
  5
551
  8
0
  6
BYBLOCK
 62
     0
 10
-2.559573
 20
-0.917324
 30
0.0
 11
-2.559573
 21
-5.351244
 31
0.0
  0
LINE
  5
552
  8
0
  6
BYBLOCK
 62
     0
 10
-5.320142
 20
-0.917324
 30
0.0
 11
-5.320142
 21
-6.093119
 31
0.0
  0
LINE
  5
553
  8
0
  6
BYBLOCK
 62
     0
 10
-1.380284
 20
-0.917324
 30
0.0
 11
-1.380284
 21
-5.616244
 31
0.0
  0
LINE
  5
554
  8
0
  6
BYBLOCK
 62
     0
 10
-5.653096
 20
0.334104
 30
0.0
 11
-6.528096
 21
0.334104
 31
0.0
  0
LINE
  5
555
  8
0
  6
BYBLOCK
 62
     0
 10
-5.660238
 20
-0.454788
 30
0.0
 11
-5.742172
 21
-0.689255
 31
0.0
  0
ARC
  5
556
  8
0
  6
BYBLOCK
 62
     0
 10
-5.835608
 20
-0.613958
 30
0.0
 40
0.06
 50
270.0
 51
321.135623
  0
ARC
  5
557
  8
0
  6
BYBLOCK
 62
     0
 10
-5.835608
 20
-0.613958
 30
0.0
 40
0.12
 50
270.0
 51
321.135623
  0
ARC
  5
558
  8
0
  6
BYBLOCK
 62
     0
 10
-5.780238
 20
-0.454788
 30
0.0
 40
0.12
 50
321.135623
 51
0.0
  0
LINE
  5
559
  8
0
  6
BYBLOCK
 62
     0
 10
-6.528096
 20
-0.733958
 30
0.0
 11
-6.528096
 21
-0.673958
 31
0.0
  0
LINE
  5
55A
  8
0
  6
BYBLOCK
 62
     0
 10
-5.835608
 20
-0.733958
 30
0.0
 11
-6.528096
 21
-0.733958
 31
0.0
  0
LINE
  5
55B
  8
0
  6
BYBLOCK
 62
     0
 10
-5.835608
 20
-0.673958
 30
0.0
 11
-6.528096
 21
-0.673958
 31
0.0
  0
LINE
  5
55C
  8
0
  6
BYBLOCK
 62
     0
 10
-5.714082
 20
-0.441313
 30
0.0
 11
-5.78889
 21
-0.651606
 31
0.0
  0
ARC
  5
55D
  8
0
  6
BYBLOCK
 62
     0
 10
-5.774082
 20
-0.44715
 30
0.0
 40
0.06
 50
321.135623
 51
0.0
  0
LINE
  5
55E
  8
0
  6
BYBLOCK
 62
     0
 10
-6.5
 20
-3.203306
 30
0.0
 11
-5.84
 21
-3.203306
 31
0.0
  0
ARC
  5
55F
  8
0
  6
BYBLOCK
 62
     0
 10
-6.084563
 20
-4.27972
 30
0.0
 40
0.244563
 50
310.417438
 51
49.582562
  0
ARC
  5
560
  8
0
  6
BYBLOCK
 62
     0
 10
-6.150998
 20
-4.27972
 30
0.0
 40
0.244563
 50
130.417438
 51
229.582562
  0
LINE
  5
561
  8
0
  6
BYBLOCK
 62
     0
 10
-6.30956
 20
-4.093525
 30
0.0
 11
-5.926
 21
-4.093525
 31
0.0
  0
LINE
  5
562
  8
0
  6
BYBLOCK
 62
     0
 10
-6.30956
 20
-4.465916
 30
0.0
 11
-5.926
 21
-4.465916
 31
0.0
  0
LINE
  5
563
  8
0
  6
BYBLOCK
 62
     0
 10
-6.30956
 20
-5.210697
 30
0.0
 11
-5.926
 21
-5.210697
 31
0.0
  0
LINE
  5
564
  8
0
  6
BYBLOCK
 62
     0
 10
-6.30956
 20
-5.583088
 30
0.0
 11
-5.926
 21
-5.583088
 31
0.0
  0
ARC
  5
565
  8
0
  6
BYBLOCK
 62
     0
 10
-6.084563
 20
-5.396893
 30
0.0
 40
0.244563
 50
310.417438
 51
49.582562
  0
ARC
  5
566
  8
0
  6
BYBLOCK
 62
     0
 10
-6.150998
 20
-5.396893
 30
0.0
 40
0.244563
 50
130.417438
 51
229.582562
  0
LINE
  5
567
  8
0
  6
BYBLOCK
 62
     0
 10
-5.84
 20
-5.396893
 30
0.0
 11
-5.84
 21
-4.27972
 31
0.0
  0
ARC
  5
568
  8
0
  6
BYBLOCK
 62
     0
 10
-6.68925
 20
-4.838306
 30
0.0
 40
0.84925
 50
333.992176
 51
26.007824
  0
ARC
  5
569
  8
0
  6
BYBLOCK
 62
     0
 10
-5.54631
 20
-4.838306
 30
0.0
 40
0.84925
 50
153.992176
 51
206.007824
  0
LINE
  5
56A
  8
0
  6
BYBLOCK
 62
     0
 10
-6.39556
 20
-5.396893
 30
0.0
 11
-6.39556
 21
-4.27972
 31
0.0
  0
LINE
  5
56B
  8
0
  6
BYBLOCK
 62
     0
 10
-5.84
 20
-6.093119
 30
0.0
 11
-5.84
 21
-0.733958
 31
0.0
  0
LINE
  5
56C
  8
0
  6
BYBLOCK
 62
     0
 10
-5.84
 20
-6.093119
 30
0.0
 11
-3.032522
 21
-6.093119
 31
0.0
  0
LINE
  5
58A
  8
0
  6
BYBLOCK
 62
     0
 10
5.130118
 20
-9.843306
 30
0.0
 11
2.749597
 21
-9.843306
 31
0.0
  0
LINE
  5
5B4
  8
0
  6
BYBLOCK
 62
     0
 10
-6.0
 20
-7.843306
 30
0.0
 11
-6.0
 21
-8.593306
 31
0.0
  0
LINE
  5
5B5
  8
0
  6
BYBLOCK
 62
     0
 10
-6.5
 20
-7.843306
 30
0.0
 11
-5.130118
 21
-7.843306
 31
0.0
  0
LINE
  5
5B6
  8
0
  6
BYBLOCK
 62
     0
 10
6.0
 20
-8.593306
 30
0.0
 11
5.130118
 21
-8.593306
 31
0.0
  0
LINE
  5
5B7
  8
0
  6
BYBLOCK
 62
     0
 10
-6.5
 20
-3.203306
 30
0.0
 11
-6.5
 21
-7.843306
 31
0.0
  0
LINE
  5
5B8
  8
0
  6
BYBLOCK
 62
     0
 10
-5.130118
 20
-9.843306
 30
0.0
 11
-5.130118
 21
-6.093119
 31
0.0
  0
LINE
  5
5B9
  8
0
  6
BYBLOCK
 62
     0
 10
-2.749597
 20
-9.843306
 30
0.0
 11
-2.749597
 21
-6.121244
 31
0.0
  0
LINE
  5
5BA
  8
0
  6
BYBLOCK
 62
     0
 10
-1.19026
 20
-9.843306
 30
0.0
 11
-1.19026
 21
-6.093119
 31
0.0
  0
LINE
  5
5BF
  8
0
  6
BYBLOCK
 62
     0
 10
-1.380284
 20
-3.750897
 30
0.0
 11
1.380284
 21
-3.750897
 31
0.0
  0
LINE
  5
5C0
  8
0
  6
BYBLOCK
 62
     0
 10
-1.468004
 20
-6.093119
 30
0.0
 11
1.462825
 21
-6.093119
 31
0.0
  0
LINE
  5
5C1
  8
0
  6
BYBLOCK
 62
     0
 10
-0.060133
 20
-5.616244
 30
0.0
 11
-1.460133
 21
-5.616244
 31
0.0
  0
LINE
  5
5C2
  8
0
  6
BYBLOCK
 62
     0
 10
-0.060133
 20
-5.856244
 30
0.0
 11
-1.460133
 21
-5.856244
 31
0.0
  0
LINE
  5
5C3
  8
0
  6
BYBLOCK
 62
     0
 10
-0.726573
 20
-0.638054
 30
0.0
 11
0.726573
 21
-0.638054
 31
0.0
  0
LINE
  5
5C8
  8
0
  6
BYBLOCK
 62
     0
 10
-5.714082
 20
0.841253
 30
0.0
 11
-5.714082
 21
-0.441313
 31
0.0
  0
LINE
  5
5C9
  8
0
  6
BYBLOCK
 62
     0
 10
-5.714082
 20
-0.44715
 30
0.0
 11
-5.714082
 21
0.835415
 31
0.0
  0
LINE
  5
5CA
  8
0
  6
BYBLOCK
 62
     0
 10
-5.660238
 20
-0.454788
 30
0.0
 11
-5.660238
 21
0.848891
 31
0.0
  0
LINE
  5
5CB
  8
0
  6
BYBLOCK
 62
     0
 10
-4.960081
 20
0.803052
 30
0.0
 11
-4.960081
 21
-0.797298
 31
0.0
  0
LINE
  5
5CC
  8
0
  6
BYBLOCK
 62
     0
 10
-4.666431
 20
0.638054
 30
0.0
 11
-4.666431
 21
-0.638054
 31
0.0
  0
LINE
  5
5CD
  8
0
  6
BYBLOCK
 62
     0
 10
-1.695073
 20
2.381694
 30
0.0
 11
-1.695073
 21
-2.818306
 31
0.0
  0
LINE
  5
5CE
  8
0
  6
BYBLOCK
 62
     0
 10
-2.245073
 20
2.381694
 30
0.0
 11
-2.245073
 21
-2.818306
 31
0.0
  0
LINE
  5
5CF
  8
0
  6
BYBLOCK
 62
     0
 10
-3.213284
 20
0.638054
 30
0.0
 11
-3.213284
 21
-0.638054
 31
0.0
  0
LINE
  5
5D0
  8
0
  6
BYBLOCK
 62
     0
 10
-2.919634
 20
0.803052
 30
0.0
 11
-2.919634
 21
-0.797298
 31
0.0
  0
LINE
  5
5D1
  8
0
  6
BYBLOCK
 62
     0
 10
1.694784
 20
2.381694
 30
0.0
 11
1.694784
 21
-2.818306
 31
0.0
  0
LINE
  5
5D2
  8
0
  6
BYBLOCK
 62
     0
 10
-0.726573
 20
0.638054
 30
0.0
 11
-0.726573
 21
-0.638054
 31
0.0
  0
LINE
  5
5D3
  8
0
  6
BYBLOCK
 62
     0
 10
-1.020223
 20
0.803052
 30
0.0
 11
-1.020223
 21
-0.797298
 31
0.0
  0
LINE
  5
5D4
  8
0
  6
BYBLOCK
 62
     0
 10
0.726573
 20
0.638054
 30
0.0
 11
0.726573
 21
-0.638054
 31
0.0
  0
LINE
  5
5D5
  8
0
  6
BYBLOCK
 62
     0
 10
1.020223
 20
0.803052
 30
0.0
 11
1.020223
 21
-0.797298
 31
0.0
  0
LINE
  5
5D6
  8
0
  6
BYBLOCK
 62
     0
 10
2.244784
 20
2.381694
 30
0.0
 11
2.244784
 21
-2.818306
 31
0.0
  0
LINE
  5
5D7
  8
0
  6
BYBLOCK
 62
     0
 10
4.666431
 20
0.638054
 30
0.0
 11
4.666431
 21
-0.638054
 31
0.0
  0
LINE
  5
5D8
  8
0
  6
BYBLOCK
 62
     0
 10
4.960081
 20
0.803052
 30
0.0
 11
4.960081
 21
-0.797298
 31
0.0
  0
LINE
  5
5D9
  8
0
  6
BYBLOCK
 62
     0
 10
5.632142
 20
-0.454788
 30
0.0
 11
5.632142
 21
0.848891
 31
0.0
  0
LINE
  5
5DA
  8
0
  6
BYBLOCK
 62
     0
 10
5.685987
 20
-0.44715
 30
0.0
 11
5.685987
 21
0.835415
 31
0.0
  0
LINE
  5
5DB
  8
0
  6
BYBLOCK
 62
     0
 10
5.685987
 20
0.841253
 30
0.0
 11
5.685987
 21
-0.441313
 31
0.0
  0
LINE
  5
5DC
  8
0
  6
BYBLOCK
 62
     0
 10
2.919634
 20
0.803052
 30
0.0
 11
2.919634
 21
-0.797298
 31
0.0
  0
LINE
  5
5DD
  8
0
  6
BYBLOCK
 62
     0
 10
3.213284
 20
0.638054
 30
0.0
 11
3.213284
 21
-0.638054
 31
0.0
  0
LINE
  5
5DE
  8
0
  6
BYBLOCK
 62
     0
 10
-5.653096
 20
0.334104
 30
0.0
 11
-5.653096
 21
2.694104
 31
0.0
  0
LINE
  5
5DF
  8
0
  6
BYBLOCK
 62
     0
 10
-6.528096
 20
0.334104
 30
0.0
 11
-6.528096
 21
2.694104
 31
0.0
  0
LINE
  5
5E0
  8
0
  6
BYBLOCK
 62
     0
 10
5.625
 20
0.334104
 30
0.0
 11
5.625
 21
2.694104
 31
0.0
  0
LINE
  5
5E1
  8
0
  6
BYBLOCK
 62
     0
 10
6.5
 20
0.334104
 30
0.0
 11
6.5
 21
2.694104
 31
0.0
  0
LINE
  5
5FA
  8
0
  6
BYBLOCK
 62
     0
 10
-5.130118
 20
9.427678
 30
0.0
 11
-2.749597
 21
9.427678
 31
0.0
  0
LINE
  5
5FB
  8
0
  6
BYBLOCK
 62
     0
 10
-1.19026
 20
9.427678
 30
0.0
 11
1.19026
 21
9.427678
 31
0.0
  0
LINE
  5
5FC
  8
0
  6
BYBLOCK
 62
     0
 10
2.749597
 20
9.427678
 30
0.0
 11
5.130118
 21
9.427678
 31
0.0
  0
LINE
  5
5FD
  8
0
  6
BYBLOCK
 62
     0
 10
-5.130118
 20
7.906694
 30
0.0
 11
-6.0
 21
7.906694
 31
0.0
  0
LINE
  5
5FE
  8
0
  6
BYBLOCK
 62
     0
 10
-1.19026
 20
7.906694
 30
0.0
 11
-2.749597
 21
7.906694
 31
0.0
  0
LINE
  5
600
  8
0
  6
BYBLOCK
 62
     0
 10
5.130118
 20
7.406694
 30
0.0
 11
6.5
 21
7.406694
 31
0.0
  0
LINE
  5
601
  8
0
  6
BYBLOCK
 62
     0
 10
2.749597
 20
7.906694
 30
0.0
 11
1.19026
 21
7.906694
 31
0.0
  0
CIRCLE
  5
603
  8
0
 62
     1
 10
-2.362205
 20
7.261694
 30
0.0
 40
0.275
  0
CIRCLE
  5
604
  8
0
 62
     1
 10
2.362205
 20
7.261694
 30
0.0
 40
0.275
  0
LINE
  5
605
  8
0
  6
BYBLOCK
 62
     0
 10
-2.749597
 20
-9.843306
 30
0.0
 11
-5.130118
 21
-9.843306
 31
0.0
  0
LINE
  5
606
  8
0
  6
BYBLOCK
 62
     0
 10
1.19026
 20
-9.843306
 30
0.0
 11
-1.19026
 21
-9.843306
 31
0.0
  0
LINE
  5
607
  8
0
  6
BYBLOCK
 62
     0
 10
-5.130118
 20
-8.593306
 30
0.0
 11
-6.0
 21
-8.593306
 31
0.0
  0
LINE
  5
608
  8
0
  6
BYBLOCK
 62
     0
 10
-1.19026
 20
-8.593306
 30
0.0
 11
-2.749597
 21
-8.593306
 31
0.0
  0
LINE
  5
609
  8
0
  6
BYBLOCK
 62
     0
 10
2.749597
 20
-8.593306
 30
0.0
 11
1.19026
 21
-8.593306
 31
0.0
  0
LINE
  5
60F
  8
0
  6
BYBLOCK
 62
     0
 10
-4.223213
 20
8.443426
 30
0.0
 11
-3.262801
 21
8.443426
 31
0.0
  0
LINE
  5
610
  8
0
  6
BYBLOCK
 62
     0
 10
-3.743007
 20
7.96322
 30
0.0
 11
-3.743007
 21
8.923632
 31
0.0
  0
CIRCLE
  5
618
  8
0
 10
-3.743007
 20
8.443426
 30
0.0
 40
0.334646
  0
CIRCLE
  5
619
  8
0
 10
-4.136708
 20
6.868623
 30
0.0
 40
0.334646
  0
CIRCLE
  5
61A
  8
0
 10
0.19685
 20
8.443426
 30
0.0
 40
0.334646
  0
CIRCLE
  5
61B
  8
0
 10
-0.19685
 20
6.868623
 30
0.0
 40
0.334646
  0
LINE
  5
61C
  8
0
  6
BYBLOCK
 62
     0
 10
-4.136708
 20
6.388417
 30
0.0
 11
-4.136708
 21
7.348829
 31
0.0
  0
LINE
  5
61D
  8
0
  6
BYBLOCK
 62
     0
 10
-4.616914
 20
6.868623
 30
0.0
 11
-3.656502
 21
6.868623
 31
0.0
  0
LINE
  5
61E
  8
0
  6
BYBLOCK
 62
     0
 10
-0.19685
 20
6.388417
 30
0.0
 11
-0.19685
 21
7.348829
 31
0.0
  0
LINE
  5
61F
  8
0
  6
BYBLOCK
 62
     0
 10
-0.677056
 20
6.868623
 30
0.0
 11
0.283355
 21
6.868623
 31
0.0
  0
LINE
  5
620
  8
0
  6
BYBLOCK
 62
     0
 10
0.19685
 20
7.96322
 30
0.0
 11
0.19685
 21
8.923632
 31
0.0
  0
LINE
  5
621
  8
0
  6
BYBLOCK
 62
     0
 10
-0.283355
 20
8.443426
 30
0.0
 11
0.677056
 21
8.443426
 31
0.0
  0
LINE
  5
622
  8
0
  6
BYBLOCK
 62
     0
 10
3.743007
 20
6.388417
 30
0.0
 11
3.743007
 21
7.348829
 31
0.0
  0
CIRCLE
  5
623
  8
0
 10
3.743007
 20
6.868623
 30
0.0
 40
0.334646
  0
LINE
  5
624
  8
0
  6
BYBLOCK
 62
     0
 10
3.262801
 20
6.868623
 30
0.0
 11
4.223213
 21
6.868623
 31
0.0
  0
LINE
  5
625
  8
0
  6
BYBLOCK
 62
     0
 10
3.656502
 20
8.443426
 30
0.0
 11
4.616914
 21
8.443426
 31
0.0
  0
LINE
  5
626
  8
0
  6
BYBLOCK
 62
     0
 10
4.136708
 20
7.96322
 30
0.0
 11
4.136708
 21
8.923632
 31
0.0
  0
CIRCLE
  5
627
  8
0
 10
4.136708
 20
8.443426
 30
0.0
 40
0.334646
  0
LINE
  5
643
  8
0
  6
BYBLOCK
 62
     0
 10
-3.656502
 20
-8.859054
 30
0.0
 11
-4.616914
 21
-8.859054
 31
0.0
  0
CIRCLE
  5
644
  8
0
 10
-4.136708
 20
-8.859054
 30
0.0
 40
0.334646
  0
LINE
  5
645
  8
0
  6
BYBLOCK
 62
     0
 10
-4.136708
 20
-8.378849
 30
0.0
 11
-4.136708
 21
-9.33926
 31
0.0
  0
LINE
  5
646
  8
0
  6
BYBLOCK
 62
     0
 10
-3.262801
 20
-7.284251
 30
0.0
 11
-4.223213
 21
-7.284251
 31
0.0
  0
LINE
  5
647
  8
0
  6
BYBLOCK
 62
     0
 10
-3.743007
 20
-6.804046
 30
0.0
 11
-3.743007
 21
-7.764457
 31
0.0
  0
CIRCLE
  5
648
  8
0
 10
-3.743007
 20
-7.284251
 30
0.0
 40
0.334646
  0
LINE
  5
649
  8
0
  6
BYBLOCK
 62
     0
 10
0.283355
 20
-8.859054
 30
0.0
 11
-0.677056
 21
-8.859054
 31
0.0
  0
CIRCLE
  5
64A
  8
0
 10
-0.19685
 20
-8.859054
 30
0.0
 40
0.334646
  0
LINE
  5
64B
  8
0
  6
BYBLOCK
 62
     0
 10
-0.19685
 20
-8.378849
 30
0.0
 11
-0.19685
 21
-9.33926
 31
0.0
  0
LINE
  5
64C
  8
0
  6
BYBLOCK
 62
     0
 10
0.677056
 20
-7.284251
 30
0.0
 11
-0.283355
 21
-7.284251
 31
0.0
  0
LINE
  5
64D
  8
0
  6
BYBLOCK
 62
     0
 10
0.19685
 20
-6.804046
 30
0.0
 11
0.19685
 21
-7.764457
 31
0.0
  0
CIRCLE
  5
64E
  8
0
 10
0.19685
 20
-7.284251
 30
0.0
 40
0.334646
  0
LINE
  5
64F
  8
0
  6
BYBLOCK
 62
     0
 10
4.223213
 20
-8.859054
 30
0.0
 11
3.262801
 21
-8.859054
 31
0.0
  0
CIRCLE
  5
650
  8
0
 10
3.743007
 20
-8.859054
 30
0.0
 40
0.334646
  0
LINE
  5
651
  8
0
  6
BYBLOCK
 62
     0
 10
3.743007
 20
-8.378849
 30
0.0
 11
3.743007
 21
-9.33926
 31
0.0
  0
LINE
  5
652
  8
0
  6
BYBLOCK
 62
     0
 10
4.616914
 20
-7.284251
 30
0.0
 11
3.656502
 21
-7.284251
 31
0.0
  0
LINE
  5
653
  8
0
  6
BYBLOCK
 62
     0
 10
4.136708
 20
-6.804046
 30
0.0
 11
4.136708
 21
-7.764457
 31
0.0
  0
CIRCLE
  5
654
  8
0
 10
4.136708
 20
-7.284251
 30
0.0
 40
0.334646
  0
LINE
  5
69E
  8
0
  6
BYBLOCK
 62
     0
 10
-2.362205
 20
-7.968306
 30
0.0
 11
-2.362205
 21
-7.428306
 31
0.0
  0
CIRCLE
  5
69F
  8
0
 62
     1
 10
-2.362205
 20
-7.698306
 30
0.0
 40
0.275
  0
LINE
  5
6A0
  8
0
  6
BYBLOCK
 62
     0
 10
-2.632205
 20
-7.698306
 30
0.0
 11
-2.092205
 21
-7.698306
 31
0.0
  0
LINE
  5
6A1
  8
0
  6
BYBLOCK
 62
     0
 10
2.362205
 20
-7.968306
 30
0.0
 11
2.362205
 21
-7.428306
 31
0.0
  0
CIRCLE
  5
6A2
  8
0
 62
     1
 10
2.362205
 20
-7.698306
 30
0.0
 40
0.275
  0
LINE
  5
6A3
  8
0
  6
BYBLOCK
 62
     0
 10
2.092205
 20
-7.698306
 30
0.0
 11
2.632205
 21
-7.698306
 31
0.0
  0
LINE
  5
7EC
  8
0
  6
BYBLOCK
 62
     0
 10
12.635144
 20
2.878893
 30
0.0
 11
12.543957
 21
3.128893
 31
0.0
  0
LINE
  5
7ED
  8
0
  6
BYBLOCK
 62
     0
 10
11.903222
 20
5.419219
 30
0.0
 11
12.72
 21
5.419219
 31
0.0
  0
LINE
  5
7EE
  8
0
  6
BYBLOCK
 62
     0
 10
11.903222
 20
5.179219
 30
0.0
 11
12.72
 21
5.179219
 31
0.0
  0
LINE
  5
7EF
  8
0
  6
BYBLOCK
 62
     0
 10
12.25
 20
2.717773
 30
0.0
 11
12.75
 21
2.717773
 31
0.0
  0
LINE
  5
7F0
  8
0
  6
BYBLOCK
 62
     0
 10
12.25
 20
1.347773
 30
0.0
 11
12.75
 21
1.347773
 31
0.0
  0
LINE
  5
7F1
  8
0
  6
BYBLOCK
 62
     0
 10
11.875
 20
1.222773
 30
0.0
 11
12.75
 21
1.222773
 31
0.0
  0
LINE
  5
7F2
  8
0
  6
BYBLOCK
 62
     0
 10
11.875
 20
0.972773
 30
0.0
 11
12.75
 21
0.972773
 31
0.0
  0
LINE
  5
7F3
  8
0
  6
BYBLOCK
 62
     0
 10
12.25
 20
0.787773
 30
0.0
 11
12.75
 21
0.787773
 31
0.0
  0
LINE
  5
7F4
  8
0
  6
BYBLOCK
 62
     0
 10
11.546875
 20
3.341719
 30
0.0
 11
12.579
 21
3.341719
 31
0.0
  0
LINE
  5
7F5
  8
0
  6
BYBLOCK
 62
     0
 10
12.635144
 20
2.878893
 30
0.0
 11
12.522409
 21
2.837773
 31
0.0
  0
LINE
  5
7F6
  8
0
  6
BYBLOCK
 62
     0
 10
11.903222
 20
4.994219
 30
0.0
 11
12.625875
 21
4.994219
 31
0.0
  0
LINE
  5
7F7
  8
0
  6
BYBLOCK
 62
     0
 10
11.903222
 20
5.604219
 30
0.0
 11
12.625875
 21
5.604219
 31
0.0
  0
LINE
  5
7F8
  8
0
  6
BYBLOCK
 62
     0
 10
12.140222
 20
-5.616531
 30
0.0
 11
12.75
 21
-5.616531
 31
0.0
  0
LINE
  5
7F9
  8
0
  6
BYBLOCK
 62
     0
 10
11.933222
 20
-5.616531
 30
0.0
 11
12.75
 21
-5.616531
 31
0.0
  0
LINE
  5
7FA
  8
0
  6
BYBLOCK
 62
     0
 10
12.140222
 20
-5.856531
 30
0.0
 11
12.75
 21
-5.856531
 31
0.0
  0
LINE
  5
7FB
  8
0
  6
BYBLOCK
 62
     0
 10
11.933222
 20
-5.856531
 30
0.0
 11
12.75
 21
-5.856531
 31
0.0
  0
LINE
  5
7FC
  8
0
  6
BYBLOCK
 62
     0
 10
11.933222
 20
-6.041531
 30
0.0
 11
12.625875
 21
-6.041531
 31
0.0
  0
LINE
  5
7FD
  8
0
  6
BYBLOCK
 62
     0
 10
11.933222
 20
-5.431531
 30
0.0
 11
12.625875
 21
-5.431531
 31
0.0
  0
LINE
  5
7FE
  8
0
  6
BYBLOCK
 62
     0
 10
11.546875
 20
-3.778906
 30
0.0
 11
12.579
 21
-3.778906
 31
0.0
  0
LINE
  5
7FF
  8
0
  6
BYBLOCK
 62
     0
 10
12.25
 20
0.357773
 30
0.0
 11
15.53
 21
0.357773
 31
0.0
  0
LINE
  5
800
  8
0
  6
BYBLOCK
 62
     0
 10
11.5
 20
-1.80741
 30
0.0
 11
18.59
 21
-1.80741
 31
0.0
  0
LINE
  5
801
  8
0
  6
BYBLOCK
 62
     0
 10
11.875
 20
-0.674245
 30
0.0
 11
11.875
 21
0.512773
 31
0.0
  0
LINE
  5
802
  8
0
  6
BYBLOCK
 62
     0
 10
11.5
 20
3.294844
 30
0.0
 11
11.5
 21
-3.732031
 31
0.0
  0
LINE
  5
803
  8
0
  6
BYBLOCK
 62
     0
 10
12.25
 20
0.357773
 30
0.0
 11
12.25
 21
0.787773
 31
0.0
  0
LINE
  5
804
  8
0
  6
BYBLOCK
 62
     0
 10
12.19
 20
0.452773
 30
0.0
 11
12.19
 21
0.692773
 31
0.0
  0
LINE
  5
805
  8
0
  6
BYBLOCK
 62
     0
 10
11.87
 20
0.452773
 30
0.0
 11
11.87
 21
0.692773
 31
0.0
  0
LINE
  5
806
  8
0
  6
BYBLOCK
 62
     0
 10
11.75
 20
0.452773
 30
0.0
 11
11.75
 21
0.540773
 31
0.0
  0
LINE
  5
807
  8
0
  6
BYBLOCK
 62
     0
 10
11.757222
 20
-6.121531
 30
0.0
 11
11.933222
 21
-6.121531
 31
0.0
  0
LINE
  5
808
  8
0
  6
BYBLOCK
 62
     0
 10
11.757222
 20
-5.351531
 30
0.0
 11
11.933222
 21
-5.351531
 31
0.0
  0
LINE
  5
809
  8
0
  6
BYBLOCK
 62
     0
 10
11.620222
 20
-5.939531
 30
0.0
 11
11.620222
 21
-5.533531
 31
0.0
  0
LINE
  5
80A
  8
0
  6
BYBLOCK
 62
     0
 10
11.710222
 20
-6.074531
 30
0.0
 11
11.710222
 21
-5.398531
 31
0.0
  0
ARC
  5
80B
  8
0
  6
BYBLOCK
 62
     0
 10
11.667222
 20
-5.939531
 30
0.0
 40
0.047
 50
180.0
 51
270.0
  0
ARC
  5
80C
  8
0
  6
BYBLOCK
 62
     0
 10
11.757222
 20
-6.074531
 30
0.0
 40
0.047
 50
180.0
 51
270.0
  0
LINE
  5
80D
  8
0
  6
BYBLOCK
 62
     0
 10
11.667222
 20
-5.986531
 30
0.0
 11
11.710222
 21
-5.986531
 31
0.0
  0
ARC
  5
80E
  8
0
  6
BYBLOCK
 62
     0
 10
11.667222
 20
-5.533531
 30
0.0
 40
0.047
 50
90.0
 51
180.0
  0
LINE
  5
80F
  8
0
  6
BYBLOCK
 62
     0
 10
11.667222
 20
-5.486531
 30
0.0
 11
11.710222
 21
-5.486531
 31
0.0
  0
ARC
  5
810
  8
0
  6
BYBLOCK
 62
     0
 10
11.757222
 20
-5.398531
 30
0.0
 40
0.047
 50
90.0
 51
180.0
  0
LINE
  5
811
  8
0
  6
BYBLOCK
 62
     0
 10
11.933222
 20
-6.121531
 30
0.0
 11
11.933222
 21
-5.351531
 31
0.0
  0
ARC
  5
812
  8
0
  6
BYBLOCK
 62
     0
 10
11.546875
 20
-3.732031
 30
0.0
 40
0.046875
 50
180.0
 51
270.0
  0
LINE
  5
813
  8
0
  6
BYBLOCK
 62
     0
 10
11.5
 20
-0.674245
 30
0.0
 11
11.875
 21
-0.674245
 31
0.0
  0
LINE
  5
814
  8
0
  6
BYBLOCK
 62
     0
 10
11.5
 20
-0.734245
 30
0.0
 11
11.875
 21
-0.734245
 31
0.0
  0
LINE
  5
815
  8
0
  6
BYBLOCK
 62
     0
 10
11.875
 20
-0.674245
 30
0.0
 11
11.875
 21
-0.734245
 31
0.0
  0
LINE
  5
816
  8
0
  6
BYBLOCK
 62
     0
 10
11.87
 20
0.452773
 30
0.0
 11
11.75
 21
0.452773
 31
0.0
  0
LINE
  5
817
  8
0
  6
BYBLOCK
 62
     0
 10
12.25
 20
0.452773
 30
0.0
 11
12.19
 21
0.452773
 31
0.0
  0
LINE
  5
818
  8
0
  6
BYBLOCK
 62
     0
 10
12.25
 20
1.347773
 30
0.0
 11
12.25
 21
2.717773
 31
0.0
  0
LINE
  5
819
  8
0
  6
BYBLOCK
 62
     0
 10
11.5
 20
1.127773
 30
0.0
 11
11.875
 21
1.127773
 31
0.0
  0
LINE
  5
81A
  8
0
  6
BYBLOCK
 62
     0
 10
11.5
 20
1.067773
 30
0.0
 11
11.875
 21
1.067773
 31
0.0
  0
LINE
  5
81B
  8
0
  6
BYBLOCK
 62
     0
 10
11.87
 20
0.692773
 30
0.0
 11
11.75
 21
0.692773
 31
0.0
  0
LINE
  5
81C
  8
0
  6
BYBLOCK
 62
     0
 10
11.782
 20
0.540773
 30
0.0
 11
11.782
 21
0.604773
 31
0.0
  0
LINE
  5
81D
  8
0
  6
BYBLOCK
 62
     0
 10
11.782
 20
0.540773
 30
0.0
 11
11.75
 21
0.540773
 31
0.0
  0
LINE
  5
81E
  8
0
  6
BYBLOCK
 62
     0
 10
11.75
 20
0.604773
 30
0.0
 11
11.75
 21
0.692773
 31
0.0
  0
LINE
  5
81F
  8
0
  6
BYBLOCK
 62
     0
 10
11.782
 20
0.604773
 30
0.0
 11
11.75
 21
0.604773
 31
0.0
  0
LINE
  5
820
  8
0
  6
BYBLOCK
 62
     0
 10
11.875
 20
0.632773
 30
0.0
 11
11.875
 21
1.154135
 31
0.0
  0
LINE
  5
821
  8
0
  6
BYBLOCK
 62
     0
 10
12.25
 20
0.692773
 30
0.0
 11
12.19
 21
0.692773
 31
0.0
  0
LINE
  5
822
  8
0
  6
BYBLOCK
 62
     0
 10
12.19
 20
0.512773
 30
0.0
 11
11.87
 21
0.512773
 31
0.0
  0
LINE
  5
823
  8
0
  6
BYBLOCK
 62
     0
 10
12.19
 20
0.632773
 30
0.0
 11
11.87
 21
0.632773
 31
0.0
  0
LINE
  5
824
  8
0
  6
BYBLOCK
 62
     0
 10
11.875
 20
0.972773
 30
0.0
 11
11.875
 21
1.222773
 31
0.0
  0
LINE
  5
825
  8
0
  6
BYBLOCK
 62
     0
 10
11.845
 20
1.067773
 30
0.0
 11
11.845
 21
1.127773
 31
0.0
  0
LINE
  5
826
  8
0
  6
BYBLOCK
 62
     0
 10
11.5
 20
1.961406
 30
0.0
 11
12.22
 21
1.961406
 31
0.0
  0
LINE
  5
827
  8
0
  6
BYBLOCK
 62
     0
 10
11.87
 20
1.702773
 30
0.0
 11
11.75
 21
1.702773
 31
0.0
  0
LINE
  5
828
  8
0
  6
BYBLOCK
 62
     0
 10
11.87
 20
1.942773
 30
0.0
 11
11.75
 21
1.942773
 31
0.0
  0
LINE
  5
829
  8
0
  6
BYBLOCK
 62
     0
 10
11.75
 20
1.854773
 30
0.0
 11
11.75
 21
1.942773
 31
0.0
  0
LINE
  5
82A
  8
0
  6
BYBLOCK
 62
     0
 10
11.75
 20
1.702773
 30
0.0
 11
11.75
 21
1.790773
 31
0.0
  0
LINE
  5
82B
  8
0
  6
BYBLOCK
 62
     0
 10
11.782
 20
1.790773
 30
0.0
 11
11.75
 21
1.790773
 31
0.0
  0
LINE
  5
82C
  8
0
  6
BYBLOCK
 62
     0
 10
11.782
 20
1.854773
 30
0.0
 11
11.75
 21
1.854773
 31
0.0
  0
LINE
  5
82D
  8
0
  6
BYBLOCK
 62
     0
 10
11.782
 20
1.790773
 30
0.0
 11
11.782
 21
1.854773
 31
0.0
  0
LINE
  5
82E
  8
0
  6
BYBLOCK
 62
     0
 10
11.87
 20
1.702773
 30
0.0
 11
11.87
 21
1.942773
 31
0.0
  0
LINE
  5
82F
  8
0
  6
BYBLOCK
 62
     0
 10
12.19
 20
1.702773
 30
0.0
 11
12.19
 21
1.942773
 31
0.0
  0
LINE
  5
830
  8
0
  6
BYBLOCK
 62
     0
 10
12.25
 20
1.702773
 30
0.0
 11
12.19
 21
1.702773
 31
0.0
  0
LINE
  5
831
  8
0
  6
BYBLOCK
 62
     0
 10
12.19
 20
1.762773
 30
0.0
 11
11.87
 21
1.762773
 31
0.0
  0
LINE
  5
832
  8
0
  6
BYBLOCK
 62
     0
 10
12.19
 20
1.882773
 30
0.0
 11
11.87
 21
1.882773
 31
0.0
  0
LINE
  5
833
  8
0
  6
BYBLOCK
 62
     0
 10
12.25
 20
1.942773
 30
0.0
 11
12.19
 21
1.942773
 31
0.0
  0
ARC
  5
834
  8
0
  6
BYBLOCK
 62
     0
 10
11.546875
 20
3.294844
 30
0.0
 40
0.046875
 50
90.0
 51
180.0
  0
LINE
  5
835
  8
0
  6
BYBLOCK
 62
     0
 10
12.522409
 20
2.837773
 30
0.0
 11
12.431223
 21
3.087773
 31
0.0
  0
LINE
  5
836
  8
0
  6
BYBLOCK
 62
     0
 10
12.543957
 20
3.128893
 30
0.0
 11
12.431223
 21
3.087773
 31
0.0
  0
LINE
  5
837
  8
0
  6
BYBLOCK
 62
     0
 10
11.590222
 20
5.096219
 30
0.0
 11
11.590222
 21
5.502219
 31
0.0
  0
LINE
  5
838
  8
0
  6
BYBLOCK
 62
     0
 10
11.680222
 20
4.961219
 30
0.0
 11
11.680222
 21
5.637219
 31
0.0
  0
LINE
  5
839
  8
0
  6
BYBLOCK
 62
     0
 10
11.903222
 20
4.914219
 30
0.0
 11
11.903222
 21
5.684219
 31
0.0
  0
LINE
  5
83A
  8
0
  6
BYBLOCK
 62
     0
 10
11.727222
 20
4.914219
 30
0.0
 11
11.903222
 21
4.914219
 31
0.0
  0
LINE
  5
83B
  8
0
  6
BYBLOCK
 62
     0
 10
11.637222
 20
5.049219
 30
0.0
 11
11.680222
 21
5.049219
 31
0.0
  0
ARC
  5
83C
  8
0
  6
BYBLOCK
 62
     0
 10
11.637222
 20
5.096219
 30
0.0
 40
0.047
 50
180.0
 51
270.0
  0
ARC
  5
83D
  8
0
  6
BYBLOCK
 62
     0
 10
11.727222
 20
4.961219
 30
0.0
 40
0.047
 50
180.0
 51
270.0
  0
LINE
  5
83E
  8
0
  6
BYBLOCK
 62
     0
 10
11.727222
 20
5.684219
 30
0.0
 11
11.903222
 21
5.684219
 31
0.0
  0
LINE
  5
83F
  8
0
  6
BYBLOCK
 62
     0
 10
11.637222
 20
5.549219
 30
0.0
 11
11.680222
 21
5.549219
 31
0.0
  0
ARC
  5
840
  8
0
  6
BYBLOCK
 62
     0
 10
11.637222
 20
5.502219
 30
0.0
 40
0.047
 50
90.0
 51
180.0
  0
ARC
  5
841
  8
0
  6
BYBLOCK
 62
     0
 10
11.727222
 20
5.637219
 30
0.0
 40
0.047
 50
90.0
 51
180.0
  0
LINE
  5
842
  8
0
  6
BYBLOCK
 62
     0
 10
24.874
 20
-9.973594
 30
0.0
 11
24.874
 21
8.026406
 31
0.0
  0
LINE
  5
843
  8
0
  6
BYBLOCK
 62
     0
 10
25.03
 20
8.026406
 30
0.0
 11
25.03
 21
-8.533594
 31
0.0
  0
LINE
  5
844
  8
0
  6
BYBLOCK
 62
     0
 10
18.59
 20
1.961406
 30
0.0
 11
18.59
 21
-1.80741
 31
0.0
  0
LINE
  5
845
  8
0
  6
BYBLOCK
 62
     0
 10
17.84
 20
7.406406
 30
0.0
 11
17.84
 21
-7.843594
 31
0.0
  0
LINE
  5
846
  8
0
  6
BYBLOCK
 62
     0
 10
15.53
 20
0.357773
 30
0.0
 11
15.53
 21
2.717773
 31
0.0
  0
LINE
  5
847
  8
0
  6
CENTER
 62
     0
 10
24.291083
 20
-7.698594
 30
0.0
 11
25.672481
 21
-7.698594
 31
0.0
  0
LINE
  5
848
  8
0
  6
BYBLOCK
 62
     0
 10
24.784
 20
-9.973594
 30
0.0
 11
21.409
 21
-9.973594
 31
0.0
  0
LINE
  5
849
  8
0
  6
BYBLOCK
 62
     0
 10
24.784
 20
-7.223594
 30
0.0
 11
21.409
 21
-7.223594
 31
0.0
  0
LINE
  5
84A
  8
0
  6
BYBLOCK
 62
     0
 10
14.5635
 20
-6.093406
 30
0.0
 11
24.874
 21
-6.093406
 31
0.0
  0
LINE
  5
84B
  8
0
  6
BYBLOCK
 62
     0
 10
16.405
 20
-6.093406
 30
0.0
 11
16.405
 21
-9.843306
 31
0.0
  0
LINE
  5
84C
  8
0
  6
BYBLOCK
 62
     0
 10
16.03
 20
-6.093406
 30
0.0
 11
16.03
 21
-9.843306
 31
0.0
  0
LINE
  5
84D
  8
0
  6
BYBLOCK
 62
     0
 10
17.78
 20
-3.203594
 30
0.0
 11
17.78
 21
-7.843594
 31
0.0
  0
LINE
  5
84E
  8
0
  6
BYBLOCK
 62
     0
 10
16.03
 20
-9.843306
 30
0.0
 11
16.405
 21
-9.843306
 31
0.0
  0
LINE
  5
84F
  8
0
  6
BYBLOCK
 62
     0
 10
17.78
 20
-7.843594
 30
0.0
 11
17.84
 21
-7.843594
 31
0.0
  0
LINE
  5
850
  8
0
  6
BYBLOCK
 62
     0
 10
20.284
 20
-9.598594
 30
0.0
 11
20.284
 21
-7.598594
 31
0.0
  0
LINE
  5
851
  8
0
  6
BYBLOCK
 62
     0
 10
21.409
 20
-9.973594
 30
0.0
 11
21.409
 21
-7.223594
 31
0.0
  0
LINE
  5
852
  8
0
  6
BYBLOCK
 62
     0
 10
21.409
 20
-9.598594
 30
0.0
 11
20.284
 21
-9.598594
 31
0.0
  0
LINE
  5
853
  8
0
  6
BYBLOCK
 62
     0
 10
21.409
 20
-7.598594
 30
0.0
 11
20.284
 21
-7.598594
 31
0.0
  0
LINE
  5
854
  8
0
  6
BYBLOCK
 62
     0
 10
17.84
 20
-1.99741
 30
0.0
 11
18.59
 21
-1.99741
 31
0.0
  0
LINE
  5
855
  8
0
  6
BYBLOCK
 62
     0
 10
15.28
 20
-1.80741
 30
0.0
 11
15.28
 21
-6.093406
 31
0.0
  0
LINE
  5
856
  8
0
  6
BYBLOCK
 62
     0
 10
12.625875
 20
-5.616531
 30
0.0
 11
12.625875
 21
-3.825781
 31
0.0
  0
LINE
  5
857
  8
0
  6
BYBLOCK
 62
     0
 10
12.67275
 20
-6.093406
 30
0.0
 11
14.5365
 21
-6.093406
 31
0.0
  0
ARC
  5
858
  8
0
  6
BYBLOCK
 62
     0
 10
12.75
 20
-5.736531
 30
0.0
 40
0.12
 50
270.0
 51
90.0
  0
ARC
  5
859
  8
0
  6
BYBLOCK
 62
     0
 10
12.67275
 20
-6.046531
 30
0.0
 40
0.046875
 50
180.0
 51
270.0
  0
LINE
  5
85A
  8
0
  6
BYBLOCK
 62
     0
 10
12.625875
 20
-6.046531
 30
0.0
 11
12.625875
 21
-5.856531
 31
0.0
  0
ARC
  5
85B
  8
0
  6
BYBLOCK
 62
     0
 10
12.579
 20
-3.825781
 30
0.0
 40
0.046875
 50
0.0
 51
90.0
  0
LINE
  5
85C
  8
0
  6
BYBLOCK
 62
     0
 10
17.28
 20
-6.593406
 30
0.0
 11
17.28
 21
-6.093406
 31
0.0
  0
LINE
  5
85D
  8
0
  6
BYBLOCK
 62
     0
 10
17.28
 20
-6.593406
 30
0.0
 11
17.78
 21
-6.593406
 31
0.0
  0
LINE
  5
85E
  8
0
  6
BYBLOCK
 62
     0
 10
17.891708
 20
-5.588844
 30
0.0
 11
18.053236
 21
-5.868619
 31
0.0
  0
LINE
  5
85F
  8
0
  6
BYBLOCK
 62
     0
 10
18.376292
 20
-5.868619
 30
0.0
 11
18.53782
 21
-5.588844
 31
0.0
  0
LINE
  5
860
  8
0
  6
BYBLOCK
 62
     0
 10
18.053236
 20
-5.868619
 30
0.0
 11
18.376292
 21
-5.868619
 31
0.0
  0
LINE
  5
861
  8
0
  6
BYBLOCK
 62
     0
 10
18.376292
 20
-5.309069
 30
0.0
 11
18.053236
 21
-5.309069
 31
0.0
  0
LINE
  5
862
  8
0
  6
BYBLOCK
 62
     0
 10
18.053236
 20
-5.309069
 30
0.0
 11
17.891708
 21
-5.588844
 31
0.0
  0
LINE
  5
863
  8
0
  6
BYBLOCK
 62
     0
 10
18.53782
 20
-5.588844
 30
0.0
 11
18.376292
 21
-5.309069
 31
0.0
  0
LINE
  5
864
  8
0
  6
BYBLOCK
 62
     0
 10
17.891708
 20
-4.088844
 30
0.0
 11
18.053236
 21
-4.368619
 31
0.0
  0
LINE
  5
865
  8
0
  6
BYBLOCK
 62
     0
 10
18.376292
 20
-4.368619
 30
0.0
 11
18.53782
 21
-4.088844
 31
0.0
  0
LINE
  5
866
  8
0
  6
BYBLOCK
 62
     0
 10
18.053236
 20
-4.368619
 30
0.0
 11
18.376292
 21
-4.368619
 31
0.0
  0
LINE
  5
867
  8
0
  6
BYBLOCK
 62
     0
 10
18.053236
 20
-3.809069
 30
0.0
 11
17.891708
 21
-4.088844
 31
0.0
  0
LINE
  5
868
  8
0
  6
BYBLOCK
 62
     0
 10
18.53782
 20
-4.088844
 30
0.0
 11
18.376292
 21
-3.809069
 31
0.0
  0
LINE
  5
869
  8
0
  6
BYBLOCK
 62
     0
 10
18.376292
 20
-3.809069
 30
0.0
 11
18.053236
 21
-3.809069
 31
0.0
  0
POINT
  5
86A
  8
0
  6
BYBLOCK
 62
     0
 10
15.53
 20
0.357773
 30
0.0
  0
LINE
  5
86B
  8
0
  6
BYBLOCK
 62
     0
 10
18.053236
 20
-1.634753
 30
0.0
 11
17.891708
 21
-1.354978
 31
0.0
  0
LINE
  5
86C
  8
0
  6
BYBLOCK
 62
     0
 10
18.53782
 20
-1.354978
 30
0.0
 11
18.376292
 21
-1.634753
 31
0.0
  0
LINE
  5
86D
  8
0
  6
BYBLOCK
 62
     0
 10
18.053236
 20
-2.309069
 30
0.0
 11
17.891708
 21
-2.588844
 31
0.0
  0
LINE
  5
86E
  8
0
  6
BYBLOCK
 62
     0
 10
18.53782
 20
-2.588844
 30
0.0
 11
18.376292
 21
-2.309069
 31
0.0
  0
LINE
  5
86F
  8
0
  6
BYBLOCK
 62
     0
 10
17.78
 20
-3.203594
 30
0.0
 11
17.84
 21
-3.203594
 31
0.0
  0
LINE
  5
870
  8
0
  6
BYBLOCK
 62
     0
 10
17.78
 20
-3.203594
 30
0.0
 11
17.84
 21
-3.203594
 31
0.0
  0
LINE
  5
871
  8
0
  6
BYBLOCK
 62
     0
 10
18.053236
 20
-2.868619
 30
0.0
 11
18.376292
 21
-2.868619
 31
0.0
  0
LINE
  5
872
  8
0
  6
BYBLOCK
 62
     0
 10
17.891708
 20
-2.588844
 30
0.0
 11
18.053236
 21
-2.868619
 31
0.0
  0
LINE
  5
873
  8
0
  6
BYBLOCK
 62
     0
 10
18.376292
 20
-2.868619
 30
0.0
 11
18.53782
 21
-2.588844
 31
0.0
  0
LINE
  5
874
  8
0
  6
BYBLOCK
 62
     0
 10
18.376292
 20
-2.309069
 30
0.0
 11
18.053236
 21
-2.309069
 31
0.0
  0
LINE
  5
875
  8
0
  6
BYBLOCK
 62
     0
 10
18.376292
 20
-1.634753
 30
0.0
 11
18.053236
 21
-1.634753
 31
0.0
  0
LINE
  5
876
  8
0
  6
BYBLOCK
 62
     0
 10
18.053236
 20
-1.075203
 30
0.0
 11
18.376292
 21
-1.075203
 31
0.0
  0
LINE
  5
877
  8
0
  6
BYBLOCK
 62
     0
 10
17.891708
 20
-1.354978
 30
0.0
 11
18.053236
 21
-1.075203
 31
0.0
  0
LINE
  5
878
  8
0
  6
BYBLOCK
 62
     0
 10
18.376292
 20
-1.075203
 30
0.0
 11
18.53782
 21
-1.354978
 31
0.0
  0
LINE
  5
879
  8
0
  6
BYBLOCK
 62
     0
 10
18.59
 20
-1.99741
 30
0.0
 11
18.59
 21
-6.093406
 31
0.0
  0
CIRCLE
  5
87A
  8
0
  6
BYBLOCK
 62
     0
 10
22.91
 20
-2.218594
 30
0.0
 40
0.3125
  0
LINE
  5
87B
  8
0
  6
BYBLOCK
 62
     0
 10
22.19
 20
-0.498594
 30
0.0
 11
23.63
 21
-0.498594
 31
0.0
  0
LINE
  5
87C
  8
0
  6
BYBLOCK
 62
     0
 10
22.19
 20
0.061406
 30
0.0
 11
23.63
 21
0.061406
 31
0.0
  0
ARC
  5
87D
  8
0
  6
BYBLOCK
 62
     0
 10
22.19
 20
-0.218594
 30
0.0
 40
0.28
 50
90.0
 51
270.0
  0
ARC
  5
87E
  8
0
  6
BYBLOCK
 62
     0
 10
23.63
 20
-0.218594
 30
0.0
 40
0.28
 50
270.0
 51
90.0
  0
LINE
  5
87F
  8
0
  6
BYBLOCK
 62
     0
 10
24.784
 20
-9.973594
 30
0.0
 11
24.784
 21
-6.353594
 31
0.0
  0
LINE
  5
880
  8
0
  6
BYBLOCK
 62
     0
 10
24.784
 20
-9.973594
 30
0.0
 11
24.874
 21
-9.973594
 31
0.0
  0
LINE
  5
881
  8
0
  6
BYBLOCK
 62
     0
 10
24.874
 20
-8.533594
 30
0.0
 11
25.03
 21
-8.533594
 31
0.0
  0
LINE
  5
882
  8
0
  6
BYBLOCK
 62
     0
 10
24.874
 20
-8.533594
 30
0.0
 11
25.03
 21
-8.533594
 31
0.0
  0
LINE
  5
883
  8
0
  6
BYBLOCK
 62
     0
 10
25.12
 20
-7.386594
 30
0.0
 11
25.12
 21
-8.010594
 31
0.0
  0
LINE
  5
884
  8
0
  6
BYBLOCK
 62
     0
 10
25.03
 20
-8.010594
 30
0.0
 11
25.12
 21
-8.010594
 31
0.0
  0
LINE
  5
885
  8
0
  6
BYBLOCK
 62
     0
 10
25.03
 20
-7.386594
 30
0.0
 11
25.12
 21
-7.386594
 31
0.0
  0
LINE
  5
886
  8
0
  6
BYBLOCK
 62
     0
 10
24.784
 20
-6.353594
 30
0.0
 11
24.874
 21
-6.353594
 31
0.0
  0
LINE
  5
887
  8
0
  6
CENTER
 62
     0
 10
24.291083
 20
7.261406
 30
0.0
 11
25.672481
 21
7.261406
 31
0.0
  0
LINE
  5
888
  8
0
  6
BYBLOCK
 62
     0
 10
24.874
 20
7.156406
 30
0.0
 11
22.749
 21
7.156406
 31
0.0
  0
LINE
  5
889
  8
0
  6
BYBLOCK
 62
     0
 10
12.672875
 20
5.656219
 30
0.0
 11
24.874
 21
5.656219
 31
0.0
  0
LINE
  5
88A
  8
0
  6
BYBLOCK
 62
     0
 10
16.03
 20
9.427678
 30
0.0
 11
16.03
 21
5.656219
 31
0.0
  0
LINE
  5
88B
  8
0
  6
BYBLOCK
 62
     0
 10
16.405
 20
9.427678
 30
0.0
 11
16.405
 21
5.656219
 31
0.0
  0
LINE
  5
88C
  8
0
  6
BYBLOCK
 62
     0
 10
15.5
 20
1.961406
 30
0.0
 11
18.59
 21
1.961406
 31
0.0
  0
LINE
  5
88D
  8
0
  6
BYBLOCK
 62
     0
 10
17.84
 20
2.151406
 30
0.0
 11
18.59
 21
2.151406
 31
0.0
  0
LINE
  5
88E
  8
0
  6
BYBLOCK
 62
     0
 10
12.625875
 20
5.179219
 30
0.0
 11
12.625875
 21
3.388594
 31
0.0
  0
LINE
  5
88F
  8
0
  6
BYBLOCK
 62
     0
 10
15.28
 20
5.656219
 30
0.0
 11
15.28
 21
2.717773
 31
0.0
  0
LINE
  5
890
  8
0
  6
BYBLOCK
 62
     0
 10
17.78
 20
7.406406
 30
0.0
 11
17.78
 21
2.766406
 31
0.0
  0
LINE
  5
891
  8
0
  6
HIDDEN
 62
     0
 10
13.25
 20
0.857773
 30
0.0
 11
14.0
 21
0.857773
 31
0.0
  0
LINE
  5
892
  8
0
  6
HIDDEN
 62
     0
 10
13.25
 20
1.107773
 30
0.0
 11
14.0
 21
1.107773
 31
0.0
  0
LINE
  5
893
  8
0
  6
BYBLOCK
 62
     0
 10
12.75
 20
0.787773
 30
0.0
 11
12.75
 21
1.347773
 31
0.0
  0
LINE
  5
894
  8
0
  6
HIDDEN
 62
     0
 10
13.25
 20
0.857773
 30
0.0
 11
13.25
 21
1.107773
 31
0.0
  0
LINE
  5
895
  8
0
  6
HIDDEN
 62
     0
 10
14.0
 20
0.857773
 30
0.0
 11
14.0
 21
1.107773
 31
0.0
  0
LINE
  5
896
  8
0
  6
BYBLOCK
 62
     0
 10
15.264
 20
0.67592
 30
0.0
 11
15.264
 21
0.539626
 31
0.0
  0
LINE
  5
897
  8
0
  6
BYBLOCK
 62
     0
 10
15.296
 20
0.67592
 30
0.0
 11
15.296
 21
0.539626
 31
0.0
  0
CIRCLE
  5
898
  8
0
  6
BYBLOCK
 62
     0
 10
15.28
 20
0.607773
 30
0.0
 40
0.07
  0
LINE
  5
899
  8
0
  6
BYBLOCK
 62
     0
 10
14.180639
 20
2.89347
 30
0.0
 11
14.067904
 21
2.934589
 31
0.0
  0
LINE
  5
89A
  8
0
  6
BYBLOCK
 62
     0
 10
14.032591
 20
2.837773
 30
0.0
 11
14.123777
 21
3.087773
 31
0.0
  0
LINE
  5
89B
  8
0
  6
BYBLOCK
 62
     0
 10
14.011043
 20
3.128893
 30
0.0
 11
14.123777
 21
3.087773
 31
0.0
  0
LINE
  5
89C
  8
0
  6
BYBLOCK
 62
     0
 10
13.805
 20
2.717773
 30
0.0
 11
15.53
 21
2.717773
 31
0.0
  0
LINE
  5
89D
  8
0
  6
BYBLOCK
 62
     0
 10
13.591087
 20
3.253893
 30
0.0
 11
13.682274
 21
3.503893
 31
0.0
  0
LINE
  5
89E
  8
0
  6
BYBLOCK
 62
     0
 10
12.963913
 20
3.253893
 30
0.0
 11
12.872726
 21
3.503893
 31
0.0
  0
LINE
  5
89F
  8
0
  6
BYBLOCK
 62
     0
 10
12.851178
 20
3.212773
 30
0.0
 11
12.759991
 21
3.462773
 31
0.0
  0
LINE
  5
8A0
  8
0
  6
BYBLOCK
 62
     0
 10
13.87243
 20
3.324837
 30
0.0
 11
13.759695
 21
3.365957
 31
0.0
  0
LINE
  5
8A1
  8
0
  6
BYBLOCK
 62
     0
 10
13.703822
 20
3.212773
 30
0.0
 11
13.795009
 21
3.462773
 31
0.0
  0
LINE
  5
8A2
  8
0
  6
BYBLOCK
 62
     0
 10
13.3075
 20
2.837773
 30
0.0
 11
13.382556
 21
2.967773
 31
0.0
  0
CIRCLE
  5
8A3
  8
0
  6
BYBLOCK
 62
     0
 10
13.274708
 20
2.467773
 30
0.0
 40
0.07
  0
LINE
  5
8A4
  8
0
  6
BYBLOCK
 62
     0
 10
12.635144
 20
2.878893
 30
0.0
 11
12.630318
 21
2.808569
 31
0.0
  0
LINE
  5
8A5
  8
0
  6
BYBLOCK
 62
     0
 10
12.604302
 20
2.867643
 30
0.0
 11
12.600388
 21
2.810624
 31
0.0
  0
LINE
  5
8A6
  8
0
  6
BYBLOCK
 62
     0
 10
12.81
 20
2.837773
 30
0.0
 11
12.885056
 21
2.967773
 31
0.0
  0
LINE
  5
8A7
  8
0
  6
BYBLOCK
 62
     0
 10
13.2475
 20
2.837773
 30
0.0
 11
13.172444
 21
2.967773
 31
0.0
  0
LINE
  5
8A8
  8
0
  6
BYBLOCK
 62
     0
 10
12.640091
 20
2.784295
 30
0.0
 11
12.694644
 21
2.73481
 31
0.0
  0
LINE
  5
8A9
  8
0
  6
BYBLOCK
 62
     0
 10
12.619935
 20
2.762075
 30
0.0
 11
12.668774
 21
2.717773
 31
0.0
  0
ARC
  5
8AA
  8
0
  6
BYBLOCK
 62
     0
 10
12.660247
 20
2.806515
 30
0.0
 40
0.03
 50
176.073815
 51
227.788462
  0
ARC
  5
8AB
  8
0
  6
BYBLOCK
 62
     0
 10
12.660247
 20
2.806515
 30
0.0
 40
0.06
 50
176.073815
 51
227.788462
  0
LINE
  5
8AC
  8
0
  6
BYBLOCK
 62
     0
 10
12.75
 20
2.587773
 30
0.0
 11
12.75
 21
2.837773
 31
0.0
  0
LINE
  5
8AD
  8
0
  6
BYBLOCK
 62
     0
 10
12.81
 20
2.587773
 30
0.0
 11
12.81
 21
2.837773
 31
0.0
  0
LINE
  5
8AE
  8
0
  6
BYBLOCK
 62
     0
 10
12.75
 20
2.587773
 30
0.0
 11
12.81
 21
2.587773
 31
0.0
  0
LINE
  5
8AF
  8
0
  6
BYBLOCK
 62
     0
 10
12.694644
 20
2.73481
 30
0.0
 11
12.698391
 21
2.717773
 31
0.0
  0
LINE
  5
8B0
  8
0
  6
BYBLOCK
 62
     0
 10
12.75
 20
2.837773
 30
0.0
 11
12.81
 21
2.837773
 31
0.0
  0
LINE
  5
8B1
  8
0
  6
BYBLOCK
 62
     0
 10
13.3075
 20
2.587773
 30
0.0
 11
13.3075
 21
2.837773
 31
0.0
  0
LINE
  5
8B2
  8
0
  6
BYBLOCK
 62
     0
 10
13.290708
 20
2.53592
 30
0.0
 11
13.290708
 21
2.399626
 31
0.0
  0
LINE
  5
8B3
  8
0
  6
BYBLOCK
 62
     0
 10
13.2475
 20
2.587773
 30
0.0
 11
13.2475
 21
2.837773
 31
0.0
  0
LINE
  5
8B4
  8
0
  6
BYBLOCK
 62
     0
 10
13.258708
 20
2.53592
 30
0.0
 11
13.258708
 21
2.399626
 31
0.0
  0
LINE
  5
8B5
  8
0
  6
BYBLOCK
 62
     0
 10
13.2475
 20
2.587773
 30
0.0
 11
13.3075
 21
2.587773
 31
0.0
  0
LINE
  5
8B6
  8
0
  6
BYBLOCK
 62
     0
 10
13.2475
 20
2.837773
 30
0.0
 11
13.3075
 21
2.837773
 31
0.0
  0
LINE
  5
8B7
  8
0
  6
BYBLOCK
 62
     0
 10
12.948704
 20
3.137075
 30
0.0
 11
12.997543
 21
3.092773
 31
0.0
  0
LINE
  5
8B8
  8
0
  6
BYBLOCK
 62
     0
 10
12.885056
 20
2.967773
 30
0.0
 11
13.172444
 21
2.967773
 31
0.0
  0
LINE
  5
8B9
  8
0
  6
BYBLOCK
 62
     0
 10
12.963913
 20
3.253893
 30
0.0
 11
12.851178
 21
3.212773
 31
0.0
  0
ARC
  5
8BA
  8
0
  6
BYBLOCK
 62
     0
 10
12.989016
 20
3.181515
 30
0.0
 40
0.06
 50
176.073815
 51
227.788462
  0
LINE
  5
8BB
  8
0
  6
BYBLOCK
 62
     0
 10
12.93307
 20
3.242643
 30
0.0
 11
12.929157
 21
3.185624
 31
0.0
  0
LINE
  5
8BC
  8
0
  6
BYBLOCK
 62
     0
 10
12.712566
 20
3.016829
 30
0.0
 11
12.599831
 21
2.975709
 31
0.0
  0
LINE
  5
8BD
  8
0
  6
BYBLOCK
 62
     0
 10
12.692006
 20
3.073196
 30
0.0
 11
12.579271
 21
3.032077
 31
0.0
  0
LINE
  5
8BE
  8
0
  6
BYBLOCK
 62
     0
 10
12.712566
 20
3.016829
 30
0.0
 11
12.692006
 21
3.073196
 31
0.0
  0
ARC
  5
8BF
  8
0
  6
BYBLOCK
 62
     0
 10
12.989016
 20
3.181515
 30
0.0
 40
0.03
 50
176.073815
 51
227.788462
  0
LINE
  5
8C0
  8
0
  6
BYBLOCK
 62
     0
 10
13.023413
 20
3.10981
 30
0.0
 11
13.054649
 21
2.967773
 31
0.0
  0
LINE
  5
8C1
  8
0
  6
BYBLOCK
 62
     0
 10
12.997543
 20
3.092773
 30
0.0
 11
13.025032
 21
2.967773
 31
0.0
  0
LINE
  5
8C2
  8
0
  6
BYBLOCK
 62
     0
 10
12.96886
 20
3.159295
 30
0.0
 11
13.023413
 21
3.10981
 31
0.0
  0
LINE
  5
8C3
  8
0
  6
BYBLOCK
 62
     0
 10
12.963913
 20
3.253893
 30
0.0
 11
12.959087
 21
3.183569
 31
0.0
  0
LINE
  5
8C4
  8
0
  6
BYBLOCK
 62
     0
 10
13.745
 20
2.837773
 30
0.0
 11
13.669944
 21
2.967773
 31
0.0
  0
LINE
  5
8C5
  8
0
  6
BYBLOCK
 62
     0
 10
13.919856
 20
2.878893
 30
0.0
 11
14.032591
 21
2.837773
 31
0.0
  0
LINE
  5
8C6
  8
0
  6
BYBLOCK
 62
     0
 10
14.032591
 20
2.837773
 30
0.0
 11
14.036504
 21
2.780754
 31
0.0
  0
LINE
  5
8C7
  8
0
  6
BYBLOCK
 62
     0
 10
14.001748
 20
2.849023
 30
0.0
 11
14.006575
 21
2.778699
 31
0.0
  0
LINE
  5
8C8
  8
0
  6
BYBLOCK
 62
     0
 10
13.805
 20
2.587773
 30
0.0
 11
13.805
 21
2.837773
 31
0.0
  0
LINE
  5
8C9
  8
0
  6
BYBLOCK
 62
     0
 10
13.745
 20
2.587773
 30
0.0
 11
13.745
 21
2.837773
 31
0.0
  0
LINE
  5
8CA
  8
0
  6
BYBLOCK
 62
     0
 10
13.745
 20
2.587773
 30
0.0
 11
13.805
 21
2.587773
 31
0.0
  0
LINE
  5
8CB
  8
0
  6
BYBLOCK
 62
     0
 10
14.016957
 20
2.732205
 30
0.0
 11
14.001047
 21
2.717773
 31
0.0
  0
ARC
  5
8CC
  8
0
  6
BYBLOCK
 62
     0
 10
13.976645
 20
2.776645
 30
0.0
 40
0.03
 50
312.211538
 51
3.926185
  0
LINE
  5
8CD
  8
0
  6
BYBLOCK
 62
     0
 10
13.996801
 20
2.754425
 30
0.0
 11
13.956396
 21
2.717773
 31
0.0
  0
LINE
  5
8CE
  8
0
  6
BYBLOCK
 62
     0
 10
13.745
 20
2.837773
 30
0.0
 11
13.805
 21
2.837773
 31
0.0
  0
ARC
  5
8CF
  8
0
  6
BYBLOCK
 62
     0
 10
13.976645
 20
2.776645
 30
0.0
 40
0.06
 50
312.211538
 51
3.926185
  0
ARC
  5
8D0
  8
0
  6
BYBLOCK
 62
     0
 10
13.647876
 20
3.151645
 30
0.0
 40
0.06
 50
312.211538
 51
3.926185
  0
LINE
  5
8D1
  8
0
  6
BYBLOCK
 62
     0
 10
13.591087
 20
3.253893
 30
0.0
 11
13.703822
 21
3.212773
 31
0.0
  0
LINE
  5
8D2
  8
0
  6
BYBLOCK
 62
     0
 10
13.672979
 20
3.224023
 30
0.0
 11
13.677806
 21
3.153699
 31
0.0
  0
ARC
  5
8D3
  8
0
  6
BYBLOCK
 62
     0
 10
13.647876
 20
3.151645
 30
0.0
 40
0.03
 50
312.211538
 51
3.926185
  0
LINE
  5
8D4
  8
0
  6
BYBLOCK
 62
     0
 10
13.688188
 20
3.107205
 30
0.0
 11
13.534478
 21
2.967773
 31
0.0
  0
LINE
  5
8D5
  8
0
  6
BYBLOCK
 62
     0
 10
13.382556
 20
2.967773
 30
0.0
 11
13.669944
 21
2.967773
 31
0.0
  0
LINE
  5
8D6
  8
0
  6
BYBLOCK
 62
     0
 10
13.668032
 20
3.129425
 30
0.0
 11
13.489827
 21
2.967773
 31
0.0
  0
LINE
  5
8D7
  8
0
  6
BYBLOCK
 62
     0
 10
13.703822
 20
3.212773
 30
0.0
 11
13.707735
 21
3.155754
 31
0.0
  0
LINE
  5
8D8
  8
0
  6
BYBLOCK
 62
     0
 10
13.919856
 20
2.878893
 30
0.0
 11
14.011043
 21
3.128893
 31
0.0
  0
LINE
  5
8D9
  8
0
  6
BYBLOCK
 62
     0
 10
13.85187
 20
3.26847
 30
0.0
 11
13.739135
 21
3.309589
 31
0.0
  0
LINE
  5
8DA
  8
0
  6
BYBLOCK
 62
     0
 10
13.85187
 20
3.26847
 30
0.0
 11
13.87243
 21
3.324837
 31
0.0
  0
LINE
  5
8DB
  8
0
  6
BYBLOCK
 62
     0
 10
13.041335
 20
3.391829
 30
0.0
 11
12.9286
 21
3.350709
 31
0.0
  0
LINE
  5
8DC
  8
0
  6
BYBLOCK
 62
     0
 10
13.020775
 20
3.448196
 30
0.0
 11
12.90804
 21
3.407077
 31
0.0
  0
ARC
  5
8DD
  8
0
  6
BYBLOCK
 62
     0
 10
12.579
 20
3.388594
 30
0.0
 40
0.046875
 50
270.0
 51
0.0
  0
LINE
  5
8DE
  8
0
  6
BYBLOCK
 62
     0
 10
12.872726
 20
3.503893
 30
0.0
 11
12.759991
 21
3.462773
 31
0.0
  0
LINE
  5
8DF
  8
0
  6
BYBLOCK
 62
     0
 10
13.041335
 20
3.391829
 30
0.0
 11
13.020775
 21
3.448196
 31
0.0
  0
LINE
  5
8E0
  8
0
  6
BYBLOCK
 62
     0
 10
13.682274
 20
3.503893
 30
0.0
 11
13.795009
 21
3.462773
 31
0.0
  0
LINE
  5
8E1
  8
0
  6
BYBLOCK
 62
     0
 10
14.201199
 20
2.949837
 30
0.0
 11
14.088464
 21
2.990957
 31
0.0
  0
LINE
  5
8E2
  8
0
  6
BYBLOCK
 62
     0
 10
14.180639
 20
2.89347
 30
0.0
 11
14.201199
 21
2.949837
 31
0.0
  0
POINT
  5
8E3
  8
0
  6
BYBLOCK
 62
     0
 10
15.53
 20
2.717773
 30
0.0
  0
LINE
  5
8E4
  8
0
  6
BYBLOCK
 62
     0
 10
15.296
 20
2.53592
 30
0.0
 11
15.296
 21
2.399626
 31
0.0
  0
LINE
  5
8E5
  8
0
  6
BYBLOCK
 62
     0
 10
15.264
 20
2.53592
 30
0.0
 11
15.264
 21
2.399626
 31
0.0
  0
CIRCLE
  5
8E6
  8
0
  6
BYBLOCK
 62
     0
 10
15.28
 20
2.467773
 30
0.0
 40
0.07
  0
LINE
  5
8E7
  8
0
  6
BYBLOCK
 62
     0
 10
18.053236
 20
1.16621
 30
0.0
 11
17.891708
 21
1.445985
 31
0.0
  0
LINE
  5
8E8
  8
0
  6
BYBLOCK
 62
     0
 10
18.53782
 20
1.445985
 30
0.0
 11
18.376292
 21
1.16621
 31
0.0
  0
LINE
  5
8E9
  8
0
  6
BYBLOCK
 62
     0
 10
18.376292
 20
1.16621
 30
0.0
 11
18.053236
 21
1.16621
 31
0.0
  0
LINE
  5
8EA
  8
0
  6
BYBLOCK
 62
     0
 10
18.053236
 20
1.72576
 30
0.0
 11
18.376292
 21
1.72576
 31
0.0
  0
LINE
  5
8EB
  8
0
  6
BYBLOCK
 62
     0
 10
17.891708
 20
1.445985
 30
0.0
 11
18.053236
 21
1.72576
 31
0.0
  0
LINE
  5
8EC
  8
0
  6
BYBLOCK
 62
     0
 10
18.376292
 20
1.72576
 30
0.0
 11
18.53782
 21
1.445985
 31
0.0
  0
LINE
  5
8ED
  8
0
  6
BYBLOCK
 62
     0
 10
17.78
 20
2.766406
 30
0.0
 11
17.84
 21
2.766406
 31
0.0
  0
LINE
  5
8EE
  8
0
  6
BYBLOCK
 62
     0
 10
17.891708
 20
2.710004
 30
0.0
 11
18.053236
 21
2.989779
 31
0.0
  0
LINE
  5
8EF
  8
0
  6
BYBLOCK
 62
     0
 10
18.376292
 20
2.989779
 30
0.0
 11
18.53782
 21
2.710004
 31
0.0
  0
LINE
  5
8F0
  8
0
  6
BYBLOCK
 62
     0
 10
18.376292
 20
2.430229
 30
0.0
 11
18.053236
 21
2.430229
 31
0.0
  0
LINE
  5
8F1
  8
0
  6
BYBLOCK
 62
     0
 10
18.053236
 20
2.430229
 30
0.0
 11
17.891708
 21
2.710004
 31
0.0
  0
LINE
  5
8F2
  8
0
  6
BYBLOCK
 62
     0
 10
18.53782
 20
2.710004
 30
0.0
 11
18.376292
 21
2.430229
 31
0.0
  0
LINE
  5
8F3
  8
0
  6
BYBLOCK
 62
     0
 10
18.053236
 20
2.989779
 30
0.0
 11
18.376292
 21
2.989779
 31
0.0
  0
LINE
  5
8F4
  8
0
  6
BYBLOCK
 62
     0
 10
18.053236
 20
3.676435
 30
0.0
 11
17.891708
 21
3.956209
 31
0.0
  0
LINE
  5
8F5
  8
0
  6
BYBLOCK
 62
     0
 10
18.53782
 20
3.956209
 30
0.0
 11
18.376292
 21
3.676435
 31
0.0
  0
LINE
  5
8F6
  8
0
  6
BYBLOCK
 62
     0
 10
18.376292
 20
3.676435
 30
0.0
 11
18.053236
 21
3.676435
 31
0.0
  0
LINE
  5
8F7
  8
0
  6
BYBLOCK
 62
     0
 10
18.053236
 20
4.235984
 30
0.0
 11
18.376292
 21
4.235984
 31
0.0
  0
LINE
  5
8F8
  8
0
  6
BYBLOCK
 62
     0
 10
17.891708
 20
3.956209
 30
0.0
 11
18.053236
 21
4.235984
 31
0.0
  0
LINE
  5
8F9
  8
0
  6
BYBLOCK
 62
     0
 10
18.376292
 20
4.235984
 30
0.0
 11
18.53782
 21
3.956209
 31
0.0
  0
ARC
  5
8FA
  8
0
  6
BYBLOCK
 62
     0
 10
12.72
 20
5.299219
 30
0.0
 40
0.12
 50
270.0
 51
90.0
  0
ARC
  5
8FB
  8
0
  6
BYBLOCK
 62
     0
 10
12.672875
 20
5.609219
 30
0.0
 40
0.047
 50
90.0
 51
180.0
  0
ARC
  5
8FC
  8
0
  6
BYBLOCK
 62
     0
 10
12.67275
 20
5.609344
 30
0.0
 40
0.046875
 50
90.0
 51
180.0
  0
LINE
  5
8FD
  8
0
  6
BYBLOCK
 62
     0
 10
12.625875
 20
5.609219
 30
0.0
 11
12.625875
 21
5.419219
 31
0.0
  0
LINE
  5
8FE
  8
0
  6
BYBLOCK
 62
     0
 10
17.891708
 20
5.151656
 30
0.0
 11
18.053236
 21
5.431431
 31
0.0
  0
LINE
  5
8FF
  8
0
  6
BYBLOCK
 62
     0
 10
18.376292
 20
5.431431
 30
0.0
 11
18.53782
 21
5.151656
 31
0.0
  0
LINE
  5
900
  8
0
  6
BYBLOCK
 62
     0
 10
18.376292
 20
4.871881
 30
0.0
 11
18.053236
 21
4.871881
 31
0.0
  0
LINE
  5
901
  8
0
  6
BYBLOCK
 62
     0
 10
18.053236
 20
4.871881
 30
0.0
 11
17.891708
 21
5.151656
 31
0.0
  0
LINE
  5
902
  8
0
  6
BYBLOCK
 62
     0
 10
18.53782
 20
5.151656
 30
0.0
 11
18.376292
 21
4.871881
 31
0.0
  0
LINE
  5
903
  8
0
  6
BYBLOCK
 62
     0
 10
17.28
 20
6.156219
 30
0.0
 11
17.28
 21
5.656219
 31
0.0
  0
LINE
  5
904
  8
0
  6
BYBLOCK
 62
     0
 10
17.28
 20
6.156219
 30
0.0
 11
17.78
 21
6.156219
 31
0.0
  0
LINE
  5
905
  8
0
  6
BYBLOCK
 62
     0
 10
18.053236
 20
5.431431
 30
0.0
 11
18.376292
 21
5.431431
 31
0.0
  0
LINE
  5
906
  8
0
  6
BYBLOCK
 62
     0
 10
17.78
 20
7.406406
 30
0.0
 11
17.84
 21
7.406406
 31
0.0
  0
LINE
  5
907
  8
0
  6
BYBLOCK
 62
     0
 10
18.59
 20
5.656219
 30
0.0
 11
18.59
 21
2.151406
 31
0.0
  0
LINE
  5
908
  8
0
  6
BYBLOCK
 62
     0
 10
24.39051
 20
4.026988
 30
0.0
 11
24.39051
 21
4.775824
 31
0.0
  0
LINE
  5
909
  8
0
  6
BYBLOCK
 62
     0
 10
23.09349
 20
4.775824
 30
0.0
 11
23.09349
 21
4.026988
 31
0.0
  0
ARC
  5
90A
  8
0
  6
BYBLOCK
 62
     0
 10
23.742
 20
4.401406
 30
0.0
 40
0.43234
 50
74.897715
 51
22.698218
  0
CIRCLE
  5
90B
  8
0
  6
BYBLOCK
 62
     0
 10
23.742
 20
4.401406
 30
0.0
 40
0.380459
  0
CIRCLE
  5
90C
  8
0
  6
BYBLOCK
 62
     0
 10
22.91
 20
1.781406
 30
0.0
 40
0.3125
  0
LINE
  5
90D
  8
0
  6
BYBLOCK
 62
     0
 10
23.742
 20
3.652571
 30
0.0
 11
24.39051
 21
4.026988
 31
0.0
  0
LINE
  5
90E
  8
0
  6
BYBLOCK
 62
     0
 10
23.09349
 20
4.026988
 30
0.0
 11
23.742
 21
3.652571
 31
0.0
  0
LINE
  5
90F
  8
0
  6
BYBLOCK
 62
     0
 10
22.749
 20
5.656219
 30
0.0
 11
22.749
 21
7.156406
 31
0.0
  0
LINE
  5
910
  8
0
  6
BYBLOCK
 62
     0
 10
24.39051
 20
4.775824
 30
0.0
 11
23.742
 21
5.150241
 31
0.0
  0
LINE
  5
911
  8
0
  6
BYBLOCK
 62
     0
 10
23.742
 20
5.150241
 30
0.0
 11
23.09349
 21
4.775824
 31
0.0
  0
LINE
  5
912
  8
0
 10
16.03
 20
9.427678
 30
0.0
 11
16.405
 21
9.427678
 31
0.0
  0
LINE
  5
913
  8
0
  6
BYBLOCK
 62
     0
 10
25.12
 20
7.573406
 30
0.0
 11
25.12
 21
6.949406
 31
0.0
  0
LINE
  5
914
  8
0
  6
BYBLOCK
 62
     0
 10
25.03
 20
6.949406
 30
0.0
 11
25.12
 21
6.949406
 31
0.0
  0
LINE
  5
915
  8
0
  6
BYBLOCK
 62
     0
 10
25.03
 20
7.573406
 30
0.0
 11
25.12
 21
7.573406
 31
0.0
  0
LINE
  5
916
  8
0
  6
BYBLOCK
 62
     0
 10
24.874
 20
8.026406
 30
0.0
 11
25.03
 21
8.026406
 31
0.0
  0
ENDSEC
  0
EOF
