  0
SECTION
  2
HEADER
  9
$ACADVER
  1
AC1009
  9
$INSBASE
 10
0.0
 20
0.0
 30
0.0
  9
$EXTMIN
 10
-14.009078
 20
-9.766372
 30
-0.001526
  9
$EXTMAX
 10
18.193463
 20
9.636084
 30
0.0
  9
$LIMMIN
 10
0.0
 20
0.0
  9
$LIMMAX
 10
12.0
 20
9.0
  9
$ORTHOMODE
 70
     1
  9
$REGENMODE
 70
     1
  9
$FILLMODE
 70
     1
  9
$QTEXTMODE
 70
     0
  9
$MIRRTEXT
 70
     1
  9
$DRAGMODE
 70
     2
  9
$LTSCALE
 40
1.0
  9
$OSMODE
 70
     0
  9
$ATTMODE
 70
     1
  9
$TEXTSIZE
 40
0.2
  9
$TRACEWID
 40
0.05
  9
$TEXTSTYLE
  7
STANDARD
  9
$CLAYER
  8
0
  9
$CELTYPE
  6
BYLAYER
  9
$CECOLOR
 62
   256
  9
$DIMSCALE
 40
1.0
  9
$DIMASZ
 40
0.18
  9
$DIMEXO
 40
0.0625
  9
$DIMDLI
 40
0.38
  9
$DIMRND
 40
0.0
  9
$DIMDLE
 40
0.0
  9
$DIMEXE
 40
0.18
  9
$DIMTP
 40
0.0
  9
$DIMTM
 40
0.0
  9
$DIMTXT
 40
0.18
  9
$DIMCEN
 40
0.09
  9
$DIMTSZ
 40
0.0
  9
$DIMTOL
 70
     0
  9
$DIMLIM
 70
     0
  9
$DIMTIH
 70
     1
  9
$DIMTOH
 70
     1
  9
$DIMSE1
 70
     0
  9
$DIMSE2
 70
     0
  9
$DIMTAD
 70
     0
  9
$DIMZIN
 70
     0
  9
$DIMBLK
  1

  9
$DIMASO
 70
     1
  9
$DIMSHO
 70
     1
  9
$DIMPOST
  1

  9
$DIMAPOST
  1

  9
$DIMALT
 70
     0
  9
$DIMALTD
 70
     2
  9
$DIMALTF
 40
25.4
  9
$DIMLFAC
 40
1.0
  9
$DIMTOFL
 70
     0
  9
$DIMTVP
 40
0.0
  9
$DIMTIX
 70
     0
  9
$DIMSOXD
 70
     0
  9
$DIMSAH
 70
     0
  9
$DIMBLK1
  1

  9
$DIMBLK2
  1

  9
$DIMSTYLE
  2
STANDARD
  9
$DIMCLRD
 70
     0
  9
$DIMCLRE
 70
     0
  9
$DIMCLRT
 70
     0
  9
$DIMTFAC
 40
1.0
  9
$DIMGAP
 40
0.09
  9
$LUNITS
 70
     2
  9
$LUPREC
 70
     4
  9
$SKETCHINC
 40
0.1
  9
$FILLETRAD
 40
0.0
  9
$AUNITS
 70
     0
  9
$AUPREC
 70
     0
  9
$MENU
  1
acad
  9
$ELEVATION
 40
0.0
  9
$PELEVATION
 40
0.0
  9
$THICKNESS
 40
0.0
  9
$LIMCHECK
 70
     0
  9
$BLIPMODE
 70
     1
  9
$CHAMFERA
 40
0.0
  9
$CHAMFERB
 40
0.0
  9
$SKPOLY
 70
     0
  9
$TDCREATE
 40
2451127.583675
  9
$TDUPDATE
 40
2451129.621465
  9
$TDINDWG
 40
0.075925
  9
$TDUSRTIMER
 40
0.075925
  9
$USRTIMER
 70
     1
  9
$ANGBASE
 50
0.0
  9
$ANGDIR
 70
     0
  9
$PDMODE
 70
     0
  9
$PDSIZE
 40
0.0
  9
$PLINEWID
 40
0.0
  9
$COORDS
 70
     1
  9
$SPLFRAME
 70
     0
  9
$SPLINETYPE
 70
     6
  9
$SPLINESEGS
 70
     8
  9
$ATTDIA
 70
     0
  9
$ATTREQ
 70
     1
  9
$HANDLING
 70
     1
  9
$HANDSEED
  5
162B
  9
$SURFTAB1
 70
     6
  9
$SURFTAB2
 70
     6
  9
$SURFTYPE
 70
     6
  9
$SURFU
 70
     6
  9
$SURFV
 70
     6
  9
$UCSNAME
  2

  9
$UCSORG
 10
0.0
 20
0.0
 30
0.0
  9
$UCSXDIR
 10
1.0
 20
0.0
 30
0.0
  9
$UCSYDIR
 10
0.0
 20
1.0
 30
0.0
  9
$PUCSNAME
  2

  9
$PUCSORG
 10
0.0
 20
0.0
 30
0.0
  9
$PUCSXDIR
 10
1.0
 20
0.0
 30
0.0
  9
$PUCSYDIR
 10
0.0
 20
1.0
 30
0.0
  9
$USERI1
 70
     0
  9
$USERI2
 70
     0
  9
$USERI3
 70
     0
  9
$USERI4
 70
     0
  9
$USERI5
 70
     0
  9
$USERR1
 40
0.0
  9
$USERR2
 40
0.0
  9
$USERR3
 40
0.0
  9
$USERR4
 40
0.0
  9
$USERR5
 40
0.0
  9
$WORLDVIEW
 70
     1
  9
$SHADEDGE
 70
     3
  9
$SHADEDIF
 70
    70
  9
$TILEMODE
 70
     1
  9
$MAXACTVP
 70
    16
  9
$PLIMCHECK
 70
     0
  9
$PEXTMIN
 10
1.000000E+020
 20
1.000000E+020
 30
1.000000E+020
  9
$PEXTMAX
 10
-1.000000E+020
 20
-1.000000E+020
 30
-1.000000E+020
  9
$PLIMMIN
 10
0.0
 20
0.0
  9
$PLIMMAX
 10
12.0
 20
9.0
  9
$UNITMODE
 70
     0
  9
$VISRETAIN
 70
     0
  9
$PLINEGEN
 70
     0
  9
$PSLTSCALE
 70
     1
  0
ENDSEC
  0
SECTION
  2
TABLES
  0
TABLE
  2
VPORT
 70
     2
  0
VPORT
  2
*ACTIVE
 70
     0
 10
0.0
 20
0.0
 11
1.0
 21
1.0
 12
2.092192
 22
-0.065144
 13
0.0
 23
0.0
 14
1.0
 24
1.0
 15
0.0
 25
0.0
 16
0.0
 26
0.0
 36
1.0
 17
0.0
 27
0.0
 37
0.0
 40
21.279955
 41
1.603066
 42
50.0
 43
0.0
 44
0.0
 50
0.0
 51
0.0
 71
     0
 72
 20000
 73
     1
 74
     0
 75
     0
 76
     0
 77
     0
 78
     1
  0
ENDTAB
  0
TABLE
  2
LTYPE
 70
     3
  0
LTYPE
  2
CONTINUOUS
 70
     0
  3
Solid line
 72
    65
 73
     0
 40
0.0
  0
LTYPE
  2
HIDDEN
 70
     0
  3
__ __ __ __ __ __ __ __ __ __ __ __ __ __ __ __
 72
    65
 73
     2
 40
0.375
 49
0.25
 49
-0.125
  0
LTYPE
  2
CENTER
 70
     0
  3
____ _ ____ _ ____ _ ____ _ ____ _ ____ _ ____ 
 72
    65
 73
     4
 40
2.0
 49
1.25
 49
-0.25
 49
0.25
 49
-0.25
  0
ENDTAB
  0
TABLE
  2
LAYER
 70
     1
  0
LAYER
  2
0
 70
     0
 62
     7
  6
CONTINUOUS
  0
ENDTAB
  0
TABLE
  2
STYLE
 70
     1
  0
STYLE
  2
STANDARD
 70
     0
 40
0.0
 41
1.0
 50
0.0
 71
     0
 42
0.2
  3
txt
  4

  0
ENDTAB
  0
TABLE
  2
VIEW
 70
     0
  0
ENDTAB
  0
TABLE
  2
UCS
 70
     0
  0
ENDTAB
  0
TABLE
  2
APPID
 70
     1
  0
APPID
  2
ACAD
 70
     0
  0
ENDTAB
  0
TABLE
  2
DIMSTYLE
 70
     1
  0
DIMSTYLE
  2
STANDARD
 70
     0
  3

  4

  5

  6

  7

 40
1.0
 41
0.18
 42
0.0625
 43
0.38
 44
0.18
 45
0.0
 46
0.0
 47
0.0
 48
0.0
140
0.18
141
0.09
142
0.0
143
25.4
144
1.0
145
0.0
146
1.0
147
0.09
 71
     0
 72
     0
 73
     1
 74
     1
 75
     0
 76
     0
 77
     0
 78
     0
170
     0
171
     2
172
     0
173
     0
174
     0
175
     0
176
     0
177
     0
178
     0
  0
ENDTAB
  0
ENDSEC
  0
SECTION
  2
BLOCKS
  0
BLOCK
  8
0
  2
$MODEL_SPACE
 70
     0
 10
0.0
 20
0.0
 30
0.0
  3
$MODEL_SPACE
  1

  0
ENDBLK
  5
1C
  8
0
  0
BLOCK
 67
     1
  8
0
  2
$PAPER_SPACE
 70
     0
 10
0.0
 20
0.0
 30
0.0
  3
$PAPER_SPACE
  1

  0
ENDBLK
  5
19
 67
     1
  8
0
  0
ENDSEC
  0
SECTION
  2
ENTITIES
  0
LINE
  5
595
  8
0
  6
BYBLOCK
 62
     0
 10
-0.98
 20
-2.995492
 30
0.0
 11
-0.98
 21
-7.635492
 31
0.0
  0
LINE
  5
59A
  8
0
  6
BYBLOCK
 62
     0
 10
-13.98
 20
-2.995492
 30
0.0
 11
-13.98
 21
-7.635492
 31
0.0
  0
LINE
  5
5C2
  8
0
  6
BYBLOCK
 62
     0
 10
-12.404109
 20
-8.385492
 30
0.0
 11
-13.48
 21
-8.385492
 31
0.0
  0
LINE
  5
5C4
  8
0
  6
BYBLOCK
 62
     0
 10
-13.98
 20
-7.635492
 30
0.0
 11
-12.404109
 21
-7.635492
 31
0.0
  0
LINE
  5
5C5
  8
0
  6
BYBLOCK
 62
     0
 10
-13.48
 20
-7.635492
 30
0.0
 11
-13.48
 21
-8.385492
 31
0.0
  0
LINE
  5
64D
  8
0
  6
BYBLOCK
 62
     0
 10
-1.48
 20
-7.635492
 30
0.0
 11
-1.48
 21
-8.385492
 31
0.0
  0
LINE
  5
64E
  8
0
  6
BYBLOCK
 62
     0
 10
-1.48
 20
-8.385492
 30
0.0
 11
-2.555891
 21
-8.385492
 31
0.0
  0
LINE
  5
64F
  8
0
  6
BYBLOCK
 62
     0
 10
-0.98
 20
-7.635492
 30
0.0
 11
-2.555891
 21
-7.635492
 31
0.0
  0
LINE
  5
653
  8
0
  6
BYBLOCK
 62
     0
 10
-1.64
 20
3.621918
 30
0.0
 11
-1.64
 21
5.86432
 31
0.0
  0
LINE
  5
655
  8
0
  6
BYBLOCK
 62
     0
 10
-3.045046
 20
5.45772
 30
0.0
 11
-3.045046
 21
5.69772
 31
0.0
  0
LINE
  5
656
  8
0
  6
BYBLOCK
 62
     0
 10
-5.441601
 20
5.436882
 30
0.0
 11
-5.06871
 21
5.764354
 31
0.0
  0
LINE
  5
657
  8
0
  6
BYBLOCK
 62
     0
 10
-5.402095
 20
5.391723
 30
0.0
 11
-5.029032
 21
5.719346
 31
0.0
  0
CIRCLE
  5
658
  8
0
  6
BYBLOCK
 62
     0
 10
-5.235046
 20
5.57772
 30
0.0
 40
0.25
  0
CIRCLE
  5
659
  8
0
  6
BYBLOCK
 62
     0
 10
-5.235046
 20
5.57772
 30
0.0
 40
0.305
  0
LINE
  5
65A
  8
0
  6
BYBLOCK
 62
     0
 10
-7.425046
 20
5.45772
 30
0.0
 11
-7.425046
 21
5.69772
 31
0.0
  0
LINE
  5
65B
  8
0
  6
BYBLOCK
 62
     0
 10
-7.425046
 20
5.45772
 30
0.0
 11
-7.425046
 21
5.69772
 31
0.0
  0
LINE
  5
65C
  8
0
  6
BYBLOCK
 62
     0
 10
-7.540133
 20
5.45772
 30
0.0
 11
-7.540133
 21
5.69772
 31
0.0
  0
LINE
  5
65D
  8
0
  6
BYBLOCK
 62
     0
 10
-7.540133
 20
5.45772
 30
0.0
 11
-7.540133
 21
5.69772
 31
0.0
  0
LINE
  5
65E
  8
0
  6
BYBLOCK
 62
     0
 10
-2.159858
 20
5.86432
 30
0.0
 11
-2.159858
 21
1.130893
 31
0.0
  0
LINE
  5
660
  8
0
  6
BYBLOCK
 62
     0
 10
-9.563084
 20
5.391723
 30
0.0
 11
-9.936147
 21
5.719346
 31
0.0
  0
LINE
  5
661
  8
0
  6
BYBLOCK
 62
     0
 10
-9.523579
 20
5.436882
 30
0.0
 11
-9.896469
 21
5.764354
 31
0.0
  0
CIRCLE
  5
662
  8
0
  6
BYBLOCK
 62
     0
 10
-9.730133
 20
5.57772
 30
0.0
 40
0.25
  0
CIRCLE
  5
663
  8
0
  6
BYBLOCK
 62
     0
 10
-9.730133
 20
5.57772
 30
0.0
 40
0.305
  0
LINE
  5
664
  8
0
  6
BYBLOCK
 62
     0
 10
-11.920133
 20
5.45772
 30
0.0
 11
-11.920133
 21
5.69772
 31
0.0
  0
LINE
  5
665
  8
0
  6
BYBLOCK
 62
     0
 10
-13.32
 20
3.621918
 30
0.0
 11
-13.32
 21
5.86432
 31
0.0
  0
LINE
  5
666
  8
0
  6
BYBLOCK
 62
     0
 10
-12.800142
 20
5.86432
 30
0.0
 11
-12.800142
 21
1.130893
 31
0.0
  0
LINE
  5
667
  8
0
  6
BYBLOCK
 62
     0
 10
-13.98
 20
2.901918
 30
0.0
 11
-13.98
 21
7.614508
 31
0.0
  0
LINE
  5
668
  8
0
  6
BYBLOCK
 62
     0
 10
-12.800142
 20
3.538466
 30
0.0
 11
-10.039573
 21
3.538466
 31
0.0
  0
ARC
  5
669
  8
0
  6
BYBLOCK
 62
     0
 10
-10.339621
 20
1.010866
 30
0.0
 40
0.060013
 50
90.0
 51
180.0
  0
LINE
  5
66A
  8
0
  6
BYBLOCK
 62
     0
 10
-8.987133
 20
5.19272
 30
0.0
 11
-10.473133
 21
5.19272
 31
0.0
  0
ARC
  5
66B
  8
0
  6
BYBLOCK
 62
     0
 10
-10.339621
 20
-0.589484
 30
0.0
 40
0.060013
 50
180.0
 51
270.0
  0
LINE
  5
66C
  8
0
  6
BYBLOCK
 62
     0
 10
-12.800142
 20
-3.543083
 30
0.0
 11
-10.039573
 21
-3.543083
 31
0.0
  0
LINE
  5
66E
  8
0
  6
BYBLOCK
 62
     0
 10
-8.987133
 20
-5.14343
 30
0.0
 11
-10.473133
 21
-5.14343
 31
0.0
  0
LINE
  5
66F
  8
0
  6
BYBLOCK
 62
     0
 10
-8.987133
 20
-5.91343
 30
0.0
 11
-10.473133
 21
-5.91343
 31
0.0
  0
LINE
  5
670
  8
0
  6
BYBLOCK
 62
     0
 10
-13.32
 20
-5.885305
 30
0.0
 11
-13.32
 21
-0.526143
 31
0.0
  0
LINE
  5
671
  8
0
  6
BYBLOCK
 62
     0
 10
-12.440081
 20
1.010866
 30
0.0
 11
-12.440081
 21
-0.589484
 31
0.0
  0
LINE
  5
672
  8
0
  6
BYBLOCK
 62
     0
 10
-12.800142
 20
-0.70951
 30
0.0
 11
-12.800142
 21
-5.885305
 31
0.0
  0
LINE
  5
673
  8
0
  6
BYBLOCK
 62
     0
 10
-13.32
 20
-5.885305
 30
0.0
 11
-10.512522
 21
-5.885305
 31
0.0
  0
ARC
  5
674
  8
0
  6
BYBLOCK
 62
     0
 10
-13.564563
 20
-5.189079
 30
0.0
 40
0.244563
 50
310.417438
 51
49.582562
  0
ARC
  5
675
  8
0
  6
BYBLOCK
 62
     0
 10
-13.630998
 20
-5.189079
 30
0.0
 40
0.244563
 50
130.417438
 51
229.582562
  0
LINE
  5
676
  8
0
  6
BYBLOCK
 62
     0
 10
-13.32
 20
-5.189079
 30
0.0
 11
-13.32
 21
-4.071906
 31
0.0
  0
LINE
  5
677
  8
0
  6
BYBLOCK
 62
     0
 10
-13.87556
 20
-5.189079
 30
0.0
 11
-13.87556
 21
-4.071906
 31
0.0
  0
LINE
  5
678
  8
0
  6
BYBLOCK
 62
     0
 10
-13.78956
 20
-5.375274
 30
0.0
 11
-13.406
 21
-5.375274
 31
0.0
  0
ARC
  5
679
  8
0
  6
BYBLOCK
 62
     0
 10
-14.16925
 20
-4.630492
 30
0.0
 40
0.84925
 50
333.992176
 51
26.007824
  0
ARC
  5
67A
  8
0
  6
BYBLOCK
 62
     0
 10
-13.02631
 20
-4.630492
 30
0.0
 40
0.84925
 50
153.992176
 51
206.007824
  0
LINE
  5
67B
  8
0
  6
BYBLOCK
 62
     0
 10
-13.78956
 20
-5.002883
 30
0.0
 11
-13.406
 21
-5.002883
 31
0.0
  0
ARC
  5
67C
  8
0
  6
BYBLOCK
 62
     0
 10
-13.564563
 20
-4.071906
 30
0.0
 40
0.244563
 50
310.417438
 51
49.582562
  0
ARC
  5
67D
  8
0
  6
BYBLOCK
 62
     0
 10
-13.630998
 20
-4.071906
 30
0.0
 40
0.244563
 50
130.417438
 51
229.582562
  0
LINE
  5
67E
  8
0
  6
BYBLOCK
 62
     0
 10
-13.78956
 20
-3.88571
 30
0.0
 11
-13.406
 21
-3.88571
 31
0.0
  0
LINE
  5
67F
  8
0
  6
BYBLOCK
 62
     0
 10
-13.78956
 20
-4.258101
 30
0.0
 11
-13.406
 21
-4.258101
 31
0.0
  0
ARC
  5
680
  8
0
  6
BYBLOCK
 62
     0
 10
-10.473133
 20
-5.19043
 30
0.0
 40
0.047
 50
90.0
 51
180.0
  0
LINE
  5
681
  8
0
  6
BYBLOCK
 62
     0
 10
-10.520133
 20
-5.40843
 30
0.0
 11
-11.920133
 21
-5.40843
 31
0.0
  0
LINE
  5
682
  8
0
  6
BYBLOCK
 62
     0
 10
-10.520133
 20
-5.64843
 30
0.0
 11
-11.920133
 21
-5.64843
 31
0.0
  0
LINE
  5
684
  8
0
  6
BYBLOCK
 62
     0
 10
-11.920133
 20
-5.64843
 30
0.0
 11
-11.920133
 21
-5.40843
 31
0.0
  0
LINE
  5
685
  8
0
  6
BYBLOCK
 62
     0
 10
-10.520133
 20
-5.86643
 30
0.0
 11
-10.520133
 21
-5.64843
 31
0.0
  0
ARC
  5
686
  8
0
  6
BYBLOCK
 62
     0
 10
-10.473133
 20
-5.86643
 30
0.0
 40
0.047
 50
180.0
 51
270.0
  0
LINE
  5
687
  8
0
  6
BYBLOCK
 62
     0
 10
-10.520133
 20
-5.40843
 30
0.0
 11
-10.520133
 21
-5.19043
 31
0.0
  0
LINE
  5
688
  8
0
  6
BYBLOCK
 62
     0
 10
-13.98
 20
-2.995492
 30
0.0
 11
-13.32
 21
-2.995492
 31
0.0
  0
ARC
  5
689
  8
0
  6
BYBLOCK
 62
     0
 10
-12.571637
 20
-0.475892
 30
0.0
 40
0.17381
 50
267.21111
 51
319.191257
  0
LINE
  5
68A
  8
0
  6
BYBLOCK
 62
     0
 10
-12.740129
 20
-0.649497
 30
0.0
 11
-12.580094
 21
-0.649497
 31
0.0
  0
ARC
  5
68B
  8
0
  6
BYBLOCK
 62
     0
 10
-12.740129
 20
-0.70951
 30
0.0
 40
0.060013
 50
90.0
 51
180.0
  0
LINE
  5
68C
  8
0
  6
BYBLOCK
 62
     0
 10
-10.693284
 20
3.106553
 30
0.0
 11
-10.693284
 21
1.830445
 31
0.0
  0
LINE
  5
68D
  8
0
  6
BYBLOCK
 62
     0
 10
-12.146431
 20
3.106553
 30
0.0
 11
-12.146431
 21
1.830445
 31
0.0
  0
LINE
  5
68E
  8
0
  6
BYBLOCK
 62
     0
 10
-13.133096
 20
0.541918
 30
0.0
 11
-13.133096
 21
2.901918
 31
0.0
  0
LINE
  5
68F
  8
0
  6
BYBLOCK
 62
     0
 10
-14.008096
 20
0.541918
 30
0.0
 11
-14.008096
 21
2.901918
 31
0.0
  0
LINE
  5
690
  8
0
  6
BYBLOCK
 62
     0
 10
-13.140238
 20
1.056706
 30
0.0
 11
-13.222172
 21
1.291172
 31
0.0
  0
ARC
  5
691
  8
0
  6
BYBLOCK
 62
     0
 10
-13.254082
 20
-0.239336
 30
0.0
 40
0.06
 50
321.135623
 51
0.0
  0
LINE
  5
692
  8
0
  6
BYBLOCK
 62
     0
 10
-13.140238
 20
-0.246974
 30
0.0
 11
-13.222172
 21
-0.481441
 31
0.0
  0
LINE
  5
693
  8
0
  6
BYBLOCK
 62
     0
 10
-13.133096
 20
1.531918
 30
0.0
 11
-14.008096
 21
1.531918
 31
0.0
  0
LINE
  5
694
  8
0
  6
BYBLOCK
 62
     0
 10
-13.133096
 20
0.971918
 30
0.0
 11
-14.008096
 21
0.971918
 31
0.0
  0
LINE
  5
695
  8
0
  6
BYBLOCK
 62
     0
 10
-13.133096
 20
0.541918
 30
0.0
 11
-14.008096
 21
0.541918
 31
0.0
  0
LINE
  5
696
  8
0
  6
BYBLOCK
 62
     0
 10
-13.194082
 20
1.049068
 30
0.0
 11
-13.194082
 21
-0.233498
 31
0.0
  0
LINE
  5
697
  8
0
  6
BYBLOCK
 62
     0
 10
-13.194082
 20
-0.239336
 30
0.0
 11
-13.194082
 21
1.04323
 31
0.0
  0
LINE
  5
698
  8
0
  6
BYBLOCK
 62
     0
 10
-13.315608
 20
-0.466143
 30
0.0
 11
-14.008096
 21
-0.466143
 31
0.0
  0
LINE
  5
699
  8
0
  6
BYBLOCK
 62
     0
 10
-13.315608
 20
-0.526143
 30
0.0
 11
-14.008096
 21
-0.526143
 31
0.0
  0
LINE
  5
69A
  8
0
  6
BYBLOCK
 62
     0
 10
-14.008096
 20
-0.526143
 30
0.0
 11
-14.008096
 21
-0.466143
 31
0.0
  0
ARC
  5
69B
  8
0
  6
BYBLOCK
 62
     0
 10
-13.315608
 20
-0.406143
 30
0.0
 40
0.06
 50
270.0
 51
321.135623
  0
LINE
  5
69C
  8
0
  6
BYBLOCK
 62
     0
 10
-13.194082
 20
-0.233498
 30
0.0
 11
-13.26889
 21
-0.443792
 31
0.0
  0
ARC
  5
69D
  8
0
  6
BYBLOCK
 62
     0
 10
-13.315608
 20
-0.406143
 30
0.0
 40
0.12
 50
270.0
 51
321.135623
  0
LINE
  5
69E
  8
0
  6
BYBLOCK
 62
     0
 10
-13.68625
 20
0.788918
 30
0.0
 11
-13.454941
 21
0.788918
 31
0.0
  0
LINE
  5
69F
  8
0
  6
BYBLOCK
 62
     0
 10
-13.68625
 20
0.724918
 30
0.0
 11
-13.454941
 21
0.724918
 31
0.0
  0
CIRCLE
  5
6A0
  8
0
  6
BYBLOCK
 62
     0
 10
-13.570596
 20
0.756918
 30
0.0
 40
0.12
  0
LINE
  5
6A1
  8
0
  6
BYBLOCK
 62
     0
 10
-13.948096
 20
1.406918
 30
0.0
 11
-13.388096
 21
1.406918
 31
0.0
  0
LINE
  5
6A2
  8
0
  6
BYBLOCK
 62
     0
 10
-13.948096
 20
1.156918
 30
0.0
 11
-13.388096
 21
1.156918
 31
0.0
  0
LINE
  5
6A3
  8
0
  6
BYBLOCK
 62
     0
 10
-13.315608
 20
1.275875
 30
0.0
 11
-14.008096
 21
1.275875
 31
0.0
  0
LINE
  5
6A4
  8
0
  6
BYBLOCK
 62
     0
 10
-13.315608
 20
1.335875
 30
0.0
 11
-14.008096
 21
1.335875
 31
0.0
  0
LINE
  5
6A5
  8
0
  6
BYBLOCK
 62
     0
 10
-14.008096
 20
1.335875
 30
0.0
 11
-14.008096
 21
1.275875
 31
0.0
  0
LINE
  5
6A6
  8
0
  6
BYBLOCK
 62
     0
 10
-13.948096
 20
1.156918
 30
0.0
 11
-13.948096
 21
1.406918
 31
0.0
  0
ARC
  5
6A7
  8
0
  6
BYBLOCK
 62
     0
 10
-13.315608
 20
1.215875
 30
0.0
 40
0.06
 50
38.864377
 51
90.0
  0
ARC
  5
6A8
  8
0
  6
BYBLOCK
 62
     0
 10
-13.315608
 20
1.215875
 30
0.0
 40
0.12
 50
38.864377
 51
90.0
  0
LINE
  5
6A9
  8
0
  6
BYBLOCK
 62
     0
 10
-13.388096
 20
1.156918
 30
0.0
 11
-13.388096
 21
1.406918
 31
0.0
  0
LINE
  5
6AA
  8
0
  6
BYBLOCK
 62
     0
 10
-13.194082
 20
1.04323
 30
0.0
 11
-13.26889
 21
1.253524
 31
0.0
  0
LINE
  5
6AB
  8
0
  6
BYBLOCK
 62
     0
 10
-13.68625
 20
1.974918
 30
0.0
 11
-13.454941
 21
1.974918
 31
0.0
  0
LINE
  5
6AC
  8
0
  6
BYBLOCK
 62
     0
 10
-13.68625
 20
2.038918
 30
0.0
 11
-13.454941
 21
2.038918
 31
0.0
  0
CIRCLE
  5
6AD
  8
0
  6
BYBLOCK
 62
     0
 10
-13.570596
 20
2.006918
 30
0.0
 40
0.12
  0
LINE
  5
6AE
  8
0
  6
BYBLOCK
 62
     0
 10
-13.140238
 20
-0.246974
 30
0.0
 11
-13.140238
 21
1.056706
 31
0.0
  0
LINE
  5
6AF
  8
0
  6
BYBLOCK
 62
     0
 10
-12.146431
 20
0.845868
 30
0.0
 11
-10.693284
 21
0.845868
 31
0.0
  0
LINE
  5
6B0
  8
0
  6
BYBLOCK
 62
     0
 10
-12.146431
 20
-0.430239
 30
0.0
 11
-10.693284
 21
-0.430239
 31
0.0
  0
LINE
  5
6B1
  8
0
  6
BYBLOCK
 62
     0
 10
-12.146431
 20
0.845868
 30
0.0
 11
-12.146431
 21
-0.430239
 31
0.0
  0
ARC
  5
6B2
  8
0
  6
BYBLOCK
 62
     0
 10
-13.260238
 20
-0.246974
 30
0.0
 40
0.12
 50
321.135623
 51
0.0
  0
LINE
  5
6B3
  8
0
  6
BYBLOCK
 62
     0
 10
-10.693284
 20
0.845868
 30
0.0
 11
-10.693284
 21
-0.430239
 31
0.0
  0
LINE
  5
6B4
  8
0
  6
BYBLOCK
 62
     0
 10
-12.146431
 20
1.830445
 30
0.0
 11
-10.693284
 21
1.830445
 31
0.0
  0
ARC
  5
6B5
  8
0
  6
BYBLOCK
 62
     0
 10
-12.571637
 20
0.897275
 30
0.0
 40
0.17381
 50
40.808743
 51
92.78889
  0
LINE
  5
6B6
  8
0
  6
BYBLOCK
 62
     0
 10
-12.740129
 20
1.07088
 30
0.0
 11
-12.580094
 21
1.07088
 31
0.0
  0
ARC
  5
6B7
  8
0
  6
BYBLOCK
 62
     0
 10
-12.740129
 20
1.130893
 30
0.0
 40
0.060013
 50
180.0
 51
270.0
  0
ARC
  5
6B8
  8
0
  6
BYBLOCK
 62
     0
 10
-12.740129
 20
1.130893
 30
0.0
 40
0.060013
 50
180.0
 51
270.0
  0
LINE
  5
6B9
  8
0
  6
BYBLOCK
 62
     0
 10
-13.163096
 20
3.021918
 30
0.0
 11
-13.978096
 21
3.021918
 31
0.0
  0
LINE
  5
6BA
  8
0
  6
BYBLOCK
 62
     0
 10
-13.133096
 20
2.901918
 30
0.0
 11
-14.008096
 21
2.901918
 31
0.0
  0
LINE
  5
6BB
  8
0
  6
BYBLOCK
 62
     0
 10
-13.600596
 20
3.021918
 30
0.0
 11
-13.600596
 21
3.271918
 31
0.0
  0
LINE
  5
6BC
  8
0
  6
BYBLOCK
 62
     0
 10
-13.193096
 20
3.021918
 30
0.0
 11
-13.193096
 21
3.621918
 31
0.0
  0
LINE
  5
6BD
  8
0
  6
BYBLOCK
 62
     0
 10
-13.540596
 20
3.021918
 30
0.0
 11
-13.540596
 21
3.621918
 31
0.0
  0
LINE
  5
6BE
  8
0
  6
BYBLOCK
 62
     0
 10
-13.616596
 20
3.021918
 30
0.0
 11
-13.616596
 21
3.271918
 31
0.0
  0
LINE
  5
6BF
  8
0
  6
BYBLOCK
 62
     0
 10
-13.948096
 20
3.021918
 30
0.0
 11
-13.948096
 21
3.271918
 31
0.0
  0
LINE
  5
6C0
  8
0
  6
BYBLOCK
 62
     0
 10
-13.932096
 20
3.021918
 30
0.0
 11
-13.932096
 21
3.271918
 31
0.0
  0
LINE
  5
6C1
  8
0
  6
BYBLOCK
 62
     0
 10
-13.978096
 20
2.901918
 30
0.0
 11
-13.978096
 21
3.021918
 31
0.0
  0
LINE
  5
6C2
  8
0
  6
BYBLOCK
 62
     0
 10
-13.570596
 20
2.901918
 30
0.0
 11
-13.570596
 21
3.021918
 31
0.0
  0
LINE
  5
6C3
  8
0
  6
BYBLOCK
 62
     0
 10
-13.758346
 20
3.215065
 30
0.0
 11
-13.758346
 21
3.078772
 31
0.0
  0
LINE
  5
6C4
  8
0
  6
BYBLOCK
 62
     0
 10
-13.790346
 20
3.215065
 30
0.0
 11
-13.790346
 21
3.078772
 31
0.0
  0
CIRCLE
  5
6C5
  8
0
  6
BYBLOCK
 62
     0
 10
-13.774346
 20
3.146918
 30
0.0
 40
0.07
  0
LINE
  5
6C6
  8
0
  6
BYBLOCK
 62
     0
 10
-13.600596
 20
3.271918
 30
0.0
 11
-13.948096
 21
3.271918
 31
0.0
  0
LINE
  5
6C7
  8
0
  6
BYBLOCK
 62
     0
 10
-13.193096
 20
3.621918
 30
0.0
 11
-13.540596
 21
3.621918
 31
0.0
  0
LINE
  5
6C8
  8
0
  6
BYBLOCK
 62
     0
 10
-13.193096
 20
3.371918
 30
0.0
 11
-13.540596
 21
3.371918
 31
0.0
  0
LINE
  5
6C9
  8
0
  6
BYBLOCK
 62
     0
 10
-13.209096
 20
3.371918
 30
0.0
 11
-13.209096
 21
3.621918
 31
0.0
  0
LINE
  5
6CA
  8
0
  6
BYBLOCK
 62
     0
 10
-13.524596
 20
3.371918
 30
0.0
 11
-13.524596
 21
3.621918
 31
0.0
  0
LINE
  5
6CB
  8
0
  6
BYBLOCK
 62
     0
 10
-13.350846
 20
3.565065
 30
0.0
 11
-13.350846
 21
3.428772
 31
0.0
  0
LINE
  5
6CC
  8
0
  6
BYBLOCK
 62
     0
 10
-13.382846
 20
3.565065
 30
0.0
 11
-13.382846
 21
3.428772
 31
0.0
  0
CIRCLE
  5
6CD
  8
0
  6
BYBLOCK
 62
     0
 10
-13.366846
 20
3.496918
 30
0.0
 40
0.07
  0
LINE
  5
6CE
  8
0
  6
BYBLOCK
 62
     0
 10
-12.146431
 20
3.106553
 30
0.0
 11
-10.693284
 21
3.106553
 31
0.0
  0
LINE
  5
6CF
  8
0
  6
BYBLOCK
 62
     0
 10
-13.163096
 20
2.901918
 30
0.0
 11
-13.163096
 21
3.021918
 31
0.0
  0
LINE
  5
6D0
  8
0
  6
BYBLOCK
 62
     0
 10
-10.520133
 20
5.45772
 30
0.0
 11
-11.920133
 21
5.45772
 31
0.0
  0
LINE
  5
6D1
  8
0
  6
BYBLOCK
 62
     0
 10
-12.42135
 20
4.149837
 30
0.0
 11
-10.418365
 21
4.149837
 31
0.0
  0
LINE
  5
6D2
  8
0
  6
BYBLOCK
 62
     0
 10
-12.42135
 20
5.187589
 30
0.0
 11
-10.418365
 21
5.187589
 31
0.0
  0
LINE
  5
6D3
  8
0
  6
BYBLOCK
 62
     0
 10
-12.42135
 20
5.187589
 30
0.0
 11
-12.42135
 21
4.149837
 31
0.0
  0
LINE
  5
6D4
  8
0
  6
BYBLOCK
 62
     0
 10
-10.418365
 20
5.187589
 30
0.0
 11
-10.418365
 21
4.149837
 31
0.0
  0
ARC
  5
6D5
  8
0
  6
BYBLOCK
 62
     0
 10
-10.473133
 20
5.23972
 30
0.0
 40
0.047
 50
180.0
 51
270.0
  0
LINE
  5
6D6
  8
0
  6
BYBLOCK
 62
     0
 10
-10.520133
 20
5.23972
 30
0.0
 11
-10.520133
 21
5.45772
 31
0.0
  0
LINE
  5
6D7
  8
0
  6
BYBLOCK
 62
     0
 10
-1.64
 20
-5.885305
 30
0.0
 11
-1.64
 21
-0.526143
 31
0.0
  0
LINE
  5
6D8
  8
0
  6
BYBLOCK
 62
     0
 10
-2.519919
 20
1.010866
 30
0.0
 11
-2.519919
 21
-0.589484
 31
0.0
  0
LINE
  5
6D9
  8
0
  6
BYBLOCK
 62
     0
 10
-4.560366
 20
1.010866
 30
0.0
 11
-4.560366
 21
-0.589484
 31
0.0
  0
LINE
  5
6DA
  8
0
  6
BYBLOCK
 62
     0
 10
-6.459777
 20
1.010866
 30
0.0
 11
-6.459777
 21
-0.589484
 31
0.0
  0
LINE
  5
6DB
  8
0
  6
BYBLOCK
 62
     0
 10
-8.500223
 20
1.010866
 30
0.0
 11
-8.500223
 21
-0.589484
 31
0.0
  0
LINE
  5
6DC
  8
0
  6
BYBLOCK
 62
     0
 10
-10.399634
 20
1.010866
 30
0.0
 11
-10.399634
 21
-0.589484
 31
0.0
  0
LINE
  5
6DD
  8
0
  6
BYBLOCK
 62
     0
 10
-5.785216
 20
2.589508
 30
0.0
 11
-5.785216
 21
-2.610492
 31
0.0
  0
LINE
  5
6DE
  8
0
  6
BYBLOCK
 62
     0
 10
-5.235216
 20
2.589508
 30
0.0
 11
-5.235216
 21
-2.610492
 31
0.0
  0
LINE
  5
6DF
  8
0
  6
BYBLOCK
 62
     0
 10
-9.175073
 20
2.589508
 30
0.0
 11
-9.175073
 21
-2.610492
 31
0.0
  0
LINE
  5
6E0
  8
0
  6
BYBLOCK
 62
     0
 10
-9.725073
 20
2.589508
 30
0.0
 11
-9.725073
 21
-2.610492
 31
0.0
  0
LINE
  5
6E1
  8
0
  6
BYBLOCK
 62
     0
 10
-4.860414
 20
-0.649497
 30
0.0
 11
-4.700379
 21
-0.649497
 31
0.0
  0
LINE
  5
6E2
  8
0
  6
BYBLOCK
 62
     0
 10
-4.920427
 20
-3.543083
 30
0.0
 11
-2.159858
 21
-3.543083
 31
0.0
  0
LINE
  5
6E3
  8
0
  6
BYBLOCK
 62
     0
 10
-5.978046
 20
-5.14343
 30
0.0
 11
-4.492046
 21
-5.14343
 31
0.0
  0
LINE
  5
6E4
  8
0
  6
BYBLOCK
 62
     0
 10
-5.978046
 20
-5.91343
 30
0.0
 11
-4.492046
 21
-5.91343
 31
0.0
  0
LINE
  5
6E6
  8
0
  6
BYBLOCK
 62
     0
 10
-4.920427
 20
-0.70951
 30
0.0
 11
-4.920427
 21
-5.14343
 31
0.0
  0
LINE
  5
6E7
  8
0
  6
BYBLOCK
 62
     0
 10
-6.099716
 20
-0.70951
 30
0.0
 11
-6.099716
 21
-5.40843
 31
0.0
  0
LINE
  5
6E8
  8
0
  6
BYBLOCK
 62
     0
 10
-8.860284
 20
-0.70951
 30
0.0
 11
-8.860284
 21
-5.40843
 31
0.0
  0
LINE
  5
6E9
  8
0
  6
BYBLOCK
 62
     0
 10
-10.039573
 20
-0.70951
 30
0.0
 11
-10.039573
 21
-5.14343
 31
0.0
  0
LINE
  5
6EA
  8
0
  6
BYBLOCK
 62
     0
 10
-7.540133
 20
-5.40843
 30
0.0
 11
-8.940133
 21
-5.40843
 31
0.0
  0
LINE
  5
6EB
  8
0
  6
BYBLOCK
 62
     0
 10
-7.540133
 20
-5.64843
 30
0.0
 11
-8.940133
 21
-5.64843
 31
0.0
  0
LINE
  5
6ED
  8
0
  6
BYBLOCK
 62
     0
 10
-8.948004
 20
-5.885305
 30
0.0
 11
-6.017175
 21
-5.885305
 31
0.0
  0
ARC
  5
6EE
  8
0
  6
BYBLOCK
 62
     0
 10
-8.987133
 20
-5.19043
 30
0.0
 40
0.047
 50
0.0
 51
90.0
  0
LINE
  5
6F0
  8
0
  6
BYBLOCK
 62
     0
 10
-9.523579
 20
-5.669268
 30
0.0
 11
-9.896469
 21
-5.341796
 31
0.0
  0
LINE
  5
6F1
  8
0
  6
BYBLOCK
 62
     0
 10
-9.563084
 20
-5.714427
 30
0.0
 11
-9.936147
 21
-5.386804
 31
0.0
  0
CIRCLE
  5
6F2
  8
0
  6
BYBLOCK
 62
     0
 10
-9.730133
 20
-5.52843
 30
0.0
 40
0.25
  0
CIRCLE
  5
6F3
  8
0
  6
BYBLOCK
 62
     0
 10
-9.730133
 20
-5.52843
 30
0.0
 40
0.305
  0
LINE
  5
6F5
  8
0
  6
BYBLOCK
 62
     0
 10
-8.860284
 20
-5.64843
 30
0.0
 11
-8.860284
 21
-5.885305
 31
0.0
  0
LINE
  5
6F6
  8
0
  6
BYBLOCK
 62
     0
 10
-8.940133
 20
-5.86643
 30
0.0
 11
-8.940133
 21
-5.64843
 31
0.0
  0
ARC
  5
6F7
  8
0
  6
BYBLOCK
 62
     0
 10
-8.987133
 20
-5.86643
 30
0.0
 40
0.047
 50
270.0
 51
0.0
  0
LINE
  5
6F8
  8
0
  6
BYBLOCK
 62
     0
 10
-8.940133
 20
-5.40843
 30
0.0
 11
-8.940133
 21
-5.19043
 31
0.0
  0
ARC
  5
6F9
  8
0
  6
BYBLOCK
 62
     0
 10
-5.978046
 20
-5.19043
 30
0.0
 40
0.047
 50
90.0
 51
180.0
  0
LINE
  5
6FA
  8
0
  6
BYBLOCK
 62
     0
 10
-7.425046
 20
-5.40843
 30
0.0
 11
-6.025046
 21
-5.40843
 31
0.0
  0
LINE
  5
6FB
  8
0
  6
BYBLOCK
 62
     0
 10
-7.425046
 20
-5.64843
 30
0.0
 11
-6.025046
 21
-5.64843
 31
0.0
  0
LINE
  5
6FD
  8
0
  6
BYBLOCK
 62
     0
 10
-7.425046
 20
-5.64843
 30
0.0
 11
-7.425046
 21
-5.40843
 31
0.0
  0
LINE
  5
6FE
  8
0
  6
BYBLOCK
 62
     0
 10
-7.425046
 20
-5.64843
 30
0.0
 11
-7.425046
 21
-5.40843
 31
0.0
  0
LINE
  5
6FF
  8
0
  6
BYBLOCK
 62
     0
 10
-7.540133
 20
-5.64843
 30
0.0
 11
-7.540133
 21
-5.40843
 31
0.0
  0
LINE
  5
700
  8
0
  6
BYBLOCK
 62
     0
 10
-7.540133
 20
-5.64843
 30
0.0
 11
-7.540133
 21
-5.40843
 31
0.0
  0
LINE
  5
701
  8
0
  6
BYBLOCK
 62
     0
 10
-6.025046
 20
-5.86643
 30
0.0
 11
-6.025046
 21
-5.64843
 31
0.0
  0
ARC
  5
702
  8
0
  6
BYBLOCK
 62
     0
 10
-5.978046
 20
-5.86643
 30
0.0
 40
0.047
 50
180.0
 51
270.0
  0
LINE
  5
703
  8
0
  6
BYBLOCK
 62
     0
 10
-6.104895
 20
-5.64843
 30
0.0
 11
-6.104895
 21
-5.885305
 31
0.0
  0
LINE
  5
704
  8
0
  6
BYBLOCK
 62
     0
 10
-6.025046
 20
-5.40843
 30
0.0
 11
-6.025046
 21
-5.19043
 31
0.0
  0
LINE
  5
705
  8
0
  6
BYBLOCK
 62
     0
 10
-5.402095
 20
-5.714427
 30
0.0
 11
-5.029032
 21
-5.386804
 31
0.0
  0
LINE
  5
706
  8
0
  6
BYBLOCK
 62
     0
 10
-5.441601
 20
-5.669268
 30
0.0
 11
-5.06871
 21
-5.341796
 31
0.0
  0
CIRCLE
  5
707
  8
0
  6
BYBLOCK
 62
     0
 10
-5.235046
 20
-5.52843
 30
0.0
 40
0.25
  0
CIRCLE
  5
708
  8
0
  6
BYBLOCK
 62
     0
 10
-5.235046
 20
-5.52843
 30
0.0
 40
0.305
  0
LINE
  5
709
  8
0
  6
BYBLOCK
 62
     0
 10
-8.860284
 20
-3.543083
 30
0.0
 11
-6.099716
 21
-3.543083
 31
0.0
  0
LINE
  5
70A
  8
0
  6
BYBLOCK
 62
     0
 10
-9.175073
 20
-2.610492
 30
0.0
 11
-9.725073
 21
-2.610492
 31
0.0
  0
ARC
  5
70B
  8
0
  6
BYBLOCK
 62
     0
 10
-10.099586
 20
-0.70951
 30
0.0
 40
0.060013
 50
0.0
 51
90.0
  0
LINE
  5
70C
  8
0
  6
BYBLOCK
 62
     0
 10
-10.099586
 20
-0.649497
 30
0.0
 11
-10.339621
 21
-0.649497
 31
0.0
  0
ARC
  5
70D
  8
0
  6
BYBLOCK
 62
     0
 10
-8.800271
 20
-0.70951
 30
0.0
 40
0.060013
 50
90.0
 51
180.0
  0
LINE
  5
70E
  8
0
  6
BYBLOCK
 62
     0
 10
-8.800271
 20
-0.649497
 30
0.0
 11
-8.640236
 21
-0.649497
 31
0.0
  0
ARC
  5
70F
  8
0
  6
BYBLOCK
 62
     0
 10
-8.631779
 20
-0.475892
 30
0.0
 40
0.17381
 50
267.21111
 51
319.191257
  0
LINE
  5
710
  8
0
  6
BYBLOCK
 62
     0
 10
-5.235216
 20
-2.610492
 30
0.0
 11
-5.785216
 21
-2.610492
 31
0.0
  0
LINE
  5
711
  8
0
  6
BYBLOCK
 62
     0
 10
-6.159729
 20
-0.649497
 30
0.0
 11
-6.399764
 21
-0.649497
 31
0.0
  0
ARC
  5
712
  8
0
  6
BYBLOCK
 62
     0
 10
-6.399764
 20
-0.589484
 30
0.0
 40
0.060013
 50
180.0
 51
270.0
  0
ARC
  5
713
  8
0
  6
BYBLOCK
 62
     0
 10
-6.159729
 20
-0.70951
 30
0.0
 40
0.060013
 50
0.0
 51
90.0
  0
ARC
  5
714
  8
0
  6
BYBLOCK
 62
     0
 10
-4.860414
 20
-0.70951
 30
0.0
 40
0.060013
 50
90.0
 51
180.0
  0
LINE
  5
715
  8
0
  6
BYBLOCK
 62
     0
 10
-2.159858
 20
-0.70951
 30
0.0
 11
-2.159858
 21
-5.885305
 31
0.0
  0
LINE
  5
716
  8
0
  6
BYBLOCK
 62
     0
 10
-4.447369
 20
-5.885305
 30
0.0
 11
-1.64
 21
-5.885305
 31
0.0
  0
ARC
  5
717
  8
0
  6
BYBLOCK
 62
     0
 10
-4.492046
 20
-5.19043
 30
0.0
 40
0.047
 50
0.0
 51
90.0
  0
LINE
  5
718
  8
0
  6
BYBLOCK
 62
     0
 10
-4.445046
 20
-5.40843
 30
0.0
 11
-3.045046
 21
-5.40843
 31
0.0
  0
LINE
  5
719
  8
0
  6
BYBLOCK
 62
     0
 10
-4.445046
 20
-5.64843
 30
0.0
 11
-3.045046
 21
-5.64843
 31
0.0
  0
LINE
  5
71B
  8
0
  6
BYBLOCK
 62
     0
 10
-4.445046
 20
-5.86643
 30
0.0
 11
-4.445046
 21
-5.64843
 31
0.0
  0
ARC
  5
71C
  8
0
  6
BYBLOCK
 62
     0
 10
-4.492046
 20
-5.86643
 30
0.0
 40
0.047
 50
270.0
 51
0.0
  0
LINE
  5
71D
  8
0
  6
BYBLOCK
 62
     0
 10
-4.445046
 20
-5.40843
 30
0.0
 11
-4.445046
 21
-5.19043
 31
0.0
  0
LINE
  5
71F
  8
0
  6
BYBLOCK
 62
     0
 10
-3.045046
 20
-5.64843
 30
0.0
 11
-3.045046
 21
-5.40843
 31
0.0
  0
ARC
  5
720
  8
0
  6
BYBLOCK
 62
     0
 10
-4.691922
 20
-0.475892
 30
0.0
 40
0.17381
 50
267.21111
 51
319.191257
  0
ARC
  5
721
  8
0
  6
BYBLOCK
 62
     0
 10
-2.219871
 20
-0.70951
 30
0.0
 40
0.060013
 50
0.0
 51
90.0
  0
ARC
  5
722
  8
0
  6
BYBLOCK
 62
     0
 10
-2.459906
 20
-0.589484
 30
0.0
 40
0.060013
 50
180.0
 51
270.0
  0
LINE
  5
723
  8
0
  6
BYBLOCK
 62
     0
 10
-2.219871
 20
-0.649497
 30
0.0
 11
-2.459906
 21
-0.649497
 31
0.0
  0
LINE
  5
724
  8
0
  6
BYBLOCK
 62
     0
 10
-0.98
 20
-2.995492
 30
0.0
 11
-1.64
 21
-2.995492
 31
0.0
  0
LINE
  5
725
  8
0
  6
BYBLOCK
 62
     0
 10
-5.978046
 20
5.19272
 30
0.0
 11
-4.492046
 21
5.19272
 31
0.0
  0
LINE
  5
726
  8
0
  6
BYBLOCK
 62
     0
 10
-4.860414
 20
1.07088
 30
0.0
 11
-4.700379
 21
1.07088
 31
0.0
  0
LINE
  5
727
  8
0
  6
BYBLOCK
 62
     0
 10
-2.159858
 20
3.54982
 30
0.0
 11
-4.920427
 21
3.54982
 31
0.0
  0
LINE
  5
728
  8
0
  6
BYBLOCK
 62
     0
 10
-6.753427
 20
3.106553
 30
0.0
 11
-6.753427
 21
1.830445
 31
0.0
  0
LINE
  5
729
  8
0
  6
BYBLOCK
 62
     0
 10
-8.206573
 20
3.106553
 30
0.0
 11
-8.206573
 21
1.830445
 31
0.0
  0
LINE
  5
72A
  8
0
  6
BYBLOCK
 62
     0
 10
-4.920427
 20
5.19272
 30
0.0
 11
-4.920427
 21
1.130893
 31
0.0
  0
LINE
  5
72B
  8
0
  6
BYBLOCK
 62
     0
 10
-6.099716
 20
5.45772
 30
0.0
 11
-6.099716
 21
1.130893
 31
0.0
  0
LINE
  5
72C
  8
0
  6
BYBLOCK
 62
     0
 10
-8.860284
 20
5.390174
 30
0.0
 11
-8.860284
 21
1.130893
 31
0.0
  0
LINE
  5
72D
  8
0
  6
BYBLOCK
 62
     0
 10
-10.039573
 20
5.19272
 30
0.0
 11
-10.039573
 21
1.130893
 31
0.0
  0
LINE
  5
72E
  8
0
  6
BYBLOCK
 62
     0
 10
-8.206573
 20
1.830445
 30
0.0
 11
-6.753427
 21
1.830445
 31
0.0
  0
LINE
  5
72F
  8
0
  6
BYBLOCK
 62
     0
 10
-8.206573
 20
0.845868
 30
0.0
 11
-6.753427
 21
0.845868
 31
0.0
  0
LINE
  5
730
  8
0
  6
BYBLOCK
 62
     0
 10
-8.206573
 20
-0.430239
 30
0.0
 11
-6.753427
 21
-0.430239
 31
0.0
  0
LINE
  5
731
  8
0
  6
BYBLOCK
 62
     0
 10
-8.206573
 20
0.845868
 30
0.0
 11
-8.206573
 21
-0.430239
 31
0.0
  0
ARC
  5
732
  8
0
  6
BYBLOCK
 62
     0
 10
-10.099586
 20
1.130893
 30
0.0
 40
0.060013
 50
270.0
 51
0.0
  0
LINE
  5
733
  8
0
  6
BYBLOCK
 62
     0
 10
-10.099586
 20
1.07088
 30
0.0
 11
-10.339621
 21
1.07088
 31
0.0
  0
ARC
  5
734
  8
0
  6
BYBLOCK
 62
     0
 10
-8.800271
 20
1.130893
 30
0.0
 40
0.060013
 50
180.0
 51
270.0
  0
LINE
  5
735
  8
0
  6
BYBLOCK
 62
     0
 10
-8.800271
 20
1.07088
 30
0.0
 11
-8.640236
 21
1.07088
 31
0.0
  0
ARC
  5
736
  8
0
  6
BYBLOCK
 62
     0
 10
-8.631779
 20
0.897275
 30
0.0
 40
0.17381
 50
40.808743
 51
92.78889
  0
LINE
  5
737
  8
0
  6
BYBLOCK
 62
     0
 10
-6.753427
 20
0.845868
 30
0.0
 11
-6.753427
 21
-0.430239
 31
0.0
  0
LINE
  5
738
  8
0
  6
BYBLOCK
 62
     0
 10
-6.159729
 20
1.07088
 30
0.0
 11
-6.399764
 21
1.07088
 31
0.0
  0
ARC
  5
739
  8
0
  6
BYBLOCK
 62
     0
 10
-6.399764
 20
1.010866
 30
0.0
 40
0.060013
 50
90.0
 51
180.0
  0
ARC
  5
73A
  8
0
  6
BYBLOCK
 62
     0
 10
-6.159729
 20
1.130893
 30
0.0
 40
0.060013
 50
270.0
 51
0.0
  0
ARC
  5
73B
  8
0
  6
BYBLOCK
 62
     0
 10
-4.860414
 20
1.130893
 30
0.0
 40
0.060013
 50
180.0
 51
270.0
  0
LINE
  5
73C
  8
0
  6
BYBLOCK
 62
     0
 10
-7.540133
 20
5.45772
 30
0.0
 11
-8.940133
 21
5.45772
 31
0.0
  0
LINE
  5
73D
  8
0
  6
BYBLOCK
 62
     0
 10
-8.481493
 20
4.149837
 30
0.0
 11
-6.478507
 21
4.149837
 31
0.0
  0
LINE
  5
73E
  8
0
  6
BYBLOCK
 62
     0
 10
-8.481493
 20
5.187589
 30
0.0
 11
-6.478507
 21
5.187589
 31
0.0
  0
LINE
  5
73F
  8
0
  6
BYBLOCK
 62
     0
 10
-8.860284
 20
3.538466
 30
0.0
 11
-6.099716
 21
3.538466
 31
0.0
  0
LINE
  5
740
  8
0
  6
BYBLOCK
 62
     0
 10
-8.206573
 20
3.106553
 30
0.0
 11
-6.753427
 21
3.106553
 31
0.0
  0
LINE
  5
741
  8
0
  6
BYBLOCK
 62
     0
 10
-9.175073
 20
2.589508
 30
0.0
 11
-9.725073
 21
2.589508
 31
0.0
  0
LINE
  5
742
  8
0
  6
BYBLOCK
 62
     0
 10
-8.481493
 20
5.187589
 30
0.0
 11
-8.481493
 21
4.149837
 31
0.0
  0
ARC
  5
743
  8
0
  6
BYBLOCK
 62
     0
 10
-8.987133
 20
5.23972
 30
0.0
 40
0.047
 50
270.0
 51
0.0
  0
LINE
  5
744
  8
0
  6
BYBLOCK
 62
     0
 10
-8.940133
 20
5.23972
 30
0.0
 11
-8.940133
 21
5.45772
 31
0.0
  0
LINE
  5
745
  8
0
  6
BYBLOCK
 62
     0
 10
-8.860284
 20
5.45772
 30
0.0
 11
-8.860284
 21
5.220845
 31
0.0
  0
LINE
  5
746
  8
0
  6
BYBLOCK
 62
     0
 10
-5.235216
 20
2.589508
 30
0.0
 11
-5.785216
 21
2.589508
 31
0.0
  0
LINE
  5
747
  8
0
  6
BYBLOCK
 62
     0
 10
-7.425046
 20
5.45772
 30
0.0
 11
-6.025046
 21
5.45772
 31
0.0
  0
LINE
  5
748
  8
0
  6
BYBLOCK
 62
     0
 10
-6.478507
 20
5.187589
 30
0.0
 11
-6.478507
 21
4.149837
 31
0.0
  0
ARC
  5
749
  8
0
  6
BYBLOCK
 62
     0
 10
-5.978046
 20
5.23972
 30
0.0
 40
0.047
 50
180.0
 51
270.0
  0
LINE
  5
74A
  8
0
  6
BYBLOCK
 62
     0
 10
-6.025046
 20
5.23972
 30
0.0
 11
-6.025046
 21
5.45772
 31
0.0
  0
LINE
  5
74B
  8
0
  6
BYBLOCK
 62
     0
 10
-2.813569
 20
3.106553
 30
0.0
 11
-2.813569
 21
1.830445
 31
0.0
  0
LINE
  5
74C
  8
0
  6
BYBLOCK
 62
     0
 10
-4.266716
 20
3.106553
 30
0.0
 11
-4.266716
 21
1.830445
 31
0.0
  0
LINE
  5
74D
  8
0
  6
BYBLOCK
 62
     0
 10
-1.855
 20
0.541918
 30
0.0
 11
-1.855
 21
2.901918
 31
0.0
  0
LINE
  5
74E
  8
0
  6
BYBLOCK
 62
     0
 10
-0.98
 20
0.541918
 30
0.0
 11
-0.98
 21
2.901918
 31
0.0
  0
LINE
  5
74F
  8
0
  6
BYBLOCK
 62
     0
 10
-4.266716
 20
0.845868
 30
0.0
 11
-2.813569
 21
0.845868
 31
0.0
  0
LINE
  5
750
  8
0
  6
BYBLOCK
 62
     0
 10
-4.266716
 20
-0.430239
 30
0.0
 11
-2.813569
 21
-0.430239
 31
0.0
  0
LINE
  5
751
  8
0
  6
BYBLOCK
 62
     0
 10
-4.266716
 20
0.845868
 30
0.0
 11
-4.266716
 21
-0.430239
 31
0.0
  0
LINE
  5
752
  8
0
  6
BYBLOCK
 62
     0
 10
-2.813569
 20
0.845868
 30
0.0
 11
-2.813569
 21
-0.430239
 31
0.0
  0
LINE
  5
753
  8
0
  6
BYBLOCK
 62
     0
 10
-4.266716
 20
1.830445
 30
0.0
 11
-2.813569
 21
1.830445
 31
0.0
  0
ARC
  5
754
  8
0
  6
BYBLOCK
 62
     0
 10
-4.691922
 20
0.897275
 30
0.0
 40
0.17381
 50
40.808743
 51
92.78889
  0
ARC
  5
755
  8
0
  6
BYBLOCK
 62
     0
 10
-2.219871
 20
1.130893
 30
0.0
 40
0.060013
 50
270.0
 51
0.0
  0
ARC
  5
756
  8
0
  6
BYBLOCK
 62
     0
 10
-2.459906
 20
1.010866
 30
0.0
 40
0.060013
 50
90.0
 51
180.0
  0
LINE
  5
757
  8
0
  6
BYBLOCK
 62
     0
 10
-2.219871
 20
1.07088
 30
0.0
 11
-2.459906
 21
1.07088
 31
0.0
  0
LINE
  5
758
  8
0
  6
BYBLOCK
 62
     0
 10
-1.794013
 20
-0.239336
 30
0.0
 11
-1.794013
 21
1.04323
 31
0.0
  0
LINE
  5
759
  8
0
  6
BYBLOCK
 62
     0
 10
-1.794013
 20
1.049068
 30
0.0
 11
-1.794013
 21
-0.233498
 31
0.0
  0
LINE
  5
75A
  8
0
  6
BYBLOCK
 62
     0
 10
-1.847858
 20
-0.246974
 30
0.0
 11
-1.847858
 21
1.056706
 31
0.0
  0
LINE
  5
75B
  8
0
  6
BYBLOCK
 62
     0
 10
-1.672488
 20
-0.466143
 30
0.0
 11
-0.98
 21
-0.466143
 31
0.0
  0
LINE
  5
75C
  8
0
  6
BYBLOCK
 62
     0
 10
-1.672488
 20
-0.526143
 30
0.0
 11
-0.98
 21
-0.526143
 31
0.0
  0
ARC
  5
75D
  8
0
  6
BYBLOCK
 62
     0
 10
-1.672488
 20
-0.406143
 30
0.0
 40
0.06
 50
218.864377
 51
270.0
  0
ARC
  5
75E
  8
0
  6
BYBLOCK
 62
     0
 10
-1.734013
 20
-0.239336
 30
0.0
 40
0.06
 50
180.0
 51
218.864377
  0
ARC
  5
75F
  8
0
  6
BYBLOCK
 62
     0
 10
-1.727858
 20
-0.246974
 30
0.0
 40
0.12
 50
180.0
 51
218.864377
  0
LINE
  5
760
  8
0
  6
BYBLOCK
 62
     0
 10
-1.847858
 20
-0.246974
 30
0.0
 11
-1.765924
 21
-0.481441
 31
0.0
  0
LINE
  5
761
  8
0
  6
BYBLOCK
 62
     0
 10
-1.794013
 20
-0.233498
 30
0.0
 11
-1.719206
 21
-0.443792
 31
0.0
  0
ARC
  5
762
  8
0
  6
BYBLOCK
 62
     0
 10
-1.672488
 20
-0.406143
 30
0.0
 40
0.12
 50
218.864377
 51
270.0
  0
LINE
  5
763
  8
0
  6
BYBLOCK
 62
     0
 10
-0.98
 20
-0.526143
 30
0.0
 11
-0.98
 21
-0.466143
 31
0.0
  0
LINE
  5
764
  8
0
  6
BYBLOCK
 62
     0
 10
-1.301845
 20
0.788918
 30
0.0
 11
-1.533155
 21
0.788918
 31
0.0
  0
LINE
  5
765
  8
0
  6
BYBLOCK
 62
     0
 10
-1.301845
 20
0.724918
 30
0.0
 11
-1.533155
 21
0.724918
 31
0.0
  0
CIRCLE
  5
766
  8
0
  6
BYBLOCK
 62
     0
 10
-1.4175
 20
0.756918
 30
0.0
 40
0.12
  0
LINE
  5
767
  8
0
  6
BYBLOCK
 62
     0
 10
-1.855
 20
0.541918
 30
0.0
 11
-0.98
 21
0.541918
 31
0.0
  0
LINE
  5
768
  8
0
  6
BYBLOCK
 62
     0
 10
-1.04
 20
1.406918
 30
0.0
 11
-1.6
 21
1.406918
 31
0.0
  0
LINE
  5
769
  8
0
  6
BYBLOCK
 62
     0
 10
-1.855
 20
1.531918
 30
0.0
 11
-0.98
 21
1.531918
 31
0.0
  0
LINE
  5
76A
  8
0
  6
BYBLOCK
 62
     0
 10
-1.04
 20
1.156918
 30
0.0
 11
-1.6
 21
1.156918
 31
0.0
  0
LINE
  5
76B
  8
0
  6
BYBLOCK
 62
     0
 10
-1.672488
 20
1.335875
 30
0.0
 11
-0.98
 21
1.335875
 31
0.0
  0
LINE
  5
76C
  8
0
  6
BYBLOCK
 62
     0
 10
-1.672488
 20
1.275875
 30
0.0
 11
-0.98
 21
1.275875
 31
0.0
  0
LINE
  5
76D
  8
0
  6
BYBLOCK
 62
     0
 10
-1.855
 20
0.971918
 30
0.0
 11
-0.98
 21
0.971918
 31
0.0
  0
ARC
  5
76E
  8
0
  6
BYBLOCK
 62
     0
 10
-1.672488
 20
1.215875
 30
0.0
 40
0.06
 50
90.0
 51
141.135623
  0
ARC
  5
76F
  8
0
  6
BYBLOCK
 62
     0
 10
-1.672488
 20
1.215875
 30
0.0
 40
0.12
 50
90.0
 51
141.135623
  0
LINE
  5
770
  8
0
  6
BYBLOCK
 62
     0
 10
-1.6
 20
1.156918
 30
0.0
 11
-1.6
 21
1.406918
 31
0.0
  0
LINE
  5
771
  8
0
  6
BYBLOCK
 62
     0
 10
-1.794013
 20
1.04323
 30
0.0
 11
-1.719206
 21
1.253524
 31
0.0
  0
LINE
  5
772
  8
0
  6
BYBLOCK
 62
     0
 10
-1.847858
 20
1.056706
 30
0.0
 11
-1.765924
 21
1.291172
 31
0.0
  0
LINE
  5
773
  8
0
  6
BYBLOCK
 62
     0
 10
-0.98
 20
1.335875
 30
0.0
 11
-0.98
 21
1.275875
 31
0.0
  0
LINE
  5
774
  8
0
  6
BYBLOCK
 62
     0
 10
-1.04
 20
1.156918
 30
0.0
 11
-1.04
 21
1.406918
 31
0.0
  0
LINE
  5
775
  8
0
  6
BYBLOCK
 62
     0
 10
-1.301845
 20
1.974918
 30
0.0
 11
-1.533155
 21
1.974918
 31
0.0
  0
LINE
  5
776
  8
0
  6
BYBLOCK
 62
     0
 10
-1.301845
 20
2.038918
 30
0.0
 11
-1.533155
 21
2.038918
 31
0.0
  0
CIRCLE
  5
777
  8
0
  6
BYBLOCK
 62
     0
 10
-1.4175
 20
2.006918
 30
0.0
 40
0.12
  0
LINE
  5
778
  8
0
  6
BYBLOCK
 62
     0
 10
-4.266716
 20
3.106553
 30
0.0
 11
-2.813569
 21
3.106553
 31
0.0
  0
LINE
  5
779
  8
0
  6
BYBLOCK
 62
     0
 10
-4.445046
 20
5.45772
 30
0.0
 11
-3.045046
 21
5.45772
 31
0.0
  0
LINE
  5
77A
  8
0
  6
BYBLOCK
 62
     0
 10
-4.541635
 20
5.187589
 30
0.0
 11
-2.53865
 21
5.187589
 31
0.0
  0
LINE
  5
77B
  8
0
  6
BYBLOCK
 62
     0
 10
-4.541635
 20
4.149837
 30
0.0
 11
-2.53865
 21
4.149837
 31
0.0
  0
LINE
  5
77C
  8
0
  6
BYBLOCK
 62
     0
 10
-4.541635
 20
5.187589
 30
0.0
 11
-4.541635
 21
4.149837
 31
0.0
  0
LINE
  5
77D
  8
0
  6
BYBLOCK
 62
     0
 10
-4.445046
 20
5.23972
 30
0.0
 11
-4.445046
 21
5.45772
 31
0.0
  0
ARC
  5
77E
  8
0
  6
BYBLOCK
 62
     0
 10
-4.492046
 20
5.23972
 30
0.0
 40
0.047
 50
270.0
 51
0.0
  0
LINE
  5
77F
  8
0
  6
BYBLOCK
 62
     0
 10
-2.53865
 20
5.187589
 30
0.0
 11
-2.53865
 21
4.149837
 31
0.0
  0
ARC
  5
780
  8
0
  6
BYBLOCK
 62
     0
 10
-1.329003
 20
4.050921
 30
0.0
 40
0.244563
 50
310.417438
 51
49.582562
  0
ARC
  5
781
  8
0
  6
BYBLOCK
 62
     0
 10
-1.395438
 20
4.050921
 30
0.0
 40
0.244563
 50
130.417438
 51
229.582562
  0
LINE
  5
782
  8
0
  6
BYBLOCK
 62
     0
 10
-1.04
 20
3.021918
 30
0.0
 11
-1.04
 21
3.271918
 31
0.0
  0
LINE
  5
783
  8
0
  6
BYBLOCK
 62
     0
 10
-1.056
 20
3.021918
 30
0.0
 11
-1.056
 21
3.271918
 31
0.0
  0
LINE
  5
784
  8
0
  6
BYBLOCK
 62
     0
 10
-1.3875
 20
3.021918
 30
0.0
 11
-1.3875
 21
3.271918
 31
0.0
  0
LINE
  5
785
  8
0
  6
BYBLOCK
 62
     0
 10
-1.3715
 20
3.021918
 30
0.0
 11
-1.3715
 21
3.271918
 31
0.0
  0
LINE
  5
786
  8
0
  6
BYBLOCK
 62
     0
 10
-1.4475
 20
3.021918
 30
0.0
 11
-1.4475
 21
3.621918
 31
0.0
  0
LINE
  5
787
  8
0
  6
BYBLOCK
 62
     0
 10
-1.795
 20
3.021918
 30
0.0
 11
-1.795
 21
3.621918
 31
0.0
  0
LINE
  5
788
  8
0
  6
BYBLOCK
 62
     0
 10
-1.825
 20
3.021918
 30
0.0
 11
-1.01
 21
3.021918
 31
0.0
  0
LINE
  5
789
  8
0
  6
BYBLOCK
 62
     0
 10
-1.855
 20
2.901918
 30
0.0
 11
-0.98
 21
2.901918
 31
0.0
  0
LINE
  5
78A
  8
0
  6
BYBLOCK
 62
     0
 10
-1.4175
 20
2.901918
 30
0.0
 11
-1.4175
 21
3.021918
 31
0.0
  0
LINE
  5
78B
  8
0
  6
BYBLOCK
 62
     0
 10
-1.825
 20
2.901918
 30
0.0
 11
-1.825
 21
3.021918
 31
0.0
  0
LINE
  5
78C
  8
0
  6
BYBLOCK
 62
     0
 10
-1.19775
 20
3.215065
 30
0.0
 11
-1.19775
 21
3.078772
 31
0.0
  0
LINE
  5
78D
  8
0
  6
BYBLOCK
 62
     0
 10
-1.01
 20
2.901918
 30
0.0
 11
-1.01
 21
3.021918
 31
0.0
  0
LINE
  5
78E
  8
0
  6
BYBLOCK
 62
     0
 10
-1.22975
 20
3.215065
 30
0.0
 11
-1.22975
 21
3.078772
 31
0.0
  0
CIRCLE
  5
78F
  8
0
  6
BYBLOCK
 62
     0
 10
-1.21375
 20
3.146918
 30
0.0
 40
0.07
  0
LINE
  5
790
  8
0
  6
BYBLOCK
 62
     0
 10
-1.554
 20
3.864726
 30
0.0
 11
-1.17044
 21
3.864726
 31
0.0
  0
LINE
  5
791
  8
0
  6
BYBLOCK
 62
     0
 10
-1.3875
 20
3.271918
 30
0.0
 11
-1.04
 21
3.271918
 31
0.0
  0
CIRCLE
  5
792
  8
0
  6
BYBLOCK
 62
     0
 10
-1.62125
 20
3.496918
 30
0.0
 40
0.07
  0
LINE
  5
793
  8
0
  6
BYBLOCK
 62
     0
 10
-1.63725
 20
3.565065
 30
0.0
 11
-1.63725
 21
3.428772
 31
0.0
  0
LINE
  5
794
  8
0
  6
BYBLOCK
 62
     0
 10
-1.60525
 20
3.565065
 30
0.0
 11
-1.60525
 21
3.428772
 31
0.0
  0
LINE
  5
795
  8
0
  6
BYBLOCK
 62
     0
 10
-1.4635
 20
3.371918
 30
0.0
 11
-1.4635
 21
3.621918
 31
0.0
  0
LINE
  5
796
  8
0
  6
BYBLOCK
 62
     0
 10
-1.779
 20
3.371918
 30
0.0
 11
-1.779
 21
3.621918
 31
0.0
  0
LINE
  5
797
  8
0
  6
BYBLOCK
 62
     0
 10
-1.795
 20
3.621918
 30
0.0
 11
-1.4475
 21
3.621918
 31
0.0
  0
LINE
  5
798
  8
0
  6
BYBLOCK
 62
     0
 10
-1.795
 20
3.371918
 30
0.0
 11
-1.4475
 21
3.371918
 31
0.0
  0
ARC
  5
799
  8
0
  6
BYBLOCK
 62
     0
 10
-1.93369
 20
4.609508
 30
0.0
 40
0.84925
 50
333.992176
 51
26.007824
  0
ARC
  5
79A
  8
0
  6
BYBLOCK
 62
     0
 10
-0.79075
 20
4.609508
 30
0.0
 40
0.84925
 50
153.992176
 51
206.007824
  0
LINE
  5
79B
  8
0
  6
BYBLOCK
 62
     0
 10
-1.08444
 20
4.050921
 30
0.0
 11
-1.08444
 21
5.168094
 31
0.0
  0
LINE
  5
79C
  8
0
  6
BYBLOCK
 62
     0
 10
-1.64
 20
4.050921
 30
0.0
 11
-1.64
 21
5.168094
 31
0.0
  0
LINE
  5
79E
  8
0
  6
BYBLOCK
 62
     0
 10
-1.554
 20
4.237117
 30
0.0
 11
-1.17044
 21
4.237117
 31
0.0
  0
LINE
  5
79F
  8
0
  6
BYBLOCK
 62
     0
 10
-1.554
 20
5.35429
 30
0.0
 11
-1.17044
 21
5.35429
 31
0.0
  0
LINE
  5
7A0
  8
0
  6
BYBLOCK
 62
     0
 10
-1.554
 20
4.981899
 30
0.0
 11
-1.17044
 21
4.981899
 31
0.0
  0
ARC
  5
7A1
  8
0
  6
BYBLOCK
 62
     0
 10
-1.395438
 20
5.168094
 30
0.0
 40
0.244563
 50
130.417438
 51
229.582562
  0
ARC
  5
7A2
  8
0
  6
BYBLOCK
 62
     0
 10
-1.329003
 20
5.168094
 30
0.0
 40
0.244563
 50
310.417438
 51
49.582562
  0
LINE
  5
7B1
  8
0
  6
BYBLOCK
 62
     0
 10
-8.987133
 20
5.96272
 30
0.0
 11
-10.473133
 21
5.96272
 31
0.0
  0
LINE
  5
7BA
  8
0
  6
BYBLOCK
 62
     0
 10
-12.404109
 20
8.114508
 30
0.0
 11
-13.48
 21
8.114508
 31
0.0
  0
LINE
  5
7BB
  8
0
  6
BYBLOCK
 62
     0
 10
-13.32
 20
5.86432
 30
0.0
 11
-10.513344
 21
5.86432
 31
0.0
  0
LINE
  5
7BC
  8
0
  6
BYBLOCK
 62
     0
 10
-13.98
 20
7.614508
 30
0.0
 11
-12.404109
 21
7.614508
 31
0.0
  0
LINE
  5
7BD
  8
0
  6
BYBLOCK
 62
     0
 10
-13.48
 20
7.614508
 30
0.0
 11
-13.48
 21
8.114508
 31
0.0
  0
LINE
  5
7C3
  8
0
  6
BYBLOCK
 62
     0
 10
-10.520133
 20
5.69772
 30
0.0
 11
-11.920133
 21
5.69772
 31
0.0
  0
LINE
  5
7C5
  8
0
  6
BYBLOCK
 62
     0
 10
-10.520133
 20
5.69772
 30
0.0
 11
-10.520133
 21
5.91572
 31
0.0
  0
ARC
  5
7C6
  8
0
  6
BYBLOCK
 62
     0
 10
-10.473133
 20
5.91572
 30
0.0
 40
0.047
 50
90.0
 51
180.0
  0
LINE
  5
804
  8
0
  6
BYBLOCK
 62
     0
 10
-5.978046
 20
5.96272
 30
0.0
 11
-4.492046
 21
5.96272
 31
0.0
  0
LINE
  5
810
  8
0
  6
BYBLOCK
 62
     0
 10
-7.540133
 20
5.69772
 30
0.0
 11
-8.940133
 21
5.69772
 31
0.0
  0
ARC
  5
814
  8
0
  6
BYBLOCK
 62
     0
 10
-8.987133
 20
5.91572
 30
0.0
 40
0.047
 50
0.0
 51
90.0
  0
LINE
  5
815
  8
0
  6
BYBLOCK
 62
     0
 10
-8.940133
 20
5.69772
 30
0.0
 11
-8.940133
 21
5.91572
 31
0.0
  0
LINE
  5
81C
  8
0
  6
BYBLOCK
 62
     0
 10
-7.425046
 20
5.69772
 30
0.0
 11
-6.025046
 21
5.69772
 31
0.0
  0
ARC
  5
81F
  8
0
  6
BYBLOCK
 62
     0
 10
-5.978046
 20
5.91572
 30
0.0
 40
0.047
 50
90.0
 51
180.0
  0
LINE
  5
820
  8
0
  6
BYBLOCK
 62
     0
 10
-6.025046
 20
5.69772
 30
0.0
 11
-6.025046
 21
5.91572
 31
0.0
  0
LINE
  5
851
  8
0
  6
BYBLOCK
 62
     0
 10
-4.444953
 20
5.86432
 30
0.0
 11
-1.64
 21
5.86432
 31
0.0
  0
LINE
  5
855
  8
0
  6
BYBLOCK
 62
     0
 10
-4.445046
 20
5.69772
 30
0.0
 11
-3.045046
 21
5.69772
 31
0.0
  0
LINE
  5
857
  8
0
  6
BYBLOCK
 62
     0
 10
-4.445046
 20
5.69772
 30
0.0
 11
-4.445046
 21
5.91572
 31
0.0
  0
ARC
  5
858
  8
0
  6
BYBLOCK
 62
     0
 10
-4.492046
 20
5.91572
 30
0.0
 40
0.047
 50
0.0
 51
90.0
  0
LINE
  5
11F3
  8
0
  6
BYBLOCK
 62
     0
 10
-7.67685
 20
6.596231
 30
0.0
 11
-7.67685
 21
7.556643
 31
0.0
  0
LINE
  5
11F4
  8
0
  6
BYBLOCK
 62
     0
 10
-11.616708
 20
6.596231
 30
0.0
 11
-11.616708
 21
7.556643
 31
0.0
  0
CIRCLE
  5
11F5
  8
0
 10
-7.67685
 20
7.076437
 30
0.0
 40
0.334646
  0
CIRCLE
  5
11F6
  8
0
 10
-11.616708
 20
7.076437
 30
0.0
 40
0.334646
  0
CIRCLE
  5
11FB
  8
0
 10
-3.736993
 20
7.076437
 30
0.0
 40
0.334646
  0
LINE
  5
11FC
  8
0
  6
BYBLOCK
 62
     0
 10
-3.736993
 20
6.596231
 30
0.0
 11
-3.736993
 21
7.556643
 31
0.0
  0
LINE
  5
11FF
  8
0
  6
BYBLOCK
 62
     0
 10
-12.404109
 20
9.635492
 30
0.0
 11
-10.435606
 21
9.635492
 31
0.0
  0
LINE
  5
1201
  8
0
  6
BYBLOCK
 62
     0
 10
-11.223007
 20
8.171034
 30
0.0
 11
-11.223007
 21
9.131446
 31
0.0
  0
CIRCLE
  5
1202
  8
0
 10
-11.223007
 20
8.65124
 30
0.0
 40
0.334646
  0
LINE
  5
1203
  8
0
  6
BYBLOCK
 62
     0
 10
-11.703213
 20
8.65124
 30
0.0
 11
-10.742801
 21
8.65124
 31
0.0
  0
LINE
  5
1204
  8
0
  6
BYBLOCK
 62
     0
 10
-7.763355
 20
8.65124
 30
0.0
 11
-6.802944
 21
8.65124
 31
0.0
  0
LINE
  5
1205
  8
0
  6
BYBLOCK
 62
     0
 10
-7.28315
 20
8.171034
 30
0.0
 11
-7.28315
 21
9.131446
 31
0.0
  0
CIRCLE
  5
1206
  8
0
 10
-7.28315
 20
8.65124
 30
0.0
 40
0.334646
  0
CIRCLE
  5
1207
  8
0
 10
-3.343292
 20
8.65124
 30
0.0
 40
0.334646
  0
LINE
  5
1208
  8
0
  6
BYBLOCK
 62
     0
 10
-3.823498
 20
8.65124
 30
0.0
 11
-2.863086
 21
8.65124
 31
0.0
  0
LINE
  5
1209
  8
0
  6
BYBLOCK
 62
     0
 10
-3.343292
 20
8.171034
 30
0.0
 11
-3.343292
 21
9.131446
 31
0.0
  0
LINE
  5
120C
  8
0
  6
BYBLOCK
 62
     0
 10
-4.524394
 20
8.114508
 30
0.0
 11
-6.495748
 21
8.114508
 31
0.0
  0
LINE
  5
120F
  8
0
  6
BYBLOCK
 62
     0
 10
-8.464252
 20
8.114508
 30
0.0
 11
-10.435606
 21
8.114508
 31
0.0
  0
LINE
  5
1212
  8
0
  6
BYBLOCK
 62
     0
 10
-8.157056
 20
7.076437
 30
0.0
 11
-7.196645
 21
7.076437
 31
0.0
  0
LINE
  5
1214
  8
0
  6
BYBLOCK
 62
     0
 10
-12.096914
 20
7.076437
 30
0.0
 11
-11.136502
 21
7.076437
 31
0.0
  0
LINE
  5
1215
  8
0
  6
BYBLOCK
 62
     0
 10
-4.217199
 20
7.076437
 30
0.0
 11
-3.256787
 21
7.076437
 31
0.0
  0
LINE
  5
1216
  8
0
  6
BYBLOCK
 62
     0
 10
-4.524394
 20
-8.385492
 30
0.0
 11
-6.495748
 21
-8.385492
 31
0.0
  0
CIRCLE
  5
1219
  8
0
 10
-11.616708
 20
-8.65124
 30
0.0
 40
0.334646
  0
LINE
  5
121A
  8
0
  6
BYBLOCK
 62
     0
 10
-11.136502
 20
-8.65124
 30
0.0
 11
-12.096914
 21
-8.65124
 31
0.0
  0
LINE
  5
121B
  8
0
  6
BYBLOCK
 62
     0
 10
-10.435606
 20
-9.635492
 30
0.0
 11
-12.404109
 21
-9.635492
 31
0.0
  0
CIRCLE
  5
121C
  8
0
 10
-7.28315
 20
-7.076437
 30
0.0
 40
0.334646
  0
LINE
  5
121D
  8
0
  6
BYBLOCK
 62
     0
 10
-7.28315
 20
-6.596231
 30
0.0
 11
-7.28315
 21
-7.556643
 31
0.0
  0
CIRCLE
  5
121E
  8
0
 10
-11.223007
 20
-7.076437
 30
0.0
 40
0.334646
  0
LINE
  5
121F
  8
0
  6
BYBLOCK
 62
     0
 10
-11.223007
 20
-6.596231
 30
0.0
 11
-11.223007
 21
-7.556643
 31
0.0
  0
LINE
  5
1225
  8
0
  6
BYBLOCK
 62
     0
 10
-6.495748
 20
-9.635492
 30
0.0
 11
-8.464252
 21
-9.635492
 31
0.0
  0
LINE
  5
1226
  8
0
  6
BYBLOCK
 62
     0
 10
-8.464252
 20
-8.385492
 30
0.0
 11
-10.435606
 21
-8.385492
 31
0.0
  0
LINE
  5
1228
  8
0
  6
BYBLOCK
 62
     0
 10
-11.616708
 20
-8.171034
 30
0.0
 11
-11.616708
 21
-9.131446
 31
0.0
  0
LINE
  5
1229
  8
0
  6
BYBLOCK
 62
     0
 10
-7.67685
 20
-8.171034
 30
0.0
 11
-7.67685
 21
-9.131446
 31
0.0
  0
CIRCLE
  5
122A
  8
0
 10
-7.67685
 20
-8.65124
 30
0.0
 40
0.334646
  0
LINE
  5
122B
  8
0
  6
BYBLOCK
 62
     0
 10
-7.196645
 20
-8.65124
 30
0.0
 11
-8.157056
 21
-8.65124
 31
0.0
  0
LINE
  5
122C
  8
0
  6
BYBLOCK
 62
     0
 10
-10.742801
 20
-7.076437
 30
0.0
 11
-11.703213
 21
-7.076437
 31
0.0
  0
LINE
  5
122D
  8
0
  6
BYBLOCK
 62
     0
 10
-6.802944
 20
-7.076437
 30
0.0
 11
-7.763355
 21
-7.076437
 31
0.0
  0
CIRCLE
  5
122E
  8
0
 10
-3.343292
 20
-7.076437
 30
0.0
 40
0.334646
  0
LINE
  5
122F
  8
0
  6
BYBLOCK
 62
     0
 10
-3.343292
 20
-6.596231
 30
0.0
 11
-3.343292
 21
-7.556643
 31
0.0
  0
CIRCLE
  5
1232
  8
0
 10
-3.736993
 20
-8.65124
 30
0.0
 40
0.334646
  0
LINE
  5
1233
  8
0
  6
BYBLOCK
 62
     0
 10
-3.256787
 20
-8.65124
 30
0.0
 11
-4.217199
 21
-8.65124
 31
0.0
  0
LINE
  5
1234
  8
0
  6
BYBLOCK
 62
     0
 10
-2.555891
 20
-9.635492
 30
0.0
 11
-4.524394
 21
-9.635492
 31
0.0
  0
LINE
  5
1235
  8
0
  6
BYBLOCK
 62
     0
 10
-3.736993
 20
-8.171034
 30
0.0
 11
-3.736993
 21
-9.131446
 31
0.0
  0
LINE
  5
1236
  8
0
  6
BYBLOCK
 62
     0
 10
-2.863086
 20
-7.076437
 30
0.0
 11
-3.823498
 21
-7.076437
 31
0.0
  0
CIRCLE
  5
129B
  8
0
 62
     1
 10
-9.842205
 20
7.469508
 30
0.0
 40
0.275
  0
LINE
  5
129C
  8
0
  6
BYBLOCK
 62
     0
 10
-10.112205
 20
7.469508
 30
0.0
 11
-9.572205
 21
7.469508
 31
0.0
  0
LINE
  5
129D
  8
0
  6
BYBLOCK
 62
     0
 10
-5.117795
 20
7.199508
 30
0.0
 11
-5.117795
 21
7.739508
 31
0.0
  0
CIRCLE
  5
129E
  8
0
 62
     1
 10
-5.117795
 20
7.469508
 30
0.0
 40
0.275
  0
LINE
  5
129F
  8
0
  6
BYBLOCK
 62
     0
 10
-5.387795
 20
7.469508
 30
0.0
 11
-4.847795
 21
7.469508
 31
0.0
  0
LINE
  5
12A0
  8
0
  6
BYBLOCK
 62
     0
 10
-9.842205
 20
7.199508
 30
0.0
 11
-9.842205
 21
7.739508
 31
0.0
  0
CIRCLE
  5
12A1
  8
0
 62
     1
 10
-5.117795
 20
-7.490492
 30
0.0
 40
0.275
  0
LINE
  5
12A2
  8
0
  6
BYBLOCK
 62
     0
 10
-5.117795
 20
-7.760492
 30
0.0
 11
-5.117795
 21
-7.220492
 31
0.0
  0
LINE
  5
12A3
  8
0
  6
BYBLOCK
 62
     0
 10
-5.387795
 20
-7.490492
 30
0.0
 11
-4.847795
 21
-7.490492
 31
0.0
  0
CIRCLE
  5
12A4
  8
0
 62
     1
 10
-9.842205
 20
-7.490492
 30
0.0
 40
0.275
  0
LINE
  5
12A5
  8
0
  6
BYBLOCK
 62
     0
 10
-9.842205
 20
-7.760492
 30
0.0
 11
-9.842205
 21
-7.220492
 31
0.0
  0
LINE
  5
12A6
  8
0
  6
BYBLOCK
 62
     0
 10
-10.112205
 20
-7.490492
 30
0.0
 11
-9.572205
 21
-7.490492
 31
0.0
  0
LINE
  5
12CB
  8
0
 10
-12.404109
 20
9.635492
 30
0.0
 11
-12.404109
 21
5.86432
 31
0.0
  0
LINE
  5
12CC
  8
0
 10
-10.435606
 20
9.635492
 30
0.0
 11
-10.435606
 21
5.96272
 31
0.0
  0
LINE
  5
12CD
  8
0
 10
-6.495748
 20
9.635492
 30
0.0
 11
-6.495748
 21
5.69772
 31
0.0
  0
LINE
  5
12CE
  8
0
 10
-8.464252
 20
9.635492
 30
0.0
 11
-8.464252
 21
5.69772
 31
0.0
  0
LINE
  5
12CF
  8
0
  6
BYBLOCK
 62
     0
 10
-8.464252
 20
9.635492
 30
0.0
 11
-6.495748
 21
9.635492
 31
0.0
  0
LINE
  5
12D0
  8
0
 10
-2.555891
 20
9.635492
 30
0.0
 11
-2.555891
 21
5.86432
 31
0.0
  0
LINE
  5
12D1
  8
0
 10
-4.524394
 20
9.635492
 30
0.0
 11
-4.524394
 21
5.96272
 31
0.0
  0
LINE
  5
12D2
  8
0
  6
BYBLOCK
 62
     0
 10
-4.524394
 20
9.635492
 30
0.0
 11
-2.555891
 21
9.635492
 31
0.0
  0
LINE
  5
12D3
  8
0
 10
-6.495748
 20
-5.885305
 30
0.0
 11
-6.495748
 21
-9.635492
 31
0.0
  0
LINE
  5
12D4
  8
0
 10
-8.464252
 20
-5.885305
 30
0.0
 11
-8.464252
 21
-9.635492
 31
0.0
  0
LINE
  5
12F2
  8
0
 10
-10.435606
 20
-5.91343
 30
0.0
 11
-10.435606
 21
-9.635492
 31
0.0
  0
LINE
  5
12F3
  8
0
 10
-12.404109
 20
-5.885305
 30
0.0
 11
-12.404109
 21
-9.635492
 31
0.0
  0
LINE
  5
12F4
  8
0
 10
-2.555891
 20
-5.885305
 30
0.0
 11
-2.555891
 21
-9.635492
 31
0.0
  0
LINE
  5
12F5
  8
0
 10
-4.524394
 20
-5.91343
 30
0.0
 11
-4.524394
 21
-9.635492
 31
0.0
  0
LINE
  5
1331
  8
0
  6
BYBLOCK
 62
     0
 10
-0.98
 20
2.901918
 30
0.0
 11
-0.98
 21
7.614508
 31
0.0
  0
LINE
  5
1332
  8
0
  6
BYBLOCK
 62
     0
 10
-0.98
 20
7.614508
 30
0.0
 11
-2.555891
 21
7.614508
 31
0.0
  0
LINE
  5
1333
  8
0
  6
BYBLOCK
 62
     0
 10
-2.555891
 20
8.114508
 30
0.0
 11
-1.48
 21
8.114508
 31
0.0
  0
LINE
  5
1334
  8
0
  6
BYBLOCK
 62
     0
 10
-1.48
 20
7.614508
 30
0.0
 11
-1.48
 21
8.114508
 31
0.0
  0
LINE
  5
14B4
  8
0
  6
BYBLOCK
 62
     0
 10
17.55
 20
7.78122
 30
0.0
 11
17.64
 21
7.78122
 31
0.0
  0
LINE
  5
14B5
  8
0
  6
BYBLOCK
 62
     0
 10
17.394
 20
8.23422
 30
0.0
 11
17.55
 21
8.23422
 31
0.0
  0
LINE
  5
14B6
  8
0
  6
BYBLOCK
 62
     0
 10
17.55
 20
7.15722
 30
0.0
 11
17.64
 21
7.15722
 31
0.0
  0
LINE
  5
14B7
  8
0
  6
CENTER
 62
     0
 10
16.811083
 20
7.46922
 30
0.0
 11
18.192481
 21
7.46922
 31
0.0
  0
LINE
  5
14B8
  8
0
  6
BYBLOCK
 62
     0
 10
17.64
 20
7.78122
 30
0.0
 11
17.64
 21
7.15722
 31
0.0
  0
LINE
  5
14B9
  8
0
  6
BYBLOCK
 62
     0
 10
16.91051
 20
4.234803
 30
0.0
 11
16.91051
 21
4.983638
 31
0.0
  0
LINE
  5
14BA
  8
0
  6
BYBLOCK
 62
     0
 10
16.262
 20
5.358056
 30
0.0
 11
15.61349
 21
4.983638
 31
0.0
  0
LINE
  5
14BB
  8
0
  6
BYBLOCK
 62
     0
 10
15.61349
 20
4.234803
 30
0.0
 11
16.262
 21
3.860385
 31
0.0
  0
LINE
  5
14BC
  8
0
  6
BYBLOCK
 62
     0
 10
15.61349
 20
4.983638
 30
0.0
 11
15.61349
 21
4.234803
 31
0.0
  0
ARC
  5
14BD
  8
0
  6
BYBLOCK
 62
     0
 10
16.262
 20
4.60922
 30
0.0
 40
0.43234
 50
74.897715
 51
22.698218
  0
CIRCLE
  5
14BE
  8
0
  6
BYBLOCK
 62
     0
 10
16.262
 20
4.60922
 30
0.0
 40
0.380459
  0
LINE
  5
14BF
  8
0
  6
BYBLOCK
 62
     0
 10
15.269
 20
5.864033
 30
0.0
 11
15.269
 21
7.36422
 31
0.0
  0
LINE
  5
14C0
  8
0
  6
BYBLOCK
 62
     0
 10
16.262
 20
3.860385
 30
0.0
 11
16.91051
 21
4.234803
 31
0.0
  0
LINE
  5
14C1
  8
0
  6
BYBLOCK
 62
     0
 10
16.91051
 20
4.983638
 30
0.0
 11
16.262
 21
5.358056
 31
0.0
  0
LINE
  5
14C2
  8
0
  6
BYBLOCK
 62
     0
 10
17.394
 20
7.36422
 30
0.0
 11
15.269
 21
7.36422
 31
0.0
  0
CIRCLE
  5
14C3
  8
0
  6
BYBLOCK
 62
     0
 10
15.43
 20
1.98922
 30
0.0
 40
0.3125
  0
ARC
  5
14C4
  8
0
  6
BYBLOCK
 62
     0
 10
16.15
 20
-0.01078
 30
0.0
 40
0.28
 50
270.0
 51
90.0
  0
ARC
  5
14C5
  8
0
  6
BYBLOCK
 62
     0
 10
14.71
 20
-0.01078
 30
0.0
 40
0.28
 50
90.0
 51
270.0
  0
LINE
  5
14C6
  8
0
  6
BYBLOCK
 62
     0
 10
14.71
 20
0.26922
 30
0.0
 11
16.15
 21
0.26922
 31
0.0
  0
LINE
  5
14C7
  8
0
  6
BYBLOCK
 62
     0
 10
14.71
 20
-0.29078
 30
0.0
 11
16.15
 21
-0.29078
 31
0.0
  0
CIRCLE
  5
14C8
  8
0
  6
BYBLOCK
 62
     0
 10
15.43
 20
-2.01078
 30
0.0
 40
0.3125
  0
LINE
  5
14C9
  8
0
  6
BYBLOCK
 62
     0
 10
17.304
 20
-6.14578
 30
0.0
 11
17.394
 21
-6.14578
 31
0.0
  0
LINE
  5
14CA
  8
0
  6
BYBLOCK
 62
     0
 10
17.55
 20
-7.17878
 30
0.0
 11
17.64
 21
-7.17878
 31
0.0
  0
LINE
  5
14CB
  8
0
  6
BYBLOCK
 62
     0
 10
17.55
 20
-7.80278
 30
0.0
 11
17.64
 21
-7.80278
 31
0.0
  0
LINE
  5
14CC
  8
0
  6
BYBLOCK
 62
     0
 10
17.64
 20
-7.17878
 30
0.0
 11
17.64
 21
-7.80278
 31
0.0
  0
LINE
  5
14CD
  8
0
  6
BYBLOCK
 62
     0
 10
17.394
 20
-8.32578
 30
0.0
 11
17.55
 21
-8.32578
 31
0.0
  0
LINE
  5
14CE
  8
0
  6
BYBLOCK
 62
     0
 10
17.394
 20
-8.32578
 30
0.0
 11
17.55
 21
-8.32578
 31
0.0
  0
LINE
  5
14CF
  8
0
  6
CENTER
 62
     0
 10
16.811083
 20
-7.49078
 30
0.0
 11
18.192481
 21
-7.49078
 31
0.0
  0
LINE
  5
14D0
  8
0
  6
BYBLOCK
 62
     0
 10
17.304
 20
-9.76578
 30
0.0
 11
17.394
 21
-9.76578
 31
0.0
  0
LINE
  5
14D1
  8
0
  6
BYBLOCK
 62
     0
 10
17.304
 20
-9.76578
 30
0.0
 11
17.304
 21
-6.14578
 31
0.0
  0
LINE
  5
14D2
  8
0
  6
BYBLOCK
 62
     0
 10
13.929
 20
-9.76578
 30
0.0
 11
13.929
 21
-7.01578
 31
0.0
  0
LINE
  5
14D3
  8
0
  6
BYBLOCK
 62
     0
 10
17.304
 20
-7.01578
 30
0.0
 11
13.929
 21
-7.01578
 31
0.0
  0
LINE
  5
14D4
  8
0
  6
BYBLOCK
 62
     0
 10
17.304
 20
-9.76578
 30
0.0
 11
13.929
 21
-9.76578
 31
0.0
  0
LINE
  5
14D5
  8
0
  6
BYBLOCK
 62
     0
 10
17.394
 20
-9.76578
 30
0.0
 11
17.394
 21
8.23422
 31
0.0
  0
LINE
  5
14D6
  8
0
  6
BYBLOCK
 62
     0
 10
17.55
 20
8.23422
 30
0.0
 11
17.55
 21
-8.32578
 31
0.0
  0
LINE
  5
14D7
  8
0
  6
BYBLOCK
 62
     0
 10
10.3
 20
7.61422
 30
0.0
 11
10.36
 21
7.61422
 31
0.0
  0
LINE
  5
14D9
  8
0
  6
BYBLOCK
 62
     0
 10
9.8
 20
6.364033
 30
0.0
 11
10.3
 21
6.364033
 31
0.0
  0
LINE
  5
14DB
  8
0
  6
BYBLOCK
 62
     0
 10
10.896292
 20
5.639245
 30
0.0
 11
11.05782
 21
5.35947
 31
0.0
  0
LINE
  5
14DC
  8
0
  6
BYBLOCK
 62
     0
 10
10.411708
 20
5.35947
 30
0.0
 11
10.573236
 21
5.639245
 31
0.0
  0
LINE
  5
14DD
  8
0
  6
BYBLOCK
 62
     0
 10
10.573236
 20
5.639245
 30
0.0
 11
10.896292
 21
5.639245
 31
0.0
  0
LINE
  5
14DE
  8
0
  6
BYBLOCK
 62
     0
 10
10.573236
 20
4.443799
 30
0.0
 11
10.896292
 21
4.443799
 31
0.0
  0
LINE
  5
14DF
  8
0
  6
BYBLOCK
 62
     0
 10
10.896292
 20
5.079695
 30
0.0
 11
10.573236
 21
5.079695
 31
0.0
  0
LINE
  5
14E0
  8
0
  6
BYBLOCK
 62
     0
 10
10.573236
 20
5.079695
 30
0.0
 11
10.411708
 21
5.35947
 31
0.0
  0
LINE
  5
14E1
  8
0
  6
BYBLOCK
 62
     0
 10
11.05782
 20
5.35947
 30
0.0
 11
10.896292
 21
5.079695
 31
0.0
  0
LINE
  5
14E2
  8
0
  6
BYBLOCK
 62
     0
 10
11.05782
 20
4.164024
 30
0.0
 11
10.896292
 21
3.884249
 31
0.0
  0
LINE
  5
14E3
  8
0
  6
BYBLOCK
 62
     0
 10
10.573236
 20
3.884249
 30
0.0
 11
10.411708
 21
4.164024
 31
0.0
  0
LINE
  5
14E4
  8
0
  6
BYBLOCK
 62
     0
 10
10.896292
 20
3.884249
 30
0.0
 11
10.573236
 21
3.884249
 31
0.0
  0
LINE
  5
14E5
  8
0
  6
BYBLOCK
 62
     0
 10
10.896292
 20
3.197593
 30
0.0
 11
11.05782
 21
2.917818
 31
0.0
  0
LINE
  5
14E6
  8
0
  6
BYBLOCK
 62
     0
 10
10.411708
 20
2.917818
 30
0.0
 11
10.573236
 21
3.197593
 31
0.0
  0
LINE
  5
14E7
  8
0
  6
BYBLOCK
 62
     0
 10
10.3
 20
2.97422
 30
0.0
 11
10.36
 21
2.97422
 31
0.0
  0
LINE
  5
14E8
  8
0
  6
BYBLOCK
 62
     0
 10
10.573236
 20
3.197593
 30
0.0
 11
10.896292
 21
3.197593
 31
0.0
  0
LINE
  5
14E9
  8
0
  6
BYBLOCK
 62
     0
 10
10.411708
 20
4.164024
 30
0.0
 11
10.573236
 21
4.443799
 31
0.0
  0
LINE
  5
14EA
  8
0
  6
BYBLOCK
 62
     0
 10
10.896292
 20
4.443799
 30
0.0
 11
11.05782
 21
4.164024
 31
0.0
  0
LINE
  5
14EB
  8
0
  6
BYBLOCK
 62
     0
 10
10.3
 20
7.61422
 30
0.0
 11
10.3
 21
2.97422
 31
0.0
  0
LINE
  5
14EC
  8
0
  6
BYBLOCK
 62
     0
 10
9.8
 20
6.364033
 30
0.0
 11
9.8
 21
5.864033
 31
0.0
  0
POINT
  5
14F0
  8
0
  6
BYBLOCK
 62
     0
 10
8.05
 20
2.925587
 30
0.0
  0
LINE
  5
14F1
  8
0
  6
BYBLOCK
 62
     0
 10
7.8
 20
5.864033
 30
0.0
 11
7.8
 21
2.925587
 31
0.0
  0
LINE
  5
14F2
  8
0
  6
BYBLOCK
 62
     0
 10
6.531043
 20
3.336707
 30
0.0
 11
6.643777
 21
3.295587
 31
0.0
  0
LINE
  5
14F3
  8
0
  6
BYBLOCK
 62
     0
 10
6.552591
 20
3.045587
 30
0.0
 11
6.643777
 21
3.295587
 31
0.0
  0
LINE
  5
14F4
  8
0
  6
BYBLOCK
 62
     0
 10
6.700639
 20
3.101284
 30
0.0
 11
6.587904
 21
3.142404
 31
0.0
  0
LINE
  5
14F5
  8
0
  6
BYBLOCK
 62
     0
 10
6.721199
 20
3.157651
 30
0.0
 11
6.608464
 21
3.198771
 31
0.0
  0
LINE
  5
14F6
  8
0
  6
BYBLOCK
 62
     0
 10
6.536957
 20
2.94002
 30
0.0
 11
6.521047
 21
2.925587
 31
0.0
  0
ARC
  5
14F7
  8
0
  6
BYBLOCK
 62
     0
 10
6.496645
 20
2.98446
 30
0.0
 40
0.06
 50
312.211538
 51
3.926185
  0
LINE
  5
14F8
  8
0
  6
BYBLOCK
 62
     0
 10
6.552591
 20
3.045587
 30
0.0
 11
6.556504
 21
2.988568
 31
0.0
  0
ARC
  5
14F9
  8
0
  6
BYBLOCK
 62
     0
 10
6.496645
 20
2.98446
 30
0.0
 40
0.03
 50
312.211538
 51
3.926185
  0
LINE
  5
14FA
  8
0
  6
BYBLOCK
 62
     0
 10
6.516801
 20
2.96224
 30
0.0
 11
6.476396
 21
2.925587
 31
0.0
  0
LINE
  5
14FB
  8
0
  6
BYBLOCK
 62
     0
 10
6.521748
 20
3.056837
 30
0.0
 11
6.526575
 21
2.986514
 31
0.0
  0
LINE
  5
14FC
  8
0
  6
BYBLOCK
 62
     0
 10
6.700639
 20
3.101284
 30
0.0
 11
6.721199
 21
3.157651
 31
0.0
  0
LINE
  5
14FD
  8
0
  6
BYBLOCK
 62
     0
 10
6.202274
 20
3.711707
 30
0.0
 11
6.315009
 21
3.670587
 31
0.0
  0
LINE
  5
14FE
  8
0
  6
BYBLOCK
 62
     0
 10
6.37187
 20
3.476284
 30
0.0
 11
6.259135
 21
3.517404
 31
0.0
  0
LINE
  5
14FF
  8
0
  6
BYBLOCK
 62
     0
 10
6.39243
 20
3.532651
 30
0.0
 11
6.279695
 21
3.573771
 31
0.0
  0
LINE
  5
1500
  8
0
  6
BYBLOCK
 62
     0
 10
6.37187
 20
3.476284
 30
0.0
 11
6.39243
 21
3.532651
 31
0.0
  0
LINE
  5
1501
  8
0
  6
BYBLOCK
 62
     0
 10
5.561335
 20
3.599643
 30
0.0
 11
5.540775
 21
3.656011
 31
0.0
  0
LINE
  5
1502
  8
0
  6
BYBLOCK
 62
     0
 10
6.265
 20
3.045587
 30
0.0
 11
6.189944
 21
3.175587
 31
0.0
  0
LINE
  5
1503
  8
0
  6
BYBLOCK
 62
     0
 10
6.265
 20
3.045587
 30
0.0
 11
6.325
 21
3.045587
 31
0.0
  0
LINE
  5
1504
  8
0
  6
BYBLOCK
 62
     0
 10
6.325
 20
2.795587
 30
0.0
 11
6.325
 21
3.045587
 31
0.0
  0
LINE
  5
1505
  8
0
  6
BYBLOCK
 62
     0
 10
6.265
 20
2.795587
 30
0.0
 11
6.325
 21
2.795587
 31
0.0
  0
LINE
  5
1506
  8
0
  6
BYBLOCK
 62
     0
 10
6.265
 20
2.795587
 30
0.0
 11
6.265
 21
3.045587
 31
0.0
  0
LINE
  5
1507
  8
0
  6
BYBLOCK
 62
     0
 10
6.192979
 20
3.431837
 30
0.0
 11
6.197806
 21
3.361514
 31
0.0
  0
LINE
  5
1508
  8
0
  6
BYBLOCK
 62
     0
 10
6.188032
 20
3.33724
 30
0.0
 11
6.009827
 21
3.175587
 31
0.0
  0
ARC
  5
1509
  8
0
  6
BYBLOCK
 62
     0
 10
6.167876
 20
3.35946
 30
0.0
 40
0.03
 50
312.211538
 51
3.926185
  0
LINE
  5
150A
  8
0
  6
BYBLOCK
 62
     0
 10
6.223822
 20
3.420587
 30
0.0
 11
6.227735
 21
3.363568
 31
0.0
  0
ARC
  5
150B
  8
0
  6
BYBLOCK
 62
     0
 10
6.167876
 20
3.35946
 30
0.0
 40
0.06
 50
312.211538
 51
3.926185
  0
LINE
  5
150C
  8
0
  6
BYBLOCK
 62
     0
 10
6.208188
 20
3.31502
 30
0.0
 11
6.054478
 21
3.175587
 31
0.0
  0
LINE
  5
150D
  8
0
  6
BYBLOCK
 62
     0
 10
6.111087
 20
3.461707
 30
0.0
 11
6.223822
 21
3.420587
 31
0.0
  0
LINE
  5
150E
  8
0
  6
BYBLOCK
 62
     0
 10
5.7675
 20
3.045587
 30
0.0
 11
5.692444
 21
3.175587
 31
0.0
  0
LINE
  5
150F
  8
0
  6
BYBLOCK
 62
     0
 10
5.8275
 20
3.045587
 30
0.0
 11
5.902556
 21
3.175587
 31
0.0
  0
LINE
  5
1510
  8
0
  6
BYBLOCK
 62
     0
 10
5.7675
 20
2.795587
 30
0.0
 11
5.7675
 21
3.045587
 31
0.0
  0
LINE
  5
1511
  8
0
  6
BYBLOCK
 62
     0
 10
5.7675
 20
2.795587
 30
0.0
 11
5.8275
 21
2.795587
 31
0.0
  0
LINE
  5
1512
  8
0
  6
BYBLOCK
 62
     0
 10
5.8275
 20
2.795587
 30
0.0
 11
5.8275
 21
3.045587
 31
0.0
  0
LINE
  5
1513
  8
0
  6
BYBLOCK
 62
     0
 10
5.7675
 20
3.045587
 30
0.0
 11
5.8275
 21
3.045587
 31
0.0
  0
LINE
  5
1514
  8
0
  6
BYBLOCK
 62
     0
 10
5.543413
 20
3.317624
 30
0.0
 11
5.574649
 21
3.175587
 31
0.0
  0
LINE
  5
1515
  8
0
  6
BYBLOCK
 62
     0
 10
5.517543
 20
3.300587
 30
0.0
 11
5.545032
 21
3.175587
 31
0.0
  0
LINE
  5
1516
  8
0
  6
BYBLOCK
 62
     0
 10
5.902556
 20
3.175587
 30
0.0
 11
6.189944
 21
3.175587
 31
0.0
  0
LINE
  5
1517
  8
0
  6
BYBLOCK
 62
     0
 10
6.111087
 20
3.461707
 30
0.0
 11
6.202274
 21
3.711707
 31
0.0
  0
LINE
  5
1518
  8
0
  6
BYBLOCK
 62
     0
 10
6.223822
 20
3.420587
 30
0.0
 11
6.315009
 21
3.670587
 31
0.0
  0
LINE
  5
1519
  8
0
  6
BYBLOCK
 62
     0
 10
6.439856
 20
3.086707
 30
0.0
 11
6.531043
 21
3.336707
 31
0.0
  0
LINE
  5
151A
  8
0
  6
BYBLOCK
 62
     0
 10
6.439856
 20
3.086707
 30
0.0
 11
6.552591
 21
3.045587
 31
0.0
  0
LINE
  5
151B
  8
0
  6
BYBLOCK
 62
     0
 10
6.325
 20
2.925587
 30
0.0
 11
8.05
 21
2.925587
 31
0.0
  0
LINE
  5
151E
  8
0
  6
BYBLOCK
 62
     0
 10
10.573236
 20
1.933574
 30
0.0
 11
10.896292
 21
1.933574
 31
0.0
  0
LINE
  5
151F
  8
0
  6
BYBLOCK
 62
     0
 10
10.36
 20
2.35922
 30
0.0
 11
11.11
 21
2.35922
 31
0.0
  0
LINE
  5
1520
  8
0
  6
BYBLOCK
 62
     0
 10
10.896292
 20
2.638044
 30
0.0
 11
10.573236
 21
2.638044
 31
0.0
  0
LINE
  5
1521
  8
0
  6
BYBLOCK
 62
     0
 10
11.05782
 20
1.653799
 30
0.0
 11
10.896292
 21
1.374024
 31
0.0
  0
LINE
  5
1522
  8
0
  6
BYBLOCK
 62
     0
 10
10.573236
 20
1.374024
 30
0.0
 11
10.411708
 21
1.653799
 31
0.0
  0
LINE
  5
1523
  8
0
  6
BYBLOCK
 62
     0
 10
10.896292
 20
1.374024
 30
0.0
 11
10.573236
 21
1.374024
 31
0.0
  0
LINE
  5
1524
  8
0
  6
BYBLOCK
 62
     0
 10
10.411708
 20
1.653799
 30
0.0
 11
10.573236
 21
1.933574
 31
0.0
  0
LINE
  5
1525
  8
0
  6
BYBLOCK
 62
     0
 10
10.896292
 20
1.933574
 30
0.0
 11
11.05782
 21
1.653799
 31
0.0
  0
LINE
  5
1526
  8
0
  6
BYBLOCK
 62
     0
 10
10.896292
 20
-0.867389
 30
0.0
 11
11.05782
 21
-1.147163
 31
0.0
  0
LINE
  5
1527
  8
0
  6
BYBLOCK
 62
     0
 10
10.411708
 20
-1.147163
 30
0.0
 11
10.573236
 21
-0.867389
 31
0.0
  0
LINE
  5
1528
  8
0
  6
BYBLOCK
 62
     0
 10
10.573236
 20
-0.867389
 30
0.0
 11
10.896292
 21
-0.867389
 31
0.0
  0
LINE
  5
1529
  8
0
  6
BYBLOCK
 62
     0
 10
10.36
 20
-1.789596
 30
0.0
 11
11.11
 21
-1.789596
 31
0.0
  0
LINE
  5
152A
  8
0
  6
BYBLOCK
 62
     0
 10
10.896292
 20
-2.101255
 30
0.0
 11
10.573236
 21
-2.101255
 31
0.0
  0
LINE
  5
152B
  8
0
  6
BYBLOCK
 62
     0
 10
10.896292
 20
-1.426938
 30
0.0
 11
10.573236
 21
-1.426938
 31
0.0
  0
LINE
  5
152C
  8
0
  6
BYBLOCK
 62
     0
 10
10.573236
 20
-1.426938
 30
0.0
 11
10.411708
 21
-1.147163
 31
0.0
  0
LINE
  5
152D
  8
0
  6
BYBLOCK
 62
     0
 10
11.05782
 20
-1.147163
 30
0.0
 11
10.896292
 21
-1.426938
 31
0.0
  0
LINE
  5
152E
  8
0
  6
BYBLOCK
 62
     0
 10
10.896292
 20
-2.660805
 30
0.0
 11
11.05782
 21
-2.38103
 31
0.0
  0
LINE
  5
152F
  8
0
  6
BYBLOCK
 62
     0
 10
10.3
 20
-2.99578
 30
0.0
 11
10.36
 21
-2.99578
 31
0.0
  0
LINE
  5
1530
  8
0
  6
BYBLOCK
 62
     0
 10
10.3
 20
-2.99578
 30
0.0
 11
10.36
 21
-2.99578
 31
0.0
  0
LINE
  5
1531
  8
0
  6
BYBLOCK
 62
     0
 10
10.411708
 20
-2.38103
 30
0.0
 11
10.573236
 21
-2.660805
 31
0.0
  0
LINE
  5
1532
  8
0
  6
BYBLOCK
 62
     0
 10
10.573236
 20
-2.660805
 30
0.0
 11
10.896292
 21
-2.660805
 31
0.0
  0
LINE
  5
1533
  8
0
  6
BYBLOCK
 62
     0
 10
10.896292
 20
-3.601255
 30
0.0
 11
10.573236
 21
-3.601255
 31
0.0
  0
LINE
  5
1534
  8
0
  6
BYBLOCK
 62
     0
 10
10.573236
 20
-2.101255
 30
0.0
 11
10.411708
 21
-2.38103
 31
0.0
  0
LINE
  5
1535
  8
0
  6
BYBLOCK
 62
     0
 10
11.05782
 20
-2.38103
 30
0.0
 11
10.896292
 21
-2.101255
 31
0.0
  0
LINE
  5
1536
  8
0
  6
BYBLOCK
 62
     0
 10
11.11
 20
2.16922
 30
0.0
 11
11.11
 21
-1.599596
 31
0.0
  0
POINT
  5
1537
  8
0
  6
BYBLOCK
 62
     0
 10
8.05
 20
0.565587
 30
0.0
  0
LINE
  5
1538
  8
0
  6
BYBLOCK
 62
     0
 10
7.784
 20
0.883734
 30
0.0
 11
7.784
 21
0.747441
 31
0.0
  0
LINE
  5
1539
  8
0
  6
BYBLOCK
 62
     0
 10
7.816
 20
0.883734
 30
0.0
 11
7.816
 21
0.747441
 31
0.0
  0
CIRCLE
  5
153A
  8
0
  6
BYBLOCK
 62
     0
 10
7.8
 20
0.815587
 30
0.0
 40
0.07
  0
LINE
  5
153B
  8
0
  6
HIDDEN
 62
     0
 10
6.52
 20
1.065587
 30
0.0
 11
6.52
 21
1.315587
 31
0.0
  0
LINE
  5
153C
  8
0
  6
HIDDEN
 62
     0
 10
5.77
 20
1.065587
 30
0.0
 11
5.77
 21
1.315587
 31
0.0
  0
LINE
  5
153D
  8
0
  6
HIDDEN
 62
     0
 10
5.77
 20
1.065587
 30
0.0
 11
6.52
 21
1.065587
 31
0.0
  0
LINE
  5
153E
  8
0
  6
HIDDEN
 62
     0
 10
5.77
 20
1.315587
 30
0.0
 11
6.52
 21
1.315587
 31
0.0
  0
LINE
  5
153F
  8
0
  6
BYBLOCK
 62
     0
 10
8.02
 20
2.16922
 30
0.0
 11
11.11
 21
2.16922
 31
0.0
  0
LINE
  5
1540
  8
0
  6
BYBLOCK
 62
     0
 10
8.05
 20
0.565587
 30
0.0
 11
8.05
 21
2.925587
 31
0.0
  0
CIRCLE
  5
1541
  8
0
  6
BYBLOCK
 62
     0
 10
5.794708
 20
2.675587
 30
0.0
 40
0.07
  0
LINE
  5
1542
  8
0
  6
BYBLOCK
 62
     0
 10
5.810708
 20
2.743734
 30
0.0
 11
5.810708
 21
2.607441
 31
0.0
  0
LINE
  5
1543
  8
0
  6
BYBLOCK
 62
     0
 10
5.778708
 20
2.743734
 30
0.0
 11
5.778708
 21
2.607441
 31
0.0
  0
LINE
  5
1544
  8
0
  6
BYBLOCK
 62
     0
 10
7.816
 20
2.743734
 30
0.0
 11
7.816
 21
2.607441
 31
0.0
  0
LINE
  5
1545
  8
0
  6
BYBLOCK
 62
     0
 10
7.784
 20
2.743734
 30
0.0
 11
7.784
 21
2.607441
 31
0.0
  0
CIRCLE
  5
1546
  8
0
  6
BYBLOCK
 62
     0
 10
7.8
 20
2.675587
 30
0.0
 40
0.07
  0
LINE
  5
1547
  8
0
  6
BYBLOCK
 62
     0
 10
11.11
 20
5.864033
 30
0.0
 11
11.11
 21
2.35922
 31
0.0
  0
LINE
  5
1548
  8
0
  6
BYBLOCK
 62
     0
 10
10.573236
 20
2.638044
 30
0.0
 11
10.411708
 21
2.917818
 31
0.0
  0
LINE
  5
1549
  8
0
  6
BYBLOCK
 62
     0
 10
11.05782
 20
2.917818
 30
0.0
 11
10.896292
 21
2.638044
 31
0.0
  0
LINE
  5
154A
  8
0
  6
BYBLOCK
 62
     0
 10
5.145875
 20
5.817033
 30
0.0
 11
5.145875
 21
5.627033
 31
0.0
  0
ARC
  5
154B
  8
0
  6
BYBLOCK
 62
     0
 10
5.24
 20
5.507033
 30
0.0
 40
0.12
 50
270.0
 51
90.0
  0
ARC
  5
154C
  8
0
  6
BYBLOCK
 62
     0
 10
5.192875
 20
5.817033
 30
0.0
 40
0.047
 50
90.0
 51
180.0
  0
ARC
  5
154D
  8
0
  6
BYBLOCK
 62
     0
 10
5.19275
 20
5.817158
 30
0.0
 40
0.046875
 50
90.0
 51
180.0
  0
LINE
  5
154E
  8
0
  6
BYBLOCK
 62
     0
 10
4.110222
 20
5.304033
 30
0.0
 11
4.110222
 21
5.710033
 31
0.0
  0
LINE
  5
154F
  8
0
  6
BYBLOCK
 62
     0
 10
4.200222
 20
5.169033
 30
0.0
 11
4.200222
 21
5.845033
 31
0.0
  0
LINE
  5
1550
  8
0
  6
BYBLOCK
 62
     0
 10
4.423222
 20
5.122033
 30
0.0
 11
4.423222
 21
5.892033
 31
0.0
  0
LINE
  5
1551
  8
0
  6
BYBLOCK
 62
     0
 10
4.157222
 20
5.257033
 30
0.0
 11
4.200222
 21
5.257033
 31
0.0
  0
ARC
  5
1552
  8
0
  6
BYBLOCK
 62
     0
 10
4.247222
 20
5.169033
 30
0.0
 40
0.047
 50
180.0
 51
270.0
  0
LINE
  5
1553
  8
0
  6
BYBLOCK
 62
     0
 10
4.247222
 20
5.122033
 30
0.0
 11
4.423222
 21
5.122033
 31
0.0
  0
LINE
  5
1554
  8
0
  6
BYBLOCK
 62
     0
 10
4.247222
 20
5.892033
 30
0.0
 11
4.423222
 21
5.892033
 31
0.0
  0
LINE
  5
1555
  8
0
  6
BYBLOCK
 62
     0
 10
4.157222
 20
5.757033
 30
0.0
 11
4.200222
 21
5.757033
 31
0.0
  0
ARC
  5
1556
  8
0
  6
BYBLOCK
 62
     0
 10
4.157222
 20
5.304033
 30
0.0
 40
0.047
 50
180.0
 51
270.0
  0
ARC
  5
1557
  8
0
  6
BYBLOCK
 62
     0
 10
4.157222
 20
5.710033
 30
0.0
 40
0.047
 50
90.0
 51
180.0
  0
LINE
  5
1558
  8
0
  6
BYBLOCK
 62
     0
 10
4.423222
 20
5.202033
 30
0.0
 11
5.145875
 21
5.202033
 31
0.0
  0
LINE
  5
1559
  8
0
  6
BYBLOCK
 62
     0
 10
4.423222
 20
5.627033
 30
0.0
 11
5.24
 21
5.627033
 31
0.0
  0
LINE
  5
155A
  8
0
  6
BYBLOCK
 62
     0
 10
4.423222
 20
5.387033
 30
0.0
 11
5.24
 21
5.387033
 31
0.0
  0
LINE
  5
155B
  8
0
  6
BYBLOCK
 62
     0
 10
4.423222
 20
5.812033
 30
0.0
 11
5.145875
 21
5.812033
 31
0.0
  0
LINE
  5
155C
  8
0
  6
BYBLOCK
 62
     0
 10
5.392726
 20
3.711707
 30
0.0
 11
5.279991
 21
3.670587
 31
0.0
  0
ARC
  5
155D
  8
0
  6
BYBLOCK
 62
     0
 10
5.099
 20
3.596408
 30
0.0
 40
0.046875
 50
270.0
 51
0.0
  0
LINE
  5
155E
  8
0
  6
BYBLOCK
 62
     0
 10
5.27
 20
3.045587
 30
0.0
 11
5.33
 21
3.045587
 31
0.0
  0
LINE
  5
155F
  8
0
  6
BYBLOCK
 62
     0
 10
5.27
 20
2.795587
 30
0.0
 11
5.33
 21
2.795587
 31
0.0
  0
LINE
  5
1560
  8
0
  6
BYBLOCK
 62
     0
 10
5.155144
 20
3.086707
 30
0.0
 11
5.063957
 21
3.336707
 31
0.0
  0
LINE
  5
1561
  8
0
  6
BYBLOCK
 62
     0
 10
5.27
 20
2.795587
 30
0.0
 11
5.27
 21
3.045587
 31
0.0
  0
LINE
  5
1562
  8
0
  6
BYBLOCK
 62
     0
 10
5.155144
 20
3.086707
 30
0.0
 11
5.150318
 21
3.016384
 31
0.0
  0
LINE
  5
1563
  8
0
  6
BYBLOCK
 62
     0
 10
5.160091
 20
2.99211
 30
0.0
 11
5.214644
 21
2.942624
 31
0.0
  0
LINE
  5
1564
  8
0
  6
BYBLOCK
 62
     0
 10
5.214644
 20
2.942624
 30
0.0
 11
5.218391
 21
2.925587
 31
0.0
  0
ARC
  5
1565
  8
0
  6
BYBLOCK
 62
     0
 10
5.180247
 20
3.01433
 30
0.0
 40
0.03
 50
176.073815
 51
227.788462
  0
LINE
  5
1566
  8
0
  6
BYBLOCK
 62
     0
 10
5.124302
 20
3.075457
 30
0.0
 11
5.120388
 21
3.018438
 31
0.0
  0
ARC
  5
1567
  8
0
  6
BYBLOCK
 62
     0
 10
5.180247
 20
3.01433
 30
0.0
 40
0.06
 50
176.073815
 51
227.788462
  0
LINE
  5
1568
  8
0
  6
BYBLOCK
 62
     0
 10
5.139935
 20
2.969889
 30
0.0
 11
5.188774
 21
2.925587
 31
0.0
  0
LINE
  5
1569
  8
0
  6
BYBLOCK
 62
     0
 10
5.232566
 20
3.224643
 30
0.0
 11
5.119831
 21
3.183523
 31
0.0
  0
LINE
  5
156A
  8
0
  6
BYBLOCK
 62
     0
 10
5.212006
 20
3.281011
 30
0.0
 11
5.099271
 21
3.239891
 31
0.0
  0
LINE
  5
156B
  8
0
  6
BYBLOCK
 62
     0
 10
5.232566
 20
3.224643
 30
0.0
 11
5.212006
 21
3.281011
 31
0.0
  0
LINE
  5
156C
  8
0
  6
BYBLOCK
 62
     0
 10
5.33
 20
3.045587
 30
0.0
 11
5.405056
 21
3.175587
 31
0.0
  0
LINE
  5
156D
  8
0
  6
BYBLOCK
 62
     0
 10
5.33
 20
2.795587
 30
0.0
 11
5.33
 21
3.045587
 31
0.0
  0
ARC
  5
156E
  8
0
  6
BYBLOCK
 62
     0
 10
5.509016
 20
3.38933
 30
0.0
 40
0.06
 50
176.073815
 51
227.788462
  0
LINE
  5
156F
  8
0
  6
BYBLOCK
 62
     0
 10
5.45307
 20
3.450457
 30
0.0
 11
5.449157
 21
3.393438
 31
0.0
  0
ARC
  5
1570
  8
0
  6
BYBLOCK
 62
     0
 10
5.509016
 20
3.38933
 30
0.0
 40
0.03
 50
176.073815
 51
227.788462
  0
LINE
  5
1571
  8
0
  6
BYBLOCK
 62
     0
 10
5.483913
 20
3.461707
 30
0.0
 11
5.479087
 21
3.391384
 31
0.0
  0
LINE
  5
1572
  8
0
  6
BYBLOCK
 62
     0
 10
5.483913
 20
3.461707
 30
0.0
 11
5.371178
 21
3.420587
 31
0.0
  0
LINE
  5
1573
  8
0
  6
BYBLOCK
 62
     0
 10
5.042409
 20
3.045587
 30
0.0
 11
4.951223
 21
3.295587
 31
0.0
  0
LINE
  5
1574
  8
0
  6
BYBLOCK
 62
     0
 10
4.77
 20
2.925587
 30
0.0
 11
5.27
 21
2.925587
 31
0.0
  0
LINE
  5
1575
  8
0
  6
BYBLOCK
 62
     0
 10
5.155144
 20
3.086707
 30
0.0
 11
5.042409
 21
3.045587
 31
0.0
  0
LINE
  5
1576
  8
0
  6
BYBLOCK
 62
     0
 10
5.063957
 20
3.336707
 30
0.0
 11
4.951223
 21
3.295587
 31
0.0
  0
LINE
  5
1577
  8
0
  6
BYBLOCK
 62
     0
 10
5.371178
 20
3.420587
 30
0.0
 11
5.279991
 21
3.670587
 31
0.0
  0
LINE
  5
1578
  8
0
  6
BYBLOCK
 62
     0
 10
5.483913
 20
3.461707
 30
0.0
 11
5.392726
 21
3.711707
 31
0.0
  0
ARC
  5
1579
  8
0
  6
BYBLOCK
 62
     0
 10
4.066875
 20
3.502658
 30
0.0
 40
0.046875
 50
90.0
 51
180.0
  0
LINE
  5
157A
  8
0
  6
BYBLOCK
 62
     0
 10
4.066875
 20
3.549533
 30
0.0
 11
5.099
 21
3.549533
 31
0.0
  0
LINE
  5
157B
  8
0
  6
BYBLOCK
 62
     0
 10
5.145875
 20
5.387033
 30
0.0
 11
5.145875
 21
3.596408
 31
0.0
  0
ARC
  5
157C
  8
0
  6
BYBLOCK
 62
     0
 10
4.247222
 20
5.845033
 30
0.0
 40
0.047
 50
90.0
 51
180.0
  0
LINE
  5
157D
  8
0
  6
BYBLOCK
 62
     0
 10
4.77
 20
1.910587
 30
0.0
 11
4.71
 21
1.910587
 31
0.0
  0
LINE
  5
157E
  8
0
  6
BYBLOCK
 62
     0
 10
4.71
 20
1.910587
 30
0.0
 11
4.71
 21
2.150587
 31
0.0
  0
LINE
  5
157F
  8
0
  6
BYBLOCK
 62
     0
 10
4.77
 20
2.150587
 30
0.0
 11
4.71
 21
2.150587
 31
0.0
  0
LINE
  5
1580
  8
0
  6
BYBLOCK
 62
     0
 10
4.77
 20
1.555587
 30
0.0
 11
5.27
 21
1.555587
 31
0.0
  0
LINE
  5
1581
  8
0
  6
BYBLOCK
 62
     0
 10
4.27
 20
1.910587
 30
0.0
 11
4.27
 21
1.998587
 31
0.0
  0
LINE
  5
1582
  8
0
  6
BYBLOCK
 62
     0
 10
4.39
 20
1.910587
 30
0.0
 11
4.39
 21
2.150587
 31
0.0
  0
LINE
  5
1583
  8
0
  6
BYBLOCK
 62
     0
 10
4.39
 20
1.910587
 30
0.0
 11
4.27
 21
1.910587
 31
0.0
  0
LINE
  5
1584
  8
0
  6
BYBLOCK
 62
     0
 10
4.302
 20
1.998587
 30
0.0
 11
4.27
 21
1.998587
 31
0.0
  0
LINE
  5
1585
  8
0
  6
BYBLOCK
 62
     0
 10
4.302
 20
2.062587
 30
0.0
 11
4.27
 21
2.062587
 31
0.0
  0
LINE
  5
1586
  8
0
  6
BYBLOCK
 62
     0
 10
4.302
 20
1.998587
 30
0.0
 11
4.302
 21
2.062587
 31
0.0
  0
LINE
  5
1587
  8
0
  6
BYBLOCK
 62
     0
 10
4.27
 20
2.062587
 30
0.0
 11
4.27
 21
2.150587
 31
0.0
  0
LINE
  5
1588
  8
0
  6
BYBLOCK
 62
     0
 10
4.39
 20
2.150587
 30
0.0
 11
4.27
 21
2.150587
 31
0.0
  0
LINE
  5
1589
  8
0
  6
BYBLOCK
 62
     0
 10
4.395
 20
1.180587
 30
0.0
 11
4.395
 21
1.430587
 31
0.0
  0
LINE
  5
158A
  8
0
  6
BYBLOCK
 62
     0
 10
4.365
 20
1.275587
 30
0.0
 11
4.365
 21
1.335587
 31
0.0
  0
LINE
  5
158B
  8
0
  6
BYBLOCK
 62
     0
 10
4.02
 20
1.335587
 30
0.0
 11
4.395
 21
1.335587
 31
0.0
  0
LINE
  5
158C
  8
0
  6
BYBLOCK
 62
     0
 10
4.02
 20
1.275587
 30
0.0
 11
4.395
 21
1.275587
 31
0.0
  0
LINE
  5
158D
  8
0
  6
BYBLOCK
 62
     0
 10
4.395
 20
1.430587
 30
0.0
 11
5.27
 21
1.430587
 31
0.0
  0
LINE
  5
158E
  8
0
  6
BYBLOCK
 62
     0
 10
4.395
 20
1.180587
 30
0.0
 11
5.27
 21
1.180587
 31
0.0
  0
LINE
  5
158F
  8
0
  6
BYBLOCK
 62
     0
 10
4.71
 20
1.970587
 30
0.0
 11
4.39
 21
1.970587
 31
0.0
  0
LINE
  5
1590
  8
0
  6
BYBLOCK
 62
     0
 10
4.71
 20
2.090587
 30
0.0
 11
4.39
 21
2.090587
 31
0.0
  0
LINE
  5
1591
  8
0
  6
BYBLOCK
 62
     0
 10
4.02
 20
2.16922
 30
0.0
 11
4.74
 21
2.16922
 31
0.0
  0
LINE
  5
1592
  8
0
  6
BYBLOCK
 62
     0
 10
4.77
 20
0.565587
 30
0.0
 11
4.77
 21
0.995587
 31
0.0
  0
LINE
  5
1593
  8
0
  6
BYBLOCK
 62
     0
 10
4.71
 20
0.660587
 30
0.0
 11
4.71
 21
0.900587
 31
0.0
  0
LINE
  5
1594
  8
0
  6
BYBLOCK
 62
     0
 10
4.77
 20
0.900587
 30
0.0
 11
4.71
 21
0.900587
 31
0.0
  0
LINE
  5
1595
  8
0
  6
BYBLOCK
 62
     0
 10
4.77
 20
0.660587
 30
0.0
 11
4.71
 21
0.660587
 31
0.0
  0
LINE
  5
1596
  8
0
  6
BYBLOCK
 62
     0
 10
4.77
 20
0.995587
 30
0.0
 11
5.27
 21
0.995587
 31
0.0
  0
LINE
  5
1597
  8
0
  6
BYBLOCK
 62
     0
 10
4.27
 20
0.812587
 30
0.0
 11
4.27
 21
0.900587
 31
0.0
  0
LINE
  5
1598
  8
0
  6
BYBLOCK
 62
     0
 10
4.302
 20
0.748587
 30
0.0
 11
4.302
 21
0.812587
 31
0.0
  0
LINE
  5
1599
  8
0
  6
BYBLOCK
 62
     0
 10
4.302
 20
0.812587
 30
0.0
 11
4.27
 21
0.812587
 31
0.0
  0
LINE
  5
159A
  8
0
  6
BYBLOCK
 62
     0
 10
4.302
 20
0.748587
 30
0.0
 11
4.27
 21
0.748587
 31
0.0
  0
LINE
  5
159B
  8
0
  6
BYBLOCK
 62
     0
 10
4.39
 20
0.900587
 30
0.0
 11
4.27
 21
0.900587
 31
0.0
  0
LINE
  5
159C
  8
0
  6
BYBLOCK
 62
     0
 10
4.39
 20
0.660587
 30
0.0
 11
4.27
 21
0.660587
 31
0.0
  0
LINE
  5
159D
  8
0
  6
BYBLOCK
 62
     0
 10
4.39
 20
0.660587
 30
0.0
 11
4.39
 21
0.900587
 31
0.0
  0
LINE
  5
159E
  8
0
  6
BYBLOCK
 62
     0
 10
4.27
 20
0.660587
 30
0.0
 11
4.27
 21
0.748587
 31
0.0
  0
LINE
  5
159F
  8
0
  6
BYBLOCK
 62
     0
 10
4.395
 20
-0.466431
 30
0.0
 11
4.395
 21
-0.526431
 31
0.0
  0
LINE
  5
15A0
  8
0
  6
BYBLOCK
 62
     0
 10
4.02
 20
-0.466431
 30
0.0
 11
4.395
 21
-0.466431
 31
0.0
  0
LINE
  5
15A1
  8
0
  6
BYBLOCK
 62
     0
 10
4.02
 20
-0.526431
 30
0.0
 11
4.395
 21
-0.526431
 31
0.0
  0
LINE
  5
15A2
  8
0
  6
BYBLOCK
 62
     0
 10
4.395
 20
-0.466431
 30
0.0
 11
4.395
 21
0.720587
 31
0.0
  0
LINE
  5
15A3
  8
0
  6
BYBLOCK
 62
     0
 10
4.71
 20
0.840587
 30
0.0
 11
4.39
 21
0.840587
 31
0.0
  0
LINE
  5
15A4
  8
0
  6
BYBLOCK
 62
     0
 10
4.71
 20
0.720587
 30
0.0
 11
4.39
 21
0.720587
 31
0.0
  0
LINE
  5
15A5
  8
0
  6
BYBLOCK
 62
     0
 10
5.27
 20
0.995587
 30
0.0
 11
5.27
 21
1.555587
 31
0.0
  0
LINE
  5
15A6
  8
0
  6
BYBLOCK
 62
     0
 10
4.395
 20
0.840587
 30
0.0
 11
4.395
 21
1.361949
 31
0.0
  0
ARC
  5
15A7
  8
0
  6
BYBLOCK
 62
     0
 10
5.099
 20
-3.617967
 30
0.0
 40
0.046875
 50
0.0
 51
90.0
  0
ARC
  5
15A8
  8
0
  6
BYBLOCK
 62
     0
 10
4.066875
 20
-3.524217
 30
0.0
 40
0.046875
 50
180.0
 51
270.0
  0
LINE
  5
15A9
  8
0
  6
BYBLOCK
 62
     0
 10
4.066875
 20
-3.571092
 30
0.0
 11
5.099
 21
-3.571092
 31
0.0
  0
LINE
  5
15AA
  8
0
  6
BYBLOCK
 62
     0
 10
4.02
 20
3.502658
 30
0.0
 11
4.02
 21
-3.524217
 31
0.0
  0
LINE
  5
15AB
  8
0
  6
BYBLOCK
 62
     0
 10
4.77
 20
1.555587
 30
0.0
 11
4.77
 21
2.925587
 31
0.0
  0
LINE
  5
15AC
  8
0
  6
BYBLOCK
 62
     0
 10
4.02
 20
-1.599596
 30
0.0
 11
11.11
 21
-1.599596
 31
0.0
  0
LINE
  5
15AD
  8
0
  6
BYBLOCK
 62
     0
 10
4.77
 20
0.565587
 30
0.0
 11
8.05
 21
0.565587
 31
0.0
  0
LINE
  5
15AF
  8
0
  6
BYBLOCK
 62
     0
 10
5.540775
 20
3.656011
 30
0.0
 11
5.42804
 21
3.614891
 31
0.0
  0
LINE
  5
15B0
  8
0
  6
BYBLOCK
 62
     0
 10
5.561335
 20
3.599643
 30
0.0
 11
5.4486
 21
3.558523
 31
0.0
  0
LINE
  5
15B1
  8
0
  6
BYBLOCK
 62
     0
 10
5.405056
 20
3.175587
 30
0.0
 11
5.692444
 21
3.175587
 31
0.0
  0
LINE
  5
15B2
  8
0
  6
BYBLOCK
 62
     0
 10
5.468704
 20
3.344889
 30
0.0
 11
5.517543
 21
3.300587
 31
0.0
  0
LINE
  5
15B3
  8
0
  6
BYBLOCK
 62
     0
 10
5.48886
 20
3.36711
 30
0.0
 11
5.543413
 21
3.317624
 31
0.0
  0
LINE
  5
15B4
  8
0
  6
BYBLOCK
 62
     0
 10
10.896292
 20
-4.160805
 30
0.0
 11
11.05782
 21
-3.88103
 31
0.0
  0
LINE
  5
15B5
  8
0
  6
BYBLOCK
 62
     0
 10
10.411708
 20
-3.88103
 30
0.0
 11
10.573236
 21
-4.160805
 31
0.0
  0
LINE
  5
15B6
  8
0
  6
BYBLOCK
 62
     0
 10
10.573236
 20
-4.160805
 30
0.0
 11
10.896292
 21
-4.160805
 31
0.0
  0
LINE
  5
15B7
  8
0
  6
BYBLOCK
 62
     0
 10
11.05782
 20
-5.38103
 30
0.0
 11
10.896292
 21
-5.101255
 31
0.0
  0
LINE
  5
15B8
  8
0
  6
BYBLOCK
 62
     0
 10
10.573236
 20
-5.101255
 30
0.0
 11
10.411708
 21
-5.38103
 31
0.0
  0
LINE
  5
15B9
  8
0
  6
BYBLOCK
 62
     0
 10
10.896292
 20
-5.101255
 30
0.0
 11
10.573236
 21
-5.101255
 31
0.0
  0
LINE
  5
15BA
  8
0
  6
BYBLOCK
 62
     0
 10
10.573236
 20
-5.660805
 30
0.0
 11
10.896292
 21
-5.660805
 31
0.0
  0
LINE
  5
15BB
  8
0
  6
BYBLOCK
 62
     0
 10
9.8
 20
-6.385592
 30
0.0
 11
9.8
 21
-5.885592
 31
0.0
  0
LINE
  5
15BC
  8
0
  6
BYBLOCK
 62
     0
 10
9.8
 20
-6.385592
 30
0.0
 11
10.3
 21
-6.385592
 31
0.0
  0
LINE
  5
15BD
  8
0
  6
BYBLOCK
 62
     0
 10
10.411708
 20
-5.38103
 30
0.0
 11
10.573236
 21
-5.660805
 31
0.0
  0
LINE
  5
15BE
  8
0
  6
BYBLOCK
 62
     0
 10
10.896292
 20
-5.660805
 30
0.0
 11
11.05782
 21
-5.38103
 31
0.0
  0
LINE
  5
15BF
  8
0
  6
BYBLOCK
 62
     0
 10
12.804
 20
-9.39078
 30
0.0
 11
12.804
 21
-7.39078
 31
0.0
  0
LINE
  5
15C0
  8
0
  6
BYBLOCK
 62
     0
 10
10.3
 20
-7.63578
 30
0.0
 11
10.36
 21
-7.63578
 31
0.0
  0
LINE
  5
15C2
  8
0
  6
BYBLOCK
 62
     0
 10
8.55
 20
-9.635492
 30
0.0
 11
8.925
 21
-9.635492
 31
0.0
  0
LINE
  5
15C6
  8
0
  6
BYBLOCK
 62
     0
 10
8.925
 20
-5.885592
 30
0.0
 11
8.925
 21
-9.635492
 31
0.0
  0
LINE
  5
15C7
  8
0
  6
BYBLOCK
 62
     0
 10
8.55
 20
-5.885592
 30
0.0
 11
8.55
 21
-9.635492
 31
0.0
  0
LINE
  5
15CF
  8
0
  6
BYBLOCK
 62
     0
 10
4.660222
 20
-5.408717
 30
0.0
 11
5.27
 21
-5.408717
 31
0.0
  0
ARC
  5
15D0
  8
0
  6
BYBLOCK
 62
     0
 10
4.187222
 20
-5.325717
 30
0.0
 40
0.047
 50
90.0
 51
180.0
  0
ARC
  5
15D1
  8
0
  6
BYBLOCK
 62
     0
 10
4.277222
 20
-5.190717
 30
0.0
 40
0.047
 50
90.0
 51
180.0
  0
LINE
  5
15D2
  8
0
  6
BYBLOCK
 62
     0
 10
4.187222
 20
-5.278717
 30
0.0
 11
4.230222
 21
-5.278717
 31
0.0
  0
LINE
  5
15D3
  8
0
  6
BYBLOCK
 62
     0
 10
4.277222
 20
-5.143717
 30
0.0
 11
4.453222
 21
-5.143717
 31
0.0
  0
LINE
  5
15D4
  8
0
  6
BYBLOCK
 62
     0
 10
4.453222
 20
-5.408717
 30
0.0
 11
5.27
 21
-5.408717
 31
0.0
  0
LINE
  5
15D5
  8
0
  6
BYBLOCK
 62
     0
 10
4.453222
 20
-5.223717
 30
0.0
 11
5.145875
 21
-5.223717
 31
0.0
  0
ARC
  5
15D6
  8
0
  6
BYBLOCK
 62
     0
 10
5.19275
 20
-5.838717
 30
0.0
 40
0.046875
 50
180.0
 51
270.0
  0
LINE
  5
15D7
  8
0
  6
BYBLOCK
 62
     0
 10
5.145875
 20
-5.838717
 30
0.0
 11
5.145875
 21
-5.648717
 31
0.0
  0
LINE
  5
15D8
  8
0
  6
BYBLOCK
 62
     0
 10
4.660222
 20
-5.648717
 30
0.0
 11
5.27
 21
-5.648717
 31
0.0
  0
ARC
  5
15D9
  8
0
  6
BYBLOCK
 62
     0
 10
4.277222
 20
-5.866717
 30
0.0
 40
0.047
 50
180.0
 51
270.0
  0
LINE
  5
15DA
  8
0
  6
BYBLOCK
 62
     0
 10
4.277222
 20
-5.913717
 30
0.0
 11
4.453222
 21
-5.913717
 31
0.0
  0
LINE
  5
15DB
  8
0
  6
BYBLOCK
 62
     0
 10
4.187222
 20
-5.778717
 30
0.0
 11
4.230222
 21
-5.778717
 31
0.0
  0
ARC
  5
15DC
  8
0
  6
BYBLOCK
 62
     0
 10
4.187222
 20
-5.731717
 30
0.0
 40
0.047
 50
180.0
 51
270.0
  0
LINE
  5
15DD
  8
0
  6
BYBLOCK
 62
     0
 10
4.453222
 20
-5.833717
 30
0.0
 11
5.145875
 21
-5.833717
 31
0.0
  0
LINE
  5
15DE
  8
0
  6
BYBLOCK
 62
     0
 10
4.453222
 20
-5.648717
 30
0.0
 11
5.27
 21
-5.648717
 31
0.0
  0
ARC
  5
15DF
  8
0
  6
BYBLOCK
 62
     0
 10
5.27
 20
-5.528717
 30
0.0
 40
0.12
 50
270.0
 51
90.0
  0
LINE
  5
15E0
  8
0
  6
BYBLOCK
 62
     0
 10
4.453222
 20
-5.913717
 30
0.0
 11
4.453222
 21
-5.143717
 31
0.0
  0
LINE
  5
15E1
  8
0
  6
BYBLOCK
 62
     0
 10
4.230222
 20
-5.866717
 30
0.0
 11
4.230222
 21
-5.190717
 31
0.0
  0
LINE
  5
15E2
  8
0
  6
BYBLOCK
 62
     0
 10
4.140222
 20
-5.731717
 30
0.0
 11
4.140222
 21
-5.325717
 31
0.0
  0
LINE
  5
15E6
  8
0
  6
BYBLOCK
 62
     0
 10
5.19275
 20
-5.885592
 30
0.0
 11
7.0565
 21
-5.885592
 31
0.0
  0
LINE
  5
15E7
  8
0
  6
BYBLOCK
 62
     0
 10
7.8
 20
-1.599596
 30
0.0
 11
7.8
 21
-5.885592
 31
0.0
  0
LINE
  5
15E8
  8
0
  6
BYBLOCK
 62
     0
 10
5.145875
 20
-5.408717
 30
0.0
 11
5.145875
 21
-3.617967
 31
0.0
  0
LINE
  5
15E9
  8
0
  6
BYBLOCK
 62
     0
 10
10.36
 20
7.61422
 30
0.0
 11
10.36
 21
-7.63578
 31
0.0
  0
LINE
  5
15EA
  8
0
  6
BYBLOCK
 62
     0
 10
10.3
 20
-2.99578
 30
0.0
 11
10.3
 21
-7.63578
 31
0.0
  0
LINE
  5
15EB
  8
0
  6
BYBLOCK
 62
     0
 10
11.11
 20
-1.789596
 30
0.0
 11
11.11
 21
-5.885592
 31
0.0
  0
LINE
  5
15EC
  8
0
  6
BYBLOCK
 62
     0
 10
10.573236
 20
-3.601255
 30
0.0
 11
10.411708
 21
-3.88103
 31
0.0
  0
LINE
  5
15ED
  8
0
  6
BYBLOCK
 62
     0
 10
11.05782
 20
-3.88103
 30
0.0
 11
10.896292
 21
-3.601255
 31
0.0
  0
LINE
  5
15EE
  8
0
  6
BYBLOCK
 62
     0
 10
5.192875
 20
5.864033
 30
0.0
 11
17.394
 21
5.864033
 31
0.0
  0
LINE
  5
15EF
  8
0
  6
BYBLOCK
 62
     0
 10
7.0835
 20
-5.885592
 30
0.0
 11
17.394
 21
-5.885592
 31
0.0
  0
LINE
  5
15F0
  8
0
  6
BYBLOCK
 62
     0
 10
13.929
 20
-9.39078
 30
0.0
 11
12.804
 21
-9.39078
 31
0.0
  0
LINE
  5
15F1
  8
0
  6
BYBLOCK
 62
     0
 10
13.929
 20
-7.39078
 30
0.0
 11
12.804
 21
-7.39078
 31
0.0
  0
LINE
  5
15FF
  8
0
 10
8.55
 20
9.635492
 30
0.0
 11
8.925
 21
9.635492
 31
0.0
  0
LINE
  5
1600
  8
0
  6
BYBLOCK
 62
     0
 10
8.55
 20
9.635492
 30
0.0
 11
8.55
 21
5.864033
 31
0.0
  0
LINE
  5
1601
  8
0
  6
BYBLOCK
 62
     0
 10
8.925
 20
9.635492
 30
0.0
 11
8.925
 21
5.864033
 31
0.0
  0
ENDSEC
  0
EOF
