  0
SECTION
  2
HEADER
  9
$ACADVER
  1
AC1009
  9
$INSBASE
 10
0.0
 20
0.0
 30
0.0
  9
$EXTMIN
 10
-0.000673
 20
-2.221842
 30
-0.000128
  9
$EXTMAX
 10
1.765826
 20
0.95869
 30
4.187628
  9
$LIMMIN
 10
0.0
 20
0.0
  9
$LIMMAX
 10
12.0
 20
9.0
  9
$ORTHOMODE
 70
     0
  9
$REGENMODE
 70
     1
  9
$FILLMODE
 70
     1
  9
$QTEXTMODE
 70
     0
  9
$MIRRTEXT
 70
     1
  9
$DRAGMODE
 70
     2
  9
$LTSCALE
 40
1.0
  9
$OSMODE
 70
     8
  9
$ATTMODE
 70
     0
  9
$TEXTSIZE
 40
0.12
  9
$TRACEWID
 40
0.05
  9
$TEXTSTYLE
  7
STANDARD
  9
$CLAYER
  8
DIMS-MTG-HOLES
  9
$CELTYPE
  6
BYLAYER
  9
$CECOLOR
 62
   256
  9
$DIMSCALE
 40
1.0
  9
$DIMASZ
 40
0.18
  9
$DIMEXO
 40
0.0625
  9
$DIMDLI
 40
0.38
  9
$DIMRND
 40
0.0
  9
$DIMDLE
 40
0.0
  9
$DIMEXE
 40
0.18
  9
$DIMTP
 40
0.0
  9
$DIMTM
 40
0.0
  9
$DIMTXT
 40
0.18
  9
$DIMCEN
 40
0.09
  9
$DIMTSZ
 40
0.0
  9
$DIMTOL
 70
     0
  9
$DIMLIM
 70
     0
  9
$DIMTIH
 70
     1
  9
$DIMTOH
 70
     1
  9
$DIMSE1
 70
     0
  9
$DIMSE2
 70
     0
  9
$DIMTAD
 70
     0
  9
$DIMZIN
 70
     0
  9
$DIMBLK
  1

  9
$DIMASO
 70
     1
  9
$DIMSHO
 70
     1
  9
$DIMPOST
  1

  9
$DIMAPOST
  1

  9
$DIMALT
 70
     0
  9
$DIMALTD
 70
     2
  9
$DIMALTF
 40
25.4
  9
$DIMLFAC
 40
1.0
  9
$DIMTOFL
 70
     0
  9
$DIMTVP
 40
0.0
  9
$DIMTIX
 70
     0
  9
$DIMSOXD
 70
     0
  9
$DIMSAH
 70
     0
  9
$DIMBLK1
  1

  9
$DIMBLK2
  1

  9
$DIMSTYLE
  2
STANDARD
  9
$DIMCLRD
 70
     0
  9
$DIMCLRE
 70
     0
  9
$DIMCLRT
 70
     0
  9
$DIMTFAC
 40
1.0
  9
$DIMGAP
 40
0.09
  9
$LUNITS
 70
     2
  9
$LUPREC
 70
     4
  9
$SKETCHINC
 40
0.1
  9
$FILLETRAD
 40
0.0
  9
$AUNITS
 70
     0
  9
$AUPREC
 70
     0
  9
$MENU
  1

  9
$ELEVATION
 40
0.0
  9
$PELEVATION
 40
0.0
  9
$THICKNESS
 40
0.0
  9
$LIMCHECK
 70
     0
  9
$BLIPMODE
 70
     0
  9
$CHAMFERA
 40
0.0
  9
$CHAMFERB
 40
0.0
  9
$SKPOLY
 70
     0
  9
$TDCREATE
 40
2450770.344462
  9
$TDUPDATE
 40
2451165.597199
  9
$TDINDWG
 40
0.006233
  9
$TDUSRTIMER
 40
0.006233
  9
$USRTIMER
 70
     1
  9
$ANGBASE
 50
0.0
  9
$ANGDIR
 70
     0
  9
$PDMODE
 70
     3
  9
$PDSIZE
 40
0.09
  9
$PLINEWID
 40
0.0
  9
$COORDS
 70
     2
  9
$SPLFRAME
 70
     1
  9
$SPLINETYPE
 70
     6
  9
$SPLINESEGS
 70
     8
  9
$ATTDIA
 70
     0
  9
$ATTREQ
 70
     1
  9
$HANDLING
 70
     1
  9
$HANDSEED
  5
B2117
  9
$SURFTAB1
 70
     6
  9
$SURFTAB2
 70
     6
  9
$SURFTYPE
 70
     6
  9
$SURFU
 70
     6
  9
$SURFV
 70
     6
  9
$UCSNAME
  2

  9
$UCSORG
 10
0.0
 20
0.0
 30
0.0
  9
$UCSXDIR
 10
1.0
 20
0.0
 30
0.0
  9
$UCSYDIR
 10
0.0
 20
1.0
 30
0.0
  9
$PUCSNAME
  2

  9
$PUCSORG
 10
0.0
 20
0.0
 30
0.0
  9
$PUCSXDIR
 10
1.0
 20
0.0
 30
0.0
  9
$PUCSYDIR
 10
0.0
 20
1.0
 30
0.0
  9
$USERI1
 70
     0
  9
$USERI2
 70
     0
  9
$USERI3
 70
     0
  9
$USERI4
 70
     0
  9
$USERI5
 70
     0
  9
$USERR1
 40
0.0
  9
$USERR2
 40
0.0
  9
$USERR3
 40
0.0
  9
$USERR4
 40
0.0
  9
$USERR5
 40
0.0
  9
$WORLDVIEW
 70
     1
  9
$SHADEDGE
 70
     3
  9
$SHADEDIF
 70
    70
  9
$TILEMODE
 70
     1
  9
$MAXACTVP
 70
    16
  9
$PLIMCHECK
 70
     0
  9
$PEXTMIN
 10
1.000000E+020
 20
1.000000E+020
 30
1.000000E+020
  9
$PEXTMAX
 10
-1.000000E+020
 20
-1.000000E+020
 30
-1.000000E+020
  9
$PLIMMIN
 10
0.0
 20
0.0
  9
$PLIMMAX
 10
12.0
 20
9.0
  9
$UNITMODE
 70
     0
  9
$VISRETAIN
 70
     0
  9
$PLINEGEN
 70
     0
  9
$PSLTSCALE
 70
     1
  0
ENDSEC
  0
SECTION
  2
TABLES
  0
TABLE
  2
VPORT
 70
     2
  0
VPORT
  2
*ACTIVE
 70
     0
 10
0.0
 20
0.0
 11
1.0
 21
1.0
 12
0.882576
 22
-0.631576
 13
0.0
 23
0.0
 14
0.25
 24
0.25
 15
0.25
 25
0.25
 16
0.0
 26
0.0
 36
1.0
 17
0.0
 27
0.0
 37
0.0
 40
3.382091
 41
1.603066
 42
50.0
 43
0.0
 44
0.0
 50
0.0
 51
0.0
 71
     0
 72
 20000
 73
     1
 74
     1
 75
     0
 76
     0
 77
     0
 78
     0
  0
ENDTAB
  0
TABLE
  2
LTYPE
 70
     1
  0
LTYPE
  2
CONTINUOUS
 70
     0
  3
Solid line
 72
    65
 73
     0
 40
0.0
  0
ENDTAB
  0
TABLE
  2
LAYER
 70
     2
  0
LAYER
  2
0
 70
     0
 62
     7
  6
CONTINUOUS
  0
LAYER
  2
DIMS-MTG-HOLES
 70
     0
 62
     1
  6
CONTINUOUS
  0
ENDTAB
  0
TABLE
  2
STYLE
 70
     1
  0
STYLE
  2
STANDARD
 70
     0
 40
0.0
 41
1.0
 50
0.0
 71
     0
 42
0.12
  3
txt
  4

  0
ENDTAB
  0
TABLE
  2
VIEW
 70
     0
  0
ENDTAB
  0
TABLE
  2
UCS
 70
     0
  0
ENDTAB
  0
TABLE
  2
APPID
 70
     2
  0
APPID
  2
ACAD
 70
     0
  0
APPID
  2
AVE_RENDER
 70
     0
  0
ENDTAB
  0
TABLE
  2
DIMSTYLE
 70
     1
  0
DIMSTYLE
  2
STANDARD
 70
     0
  3

  4

  5

  6

  7

 40
1.0
 41
0.18
 42
0.0625
 43
0.38
 44
0.18
 45
0.0
 46
0.0
 47
0.0
 48
0.0
140
0.18
141
0.09
142
0.0
143
25.4
144
1.0
145
0.0
146
1.0
147
0.09
 71
     0
 72
     0
 73
     1
 74
     1
 75
     0
 76
     0
 77
     0
 78
     0
170
     0
171
     2
172
     0
173
     0
174
     0
175
     0
176
     0
177
     0
178
     0
  0
ENDTAB
  0
ENDSEC
  0
SECTION
  2
BLOCKS
  0
BLOCK
  8
0
  2
$MODEL_SPACE
 70
     0
 10
0.0
 20
0.0
 30
0.0
  3
$MODEL_SPACE
  1

  0
ENDBLK
  5
B2074
  8
0
  0
BLOCK
 67
     1
  8
0
  2
$PAPER_SPACE
 70
     0
 10
0.0
 20
0.0
 30
0.0
  3
$PAPER_SPACE
  1

  0
ENDBLK
  5
B2072
 67
     1
  8
0
  0
BLOCK
  8
0
  2
AVE_RENDER
 70
     0
 10
0.0
 20
0.0
 30
0.0
  3
AVE_RENDER
  1
AVE_RENDER
  0
ENDBLK
  5
70E3
  8
0
  0
ENDSEC
  0
SECTION
  2
ENTITIES
  0
POLYLINE
  5
6D36
  8
0
 66
     1
 10
0.0
 20
0.0
 30
0.0
 70
    16
 71
     6
 72
     3
  0
VERTEX
  5
6D37
  8
0
 10
1.7652
 20
0.2385
 30
0.316
 70
    64
  0
VERTEX
  5
6D38
  8
0
 10
1.7652
 20
0.2385
 30
0.0
 70
    64
  0
VERTEX
  5
6D39
  8
0
 10
1.7652
 20
0.2385
 30
0.0
 70
    64
  0
VERTEX
  5
6D3A
  8
0
 10
1.3742
 20
0.2385
 30
0.316
 70
    64
  0
VERTEX
  5
6D3B
  8
0
 10
1.3742
 20
0.2385
 30
0.0
 70
    64
  0
VERTEX
  5
6D3C
  8
0
 10
1.3742
 20
0.2385
 30
0.0
 70
    64
  0
VERTEX
  5
6D3D
  8
0
 10
1.3742
 20
0.5745
 30
0.316
 70
    64
  0
VERTEX
  5
6D3E
  8
0
 10
1.3742
 20
0.5745
 30
0.0
 70
    64
  0
VERTEX
  5
6D3F
  8
0
 10
1.3742
 20
0.2385
 30
0.0
 70
    64
  0
VERTEX
  5
6D40
  8
0
 10
1.7652
 20
0.5745
 30
0.316
 70
    64
  0
VERTEX
  5
6D41
  8
0
 10
1.7652
 20
0.5745
 30
0.0
 70
    64
  0
VERTEX
  5
6D42
  8
0
 10
1.7652
 20
0.2385
 30
0.0
 70
    64
  0
VERTEX
  5
6D43
  8
0
 10
1.7652
 20
0.5745
 30
0.316
 70
    64
  0
VERTEX
  5
6D44
  8
0
 10
1.7652
 20
0.5745
 30
0.316
 70
    64
  0
VERTEX
  5
6D45
  8
0
 10
1.7652
 20
0.2385
 30
0.316
 70
    64
  0
VERTEX
  5
6D46
  8
0
 10
1.3742
 20
0.5745
 30
0.316
 70
    64
  0
VERTEX
  5
6D47
  8
0
 10
1.3742
 20
0.5745
 30
0.316
 70
    64
  0
VERTEX
  5
6D48
  8
0
 10
1.3742
 20
0.2385
 30
0.316
 70
    64
  0
SEQEND
  5
6D49
  8
0
  0
POLYLINE
  5
6D5E
  8
0
 66
     1
 10
0.0
 20
0.0
 30
0.0
 70
    16
 71
     6
 72
     3
  0
VERTEX
  5
6D5F
  8
0
 10
0.3962
 20
-1.6855
 30
1.318
 70
    64
  0
VERTEX
  5
6D60
  8
0
 10
0.3962
 20
-1.6855
 30
0.187
 70
    64
  0
VERTEX
  5
6D61
  8
0
 10
0.3962
 20
-1.6855
 30
0.187
 70
    64
  0
VERTEX
  5
6D62
  8
0
 10
0.0052
 20
-1.6855
 30
1.318
 70
    64
  0
VERTEX
  5
6D63
  8
0
 10
0.0052
 20
-1.6855
 30
0.187
 70
    64
  0
VERTEX
  5
6D64
  8
0
 10
0.0052
 20
-1.6855
 30
0.187
 70
    64
  0
VERTEX
  5
6D65
  8
0
 10
0.0052
 20
0.5215
 30
1.318
 70
    64
  0
VERTEX
  5
6D66
  8
0
 10
0.0052
 20
0.5215
 30
0.187
 70
    64
  0
VERTEX
  5
6D67
  8
0
 10
0.0052
 20
-1.6855
 30
0.187
 70
    64
  0
VERTEX
  5
6D68
  8
0
 10
0.3962
 20
0.5215
 30
1.318
 70
    64
  0
VERTEX
  5
6D69
  8
0
 10
0.3962
 20
0.5215
 30
0.187
 70
    64
  0
VERTEX
  5
6D6A
  8
0
 10
0.3962
 20
-1.6855
 30
0.187
 70
    64
  0
VERTEX
  5
6D6B
  8
0
 10
0.3962
 20
0.5215
 30
1.318
 70
    64
  0
VERTEX
  5
6D6C
  8
0
 10
0.3962
 20
0.5215
 30
1.318
 70
    64
  0
VERTEX
  5
6D6D
  8
0
 10
0.3962
 20
-1.6855
 30
1.318
 70
    64
  0
VERTEX
  5
6D6E
  8
0
 10
0.0052
 20
0.5215
 30
1.318
 70
    64
  0
VERTEX
  5
6D6F
  8
0
 10
0.0052
 20
0.5215
 30
1.318
 70
    64
  0
VERTEX
  5
6D70
  8
0
 10
0.0052
 20
-1.6855
 30
1.318
 70
    64
  0
SEQEND
  5
6D71
  8
0
  0
POLYLINE
  5
6D86
  8
0
 66
     1
 10
0.0
 20
0.0
 30
0.0
 70
    16
 71
     6
 72
     3
  0
VERTEX
  5
6D87
  8
0
 10
1.7652
 20
-1.9685
 30
1.318
 70
    64
  0
VERTEX
  5
6D88
  8
0
 10
1.7652
 20
-1.9685
 30
0.187
 70
    64
  0
VERTEX
  5
6D89
  8
0
 10
1.7652
 20
-1.9685
 30
0.187
 70
    64
  0
VERTEX
  5
6D8A
  8
0
 10
1.3742
 20
-1.9685
 30
1.318
 70
    64
  0
VERTEX
  5
6D8B
  8
0
 10
1.3742
 20
-1.9685
 30
0.187
 70
    64
  0
VERTEX
  5
6D8C
  8
0
 10
1.3742
 20
-1.9685
 30
0.187
 70
    64
  0
VERTEX
  5
6D8D
  8
0
 10
1.3742
 20
0.2385
 30
1.318
 70
    64
  0
VERTEX
  5
6D8E
  8
0
 10
1.3742
 20
0.2385
 30
0.187
 70
    64
  0
VERTEX
  5
6D8F
  8
0
 10
1.3742
 20
-1.9685
 30
0.187
 70
    64
  0
VERTEX
  5
6D90
  8
0
 10
1.7652
 20
0.2385
 30
1.318
 70
    64
  0
VERTEX
  5
6D91
  8
0
 10
1.7652
 20
0.2385
 30
0.187
 70
    64
  0
VERTEX
  5
6D92
  8
0
 10
1.7652
 20
-1.9685
 30
0.187
 70
    64
  0
VERTEX
  5
6D93
  8
0
 10
1.7652
 20
0.2385
 30
1.318
 70
    64
  0
VERTEX
  5
6D94
  8
0
 10
1.7652
 20
0.2385
 30
1.318
 70
    64
  0
VERTEX
  5
6D95
  8
0
 10
1.7652
 20
-1.9685
 30
1.318
 70
    64
  0
VERTEX
  5
6D96
  8
0
 10
1.3742
 20
0.2385
 30
1.318
 70
    64
  0
VERTEX
  5
6D97
  8
0
 10
1.3742
 20
0.2385
 30
1.318
 70
    64
  0
VERTEX
  5
6D98
  8
0
 10
1.3742
 20
-1.9685
 30
1.318
 70
    64
  0
SEQEND
  5
6D99
  8
0
  0
POLYLINE
  5
6DD6
  8
0
 66
     1
 10
0.0
 20
0.0
 30
0.0
 70
    16
 71
     6
 72
     3
  0
VERTEX
  5
6DD7
  8
0
 10
1.3742
 20
-1.9685
 30
1.318
 70
    64
  0
VERTEX
  5
6DD8
  8
0
 10
1.3742
 20
-1.9685
 30
0.187
 70
    64
  0
VERTEX
  5
6DD9
  8
0
 10
1.3742
 20
-1.9685
 30
0.187
 70
    64
  0
VERTEX
  5
6DDA
  8
0
 10
0.3962
 20
-1.9685
 30
1.318
 70
    64
  0
VERTEX
  5
6DDB
  8
0
 10
0.3962
 20
-1.9685
 30
0.187
 70
    64
  0
VERTEX
  5
6DDC
  8
0
 10
0.3962
 20
-1.9685
 30
0.187
 70
    64
  0
VERTEX
  5
6DDD
  8
0
 10
0.3962
 20
0.5215
 30
1.318
 70
    64
  0
VERTEX
  5
6DDE
  8
0
 10
0.3962
 20
0.5215
 30
0.187
 70
    64
  0
VERTEX
  5
6DDF
  8
0
 10
0.3962
 20
-1.9685
 30
0.187
 70
    64
  0
VERTEX
  5
6DE0
  8
0
 10
1.3742
 20
0.5215
 30
1.318
 70
    64
  0
VERTEX
  5
6DE1
  8
0
 10
1.3742
 20
0.5215
 30
0.187
 70
    64
  0
VERTEX
  5
6DE2
  8
0
 10
1.3742
 20
-1.9685
 30
0.187
 70
    64
  0
VERTEX
  5
6DE3
  8
0
 10
1.3742
 20
0.5215
 30
1.318
 70
    64
  0
VERTEX
  5
6DE4
  8
0
 10
1.3742
 20
0.5215
 30
1.318
 70
    64
  0
VERTEX
  5
6DE5
  8
0
 10
1.3742
 20
-1.9685
 30
1.318
 70
    64
  0
VERTEX
  5
6DE6
  8
0
 10
0.3962
 20
0.5215
 30
1.318
 70
    64
  0
VERTEX
  5
6DE7
  8
0
 10
0.3962
 20
0.5215
 30
1.318
 70
    64
  0
VERTEX
  5
6DE8
  8
0
 10
0.3962
 20
-1.9685
 30
1.318
 70
    64
  0
SEQEND
  5
6DE9
  8
0
  0
POLYLINE
  5
6E47
  8
0
 66
     1
 10
0.0
 20
0.0
 30
0.0
 70
    16
 71
     6
 72
     3
  0
VERTEX
  5
6E48
  8
0
 10
1.0707
 20
-2.2215
 30
2.9155
 70
    64
  0
VERTEX
  5
6E49
  8
0
 10
1.0707
 20
-2.2215
 30
2.2415
 70
    64
  0
VERTEX
  5
6E4A
  8
0
 10
1.0707
 20
-2.2215
 30
2.2415
 70
    64
  0
VERTEX
  5
6E4B
  8
0
 10
0.6997
 20
-2.2215
 30
2.9155
 70
    64
  0
VERTEX
  5
6E4C
  8
0
 10
0.6997
 20
-2.2215
 30
2.2415
 70
    64
  0
VERTEX
  5
6E4D
  8
0
 10
0.6997
 20
-2.2215
 30
2.2415
 70
    64
  0
VERTEX
  5
6E4E
  8
0
 10
0.6997
 20
-1.9685
 30
2.9155
 70
    64
  0
VERTEX
  5
6E4F
  8
0
 10
0.6997
 20
-1.9685
 30
2.2415
 70
    64
  0
VERTEX
  5
6E50
  8
0
 10
0.6997
 20
-2.2215
 30
2.2415
 70
    64
  0
VERTEX
  5
6E51
  8
0
 10
1.0707
 20
-1.9685
 30
2.9155
 70
    64
  0
VERTEX
  5
6E52
  8
0
 10
1.0707
 20
-1.9685
 30
2.2415
 70
    64
  0
VERTEX
  5
6E53
  8
0
 10
1.0707
 20
-2.2215
 30
2.2415
 70
    64
  0
VERTEX
  5
6E54
  8
0
 10
1.0707
 20
-1.9685
 30
2.9155
 70
    64
  0
VERTEX
  5
6E55
  8
0
 10
1.0707
 20
-1.9685
 30
2.9155
 70
    64
  0
VERTEX
  5
6E56
  8
0
 10
1.0707
 20
-2.2215
 30
2.9155
 70
    64
  0
VERTEX
  5
6E57
  8
0
 10
0.6997
 20
-1.9685
 30
2.9155
 70
    64
  0
VERTEX
  5
6E58
  8
0
 10
0.6997
 20
-1.9685
 30
2.9155
 70
    64
  0
VERTEX
  5
6E59
  8
0
 10
0.6997
 20
-2.2215
 30
2.9155
 70
    64
  0
SEQEND
  5
6E5A
  8
0
  0
POLYLINE
  5
6F7F
  8
0
 66
     1
 10
0.0
 20
0.0
 30
2.9175
 70
     1
  0
VERTEX
  5
B207D
  8
0
 10
0.7517
 20
-2.0205
 30
2.9175
  0
VERTEX
  5
B207E
  8
0
 10
1.0187
 20
-2.0205
 30
2.9175
  0
VERTEX
  5
B207F
  8
0
 10
1.0187
 20
-2.1695
 30
2.9175
  0
VERTEX
  5
B2080
  8
0
 10
0.7517
 20
-2.1695
 30
2.9175
  0
SEQEND
  5
B2081
  8
0
  0
POLYLINE
  5
6F85
  8
0
 66
     1
 10
0.0
 20
0.0
 30
2.2435
 70
     1
  0
VERTEX
  5
B2082
  8
0
 10
0.7517
 20
-2.0205
 30
2.2435
  0
VERTEX
  5
B2083
  8
0
 10
1.0187
 20
-2.0205
 30
2.2435
  0
VERTEX
  5
B2084
  8
0
 10
1.0187
 20
-2.1695
 30
2.2435
  0
VERTEX
  5
B2085
  8
0
 10
0.7517
 20
-2.1695
 30
2.2435
  0
SEQEND
  5
B2086
  8
0
  0
POLYLINE
  5
6FA4
  8
0
 66
     1
 10
0.0
 20
0.0
 30
0.0
 70
    16
 71
     6
 72
     3
  0
VERTEX
  5
6FA5
  8
0
 10
0.3327
 20
0.9585
 30
2.9155
 70
    64
  0
VERTEX
  5
6FA6
  8
0
 10
0.3327
 20
0.9585
 30
2.2415
 70
    64
  0
VERTEX
  5
6FA7
  8
0
 10
0.3327
 20
0.9585
 30
2.2415
 70
    64
  0
VERTEX
  5
6FA8
  8
0
 10
1.4377
 20
0.9585
 30
2.9155
 70
    64
  0
VERTEX
  5
6FA9
  8
0
 10
1.4377
 20
0.9585
 30
2.2415
 70
    64
  0
VERTEX
  5
6FAA
  8
0
 10
1.4377
 20
0.9585
 30
2.2415
 70
    64
  0
VERTEX
  5
6FAB
  8
0
 10
1.4377
 20
0.5215
 30
2.9155
 70
    64
  0
VERTEX
  5
6FAC
  8
0
 10
1.4377
 20
0.5215
 30
2.2415
 70
    64
  0
VERTEX
  5
6FAD
  8
0
 10
1.4377
 20
0.9585
 30
2.2415
 70
    64
  0
VERTEX
  5
6FAE
  8
0
 10
0.3327
 20
0.5215
 30
2.9155
 70
    64
  0
VERTEX
  5
6FAF
  8
0
 10
0.3327
 20
0.5215
 30
2.2415
 70
    64
  0
VERTEX
  5
6FB0
  8
0
 10
0.3327
 20
0.9585
 30
2.2415
 70
    64
  0
VERTEX
  5
6FB1
  8
0
 10
0.3327
 20
0.5215
 30
2.9155
 70
    64
  0
VERTEX
  5
6FB2
  8
0
 10
0.3327
 20
0.5215
 30
2.9155
 70
    64
  0
VERTEX
  5
6FB3
  8
0
 10
0.3327
 20
0.9585
 30
2.9155
 70
    64
  0
VERTEX
  5
6FB4
  8
0
 10
1.4377
 20
0.5215
 30
2.9155
 70
    64
  0
VERTEX
  5
6FB5
  8
0
 10
1.4377
 20
0.5215
 30
2.9155
 70
    64
  0
VERTEX
  5
6FB6
  8
0
 10
1.4377
 20
0.9585
 30
2.9155
 70
    64
  0
SEQEND
  5
6FB7
  8
0
  0
LINE
  5
6FB9
  8
0
 10
0.7452
 20
0.5215
 30
2.9155
 11
0.7452
 21
0.7565
 31
2.9155
  0
LINE
  5
6FBA
  8
0
 10
1.0252
 20
0.5215
 30
2.9155
 11
1.0252
 21
0.7565
 31
2.9155
  0
LINE
  5
6FBC
  8
0
 10
1.0252
 20
0.7565
 30
2.9155
 11
0.7452
 21
0.7565
 31
2.9155
  0
CIRCLE
  5
6FCB
  8
0
 10
0.5462
 20
0.74
 30
2.9155
 40
0.12
  0
CIRCLE
  5
6FCE
  8
0
 10
1.2242
 20
0.74
 30
2.9155
 40
0.12
  0
POLYLINE
  5
6FE0
  8
0
 66
     1
 10
0.0
 20
0.0
 30
0.0
 70
     8
  0
VERTEX
  5
6FE1
  8
0
 10
1.7652
 20
-1.3525
 30
0.187
 70
    32
  0
VERTEX
  5
6FE2
  8
0
 10
1.7652
 20
-1.3525
 30
1.057
 70
    32
  0
VERTEX
  5
6FE3
  8
0
 10
1.7652
 20
-1.5075
 30
1.057
 70
    32
  0
VERTEX
  5
6FE4
  8
0
 10
1.7652
 20
-1.5075
 30
0.187
 70
    32
  0
SEQEND
  5
6FE5
  8
0
  0
POLYLINE
  5
6FE7
  8
0
 66
     1
 10
0.0
 20
0.0
 30
0.0
 70
     8
  0
VERTEX
  5
6FE8
  8
0
 10
1.7652
 20
0.0265
 30
0.187
 70
    32
  0
VERTEX
  5
6FE9
  8
0
 10
1.7652
 20
0.0265
 30
1.057
 70
    32
  0
VERTEX
  5
6FEA
  8
0
 10
1.7652
 20
-0.1285
 30
1.057
 70
    32
  0
VERTEX
  5
6FEB
  8
0
 10
1.7652
 20
-0.1285
 30
0.187
 70
    32
  0
SEQEND
  5
6FEC
  8
0
  0
LINE
  5
6FF3
  8
0
 10
1.7652
 20
-0.6295
 30
0.517
 11
1.7652
 21
-0.8515
 31
0.517
  0
LINE
  5
6FF6
  8
0
 10
1.7652
 20
-0.8515
 30
0.517
 11
1.7652
 21
-0.8515
 31
0.187
  0
LINE
  5
6FF7
  8
0
 10
1.7652
 20
-0.6295
 30
0.517
 11
1.7652
 21
-0.6295
 31
0.187
  0
POLYLINE
  5
6FF8
  8
0
 66
     1
 10
0.0
 20
0.0
 30
0.0
 70
     8
  0
VERTEX
  5
6FF9
  8
0
 10
0.0052
 20
0.0265
 30
0.187
 70
    32
  0
VERTEX
  5
6FFA
  8
0
 10
0.0052
 20
0.0265
 30
1.057
 70
    32
  0
VERTEX
  5
6FFB
  8
0
 10
0.0052
 20
-0.1285
 30
1.057
 70
    32
  0
VERTEX
  5
6FFC
  8
0
 10
0.0052
 20
-0.1285
 30
0.187
 70
    32
  0
SEQEND
  5
6FFD
  8
0
  0
POLYLINE
  5
6FFE
  8
0
 66
     1
 10
0.0
 20
0.0
 30
0.0
 70
     8
  0
VERTEX
  5
6FFF
  8
0
 10
0.0052
 20
-1.3525
 30
0.187
 70
    32
  0
VERTEX
  5
7000
  8
0
 10
0.0052
 20
-1.3525
 30
1.057
 70
    32
  0
VERTEX
  5
7001
  8
0
 10
0.0052
 20
-1.5075
 30
1.057
 70
    32
  0
VERTEX
  5
7002
  8
0
 10
0.0052
 20
-1.5075
 30
0.187
 70
    32
  0
SEQEND
  5
7003
  8
0
  0
LINE
  5
7006
  8
0
 10
1.7652
 20
-1.5675
 30
0.187
 11
1.7652
 21
-1.5675
 31
0.0
  0
LINE
  5
7007
  8
0
 10
1.7652
 20
-1.5675
 30
0.0
 11
0.8852
 21
-1.5675
 31
0.0
  0
LINE
  5
703F
  8
0
 10
1.7652
 20
-0.8065
 30
2.734
 11
1.7652
 21
-0.6405
 31
2.734
  0
POLYLINE
  5
7041
  8
0
 66
     1
 10
0.0
 20
0.0
 30
0.0
 70
     8
  0
VERTEX
  5
7042
  8
0
 10
-0.00001
 20
-0.6405
 30
2.4475
 70
    32
  0
VERTEX
  5
7043
  8
0
 10
-0.00001
 20
-0.6405
 30
3.0205
 70
    32
  0
VERTEX
  5
7044
  8
0
 10
-0.00001
 20
-0.8065
 30
3.0205
 70
    32
  0
VERTEX
  5
7045
  8
0
 10
-0.00001
 20
-0.8065
 30
2.4475
 70
    32
  0
VERTEX
  5
7046
  8
0
 10
-0.00001
 20
-0.6405
 30
2.4475
 70
    32
  0
SEQEND
  5
7047
  8
0
  0
LINE
  5
7048
  8
0
 10
-0.00001
 20
-0.8065
 30
2.734
 11
-0.00001
 21
-0.6405
 31
2.734
  0
LINE
  5
7049
  8
0
 10
-0.00001
 20
-0.8065
 30
2.924
 11
-0.00001
 21
-0.6405
 31
2.924
  0
CIRCLE
  5
704E
  8
0
 10
1.5712
 20
0.4255
 30
0.316
 40
0.086
  0
POLYLINE
  5
70A1
  8
0
 66
     1
 10
0.0
 20
0.0
 30
0.0
 70
     8
  0
VERTEX
  5
70A2
  8
0
 10
1.492533
 20
-1.9685
 30
1.0425
 70
    32
  0
VERTEX
  5
70A3
  8
0
 10
1.492533
 20
-2.1035
 30
1.0425
 70
    32
  0
VERTEX
  5
70A4
  8
0
 10
1.7032
 20
-2.1035
 30
1.0425
 70
    32
  0
VERTEX
  5
70A5
  8
0
 10
1.7032
 20
-1.9685
 30
1.0425
 70
    32
  0
SEQEND
  5
70A6
  8
0
  0
POLYLINE
  5
70A7
  8
0
 66
     1
 10
0.0
 20
0.0
 30
0.0
 70
     8
  0
VERTEX
  5
70A8
  8
0
 10
1.219867
 20
-1.9685
 30
1.0425
 70
    32
  0
VERTEX
  5
70A9
  8
0
 10
1.219867
 20
-2.1035
 30
1.0425
 70
    32
  0
VERTEX
  5
70AA
  8
0
 10
1.430533
 20
-2.1035
 30
1.0425
 70
    32
  0
VERTEX
  5
70AB
  8
0
 10
1.430533
 20
-1.9685
 30
1.0425
 70
    32
  0
SEQEND
  5
70AC
  8
0
  0
POLYLINE
  5
70AD
  8
0
 66
     1
 10
0.0
 20
0.0
 30
0.0
 70
     8
  0
VERTEX
  5
70AE
  8
0
 10
0.9472
 20
-1.9685
 30
1.0425
 70
    32
  0
VERTEX
  5
70AF
  8
0
 10
0.9472
 20
-2.1035
 30
1.0425
 70
    32
  0
VERTEX
  5
70B0
  8
0
 10
1.157867
 20
-2.1035
 30
1.0425
 70
    32
  0
VERTEX
  5
70B1
  8
0
 10
1.157867
 20
-1.9685
 30
1.0425
 70
    32
  0
SEQEND
  5
70B2
  8
0
  0
CIRCLE
  5
70B3
  8
0
 10
0.1912
 20
-1.9345
 30
0.316
 40
0.086
  0
INSERT
  5
70E4
  8
0
 62
     1
  2
AVE_RENDER
 10
-6.62751
 20
-2.735105
 30
0.0
1001
AVE_RENDER
1002
{
1070
     2
1000
Pref
1070
    30
1070
    20
1070
     0
1070
     0
1000

1070
    10
1070
     0
1070
    30
1040
1.0
1070
     1
1040
0.3
1040
0.4
1040
0.76
1040
1.538462
1010
-1.0
1020
-1.0
1030
-1.0
1040
0.3
1070
    49
1002
}
  0
INSERT
  5
70E5
  8
0
 62
     3
  2
AVE_RENDER
 10
-6.62751
 20
-2.735105
 30
0.0
1001
AVE_RENDER
1002
{
1070
     0
1000
Full Opt
1070
     0
1070
     1
1070
     1
1070
     1
1070
     0
1070
     0
1070
     0
1070
     1
1070
     1
1040
0.0001
1040
0.0001
1002
}
  0
INSERT
  5
70E6
  8
0
 62
     4
  2
AVE_RENDER
 10
-6.62751
 20
-2.735105
 30
0.0
1001
AVE_RENDER
1002
{
1070
     0
1000
Quick Opt
1070
     0
1070
     1
1070
     1
1070
     1
1070
     0
1070
     0
1070
     1
1002
}
  0
CIRCLE
  5
714B
  8
0
 10
0.1912
 20
-1.9345
 30
0.0
 40
0.086
  0
CIRCLE
  5
714C
  8
0
 10
1.5712
 20
0.4255
 30
0.0
 40
0.086
  0
POLYLINE
  5
714F
  8
0
 66
     1
 10
0.0
 20
0.0
 30
0.0
 70
     8
  0
VERTEX
  5
7150
  8
0
 10
0.9472
 20
-1.9685
 30
0.8555
 70
    32
  0
VERTEX
  5
7151
  8
0
 10
0.9472
 20
-2.1035
 30
0.8555
 70
    32
  0
VERTEX
  5
7152
  8
0
 10
1.157867
 20
-2.1035
 30
0.8555
 70
    32
  0
VERTEX
  5
7153
  8
0
 10
1.157867
 20
-1.9685
 30
0.8555
 70
    32
  0
SEQEND
  5
7154
  8
0
  0
POLYLINE
  5
7155
  8
0
 66
     1
 10
0.0
 20
0.0
 30
0.0
 70
     8
  0
VERTEX
  5
7156
  8
0
 10
1.219867
 20
-1.9685
 30
0.8555
 70
    32
  0
VERTEX
  5
7157
  8
0
 10
1.219867
 20
-2.1035
 30
0.8555
 70
    32
  0
VERTEX
  5
7158
  8
0
 10
1.430533
 20
-2.1035
 30
0.8555
 70
    32
  0
VERTEX
  5
7159
  8
0
 10
1.430533
 20
-1.9685
 30
0.8555
 70
    32
  0
SEQEND
  5
715A
  8
0
  0
POLYLINE
  5
715B
  8
0
 66
     1
 10
0.0
 20
0.0
 30
0.0
 70
     8
  0
VERTEX
  5
715C
  8
0
 10
1.492533
 20
-1.9685
 30
0.8555
 70
    32
  0
VERTEX
  5
715D
  8
0
 10
1.492533
 20
-2.1035
 30
0.8555
 70
    32
  0
VERTEX
  5
715E
  8
0
 10
1.7032
 20
-2.1035
 30
0.8555
 70
    32
  0
VERTEX
  5
715F
  8
0
 10
1.7032
 20
-1.9685
 30
0.8555
 70
    32
  0
SEQEND
  5
7160
  8
0
  0
LINE
  5
7173
  8
0
 10
1.7032
 20
-1.9685
 30
0.8555
 11
1.492533
 21
-1.9685
 31
0.8555
  0
LINE
  5
7174
  8
0
 10
1.430533
 20
-1.9685
 30
0.8555
 11
1.219867
 21
-1.9685
 31
0.8555
  0
LINE
  5
7175
  8
0
 10
1.157867
 20
-1.9685
 30
0.8555
 11
0.9472
 21
-1.9685
 31
0.8555
  0
POLYLINE
  5
71B8
  8
0
 66
     1
 10
0.0
 20
0.0
 30
0.0
 70
    16
 71
     6
 72
     3
  0
VERTEX
  5
71B9
  8
0
 10
0.9057
 20
-1.9855
 30
3.7845
 70
    64
  0
VERTEX
  5
71BA
  8
0
 10
0.9057
 20
-1.9855
 30
3.1745
 70
    64
  0
VERTEX
  5
71BB
  8
0
 10
0.9057
 20
-1.9855
 30
3.1745
 70
    64
  0
VERTEX
  5
71BC
  8
0
 10
0.8597
 20
-1.9855
 30
3.7845
 70
    64
  0
VERTEX
  5
71BD
  8
0
 10
0.8597
 20
-1.9855
 30
3.1745
 70
    64
  0
VERTEX
  5
71BE
  8
0
 10
0.8597
 20
-1.9855
 30
3.1745
 70
    64
  0
VERTEX
  5
71BF
  8
0
 10
0.8597
 20
-1.8455
 30
3.7845
 70
    64
  0
VERTEX
  5
71C0
  8
0
 10
0.8597
 20
-1.8455
 30
3.1745
 70
    64
  0
VERTEX
  5
71C1
  8
0
 10
0.8597
 20
-1.9855
 30
3.1745
 70
    64
  0
VERTEX
  5
71C2
  8
0
 10
0.9057
 20
-1.8455
 30
3.7845
 70
    64
  0
VERTEX
  5
71C3
  8
0
 10
0.9057
 20
-1.8455
 30
3.1745
 70
    64
  0
VERTEX
  5
71C4
  8
0
 10
0.9057
 20
-1.9855
 30
3.1745
 70
    64
  0
VERTEX
  5
71C5
  8
0
 10
0.9057
 20
-1.8455
 30
3.7845
 70
    64
  0
VERTEX
  5
71C6
  8
0
 10
0.9057
 20
-1.8455
 30
3.7845
 70
    64
  0
VERTEX
  5
71C7
  8
0
 10
0.9057
 20
-1.9855
 30
3.7845
 70
    64
  0
VERTEX
  5
71C8
  8
0
 10
0.8597
 20
-1.8455
 30
3.7845
 70
    64
  0
VERTEX
  5
71C9
  8
0
 10
0.8597
 20
-1.8455
 30
3.7845
 70
    64
  0
VERTEX
  5
71CA
  8
0
 10
0.8597
 20
-1.9855
 30
3.7845
 70
    64
  0
SEQEND
  5
71CB
  8
0
  0
POLYLINE
  5
71F8
  8
0
 66
     1
 10
0.0
 20
0.0
 30
0.0
 70
    16
 71
     6
 72
     3
  0
VERTEX
  5
71F9
  8
0
 10
1.33545
 20
-1.9855
 30
3.7845
 70
    64
  0
VERTEX
  5
71FA
  8
0
 10
1.33545
 20
-1.9855
 30
3.1745
 70
    64
  0
VERTEX
  5
71FB
  8
0
 10
1.33545
 20
-1.9855
 30
3.1745
 70
    64
  0
VERTEX
  5
71FC
  8
0
 10
1.28945
 20
-1.9855
 30
3.7845
 70
    64
  0
VERTEX
  5
71FD
  8
0
 10
1.28945
 20
-1.9855
 30
3.1745
 70
    64
  0
VERTEX
  5
71FE
  8
0
 10
1.28945
 20
-1.9855
 30
3.1745
 70
    64
  0
VERTEX
  5
71FF
  8
0
 10
1.28945
 20
-1.8455
 30
3.7845
 70
    64
  0
VERTEX
  5
7200
  8
0
 10
1.28945
 20
-1.8455
 30
3.1745
 70
    64
  0
VERTEX
  5
7201
  8
0
 10
1.28945
 20
-1.9855
 30
3.1745
 70
    64
  0
VERTEX
  5
7202
  8
0
 10
1.33545
 20
-1.8455
 30
3.7845
 70
    64
  0
VERTEX
  5
7203
  8
0
 10
1.33545
 20
-1.8455
 30
3.1745
 70
    64
  0
VERTEX
  5
7204
  8
0
 10
1.33545
 20
-1.9855
 30
3.1745
 70
    64
  0
VERTEX
  5
7205
  8
0
 10
1.33545
 20
-1.8455
 30
3.7845
 70
    64
  0
VERTEX
  5
7206
  8
0
 10
1.33545
 20
-1.8455
 30
3.7845
 70
    64
  0
VERTEX
  5
7207
  8
0
 10
1.33545
 20
-1.9855
 30
3.7845
 70
    64
  0
VERTEX
  5
7208
  8
0
 10
1.28945
 20
-1.8455
 30
3.7845
 70
    64
  0
VERTEX
  5
7209
  8
0
 10
1.28945
 20
-1.8455
 30
3.7845
 70
    64
  0
VERTEX
  5
720A
  8
0
 10
1.28945
 20
-1.9855
 30
3.7845
 70
    64
  0
SEQEND
  5
720B
  8
0
  0
POLYLINE
  5
7227
  8
0
 66
     1
 10
0.0
 20
0.0
 30
0.0
 70
    16
 71
     6
 72
     3
  0
VERTEX
  5
7228
  8
0
 10
1.7192
 20
-2.0575
 30
3.1745
 70
    64
  0
VERTEX
  5
7229
  8
0
 10
1.7192
 20
-2.0575
 30
2.9155
 70
    64
  0
VERTEX
  5
722A
  8
0
 10
1.7192
 20
-2.0575
 30
2.9155
 70
    64
  0
VERTEX
  5
722B
  8
0
 10
0.0462
 20
-2.0575
 30
3.1745
 70
    64
  0
VERTEX
  5
722C
  8
0
 10
0.0462
 20
-2.0575
 30
2.9155
 70
    64
  0
VERTEX
  5
722D
  8
0
 10
0.0462
 20
-2.0575
 30
2.9155
 70
    64
  0
VERTEX
  5
722E
  8
0
 10
0.0462
 20
-1.8455
 30
3.1745
 70
    64
  0
VERTEX
  5
722F
  8
0
 10
0.0462
 20
-1.8455
 30
2.9155
 70
    64
  0
VERTEX
  5
7230
  8
0
 10
0.0462
 20
-2.0575
 30
2.9155
 70
    64
  0
VERTEX
  5
7231
  8
0
 10
1.7192
 20
-1.8455
 30
3.1745
 70
    64
  0
VERTEX
  5
7232
  8
0
 10
1.7192
 20
-1.8455
 30
2.9155
 70
    64
  0
VERTEX
  5
7233
  8
0
 10
1.7192
 20
-2.0575
 30
2.9155
 70
    64
  0
VERTEX
  5
7234
  8
0
 10
1.7192
 20
-1.8455
 30
3.1745
 70
    64
  0
VERTEX
  5
7235
  8
0
 10
1.7192
 20
-1.8455
 30
3.1745
 70
    64
  0
VERTEX
  5
7236
  8
0
 10
1.7192
 20
-2.0575
 30
3.1745
 70
    64
  0
VERTEX
  5
7237
  8
0
 10
0.0462
 20
-1.8455
 30
3.1745
 70
    64
  0
VERTEX
  5
7238
  8
0
 10
0.0462
 20
-1.8455
 30
3.1745
 70
    64
  0
VERTEX
  5
7239
  8
0
 10
0.0462
 20
-2.0575
 30
3.1745
 70
    64
  0
SEQEND
  5
723A
  8
0
  0
POLYLINE
  5
7280
  8
0
 66
     1
 10
0.0
 20
0.0
 30
0.0
 70
    16
 71
     6
 72
     3
  0
VERTEX
  5
7281
  8
0
 10
0.42995
 20
-1.9855
 30
3.7845
 70
    64
  0
VERTEX
  5
7282
  8
0
 10
0.42995
 20
-1.9855
 30
3.1745
 70
    64
  0
VERTEX
  5
7283
  8
0
 10
0.42995
 20
-1.9855
 30
3.1745
 70
    64
  0
VERTEX
  5
7284
  8
0
 10
0.47595
 20
-1.9855
 30
3.7845
 70
    64
  0
VERTEX
  5
7285
  8
0
 10
0.47595
 20
-1.9855
 30
3.1745
 70
    64
  0
VERTEX
  5
7286
  8
0
 10
0.47595
 20
-1.9855
 30
3.1745
 70
    64
  0
VERTEX
  5
7287
  8
0
 10
0.47595
 20
-1.8455
 30
3.7845
 70
    64
  0
VERTEX
  5
7288
  8
0
 10
0.47595
 20
-1.8455
 30
3.1745
 70
    64
  0
VERTEX
  5
7289
  8
0
 10
0.47595
 20
-1.9855
 30
3.1745
 70
    64
  0
VERTEX
  5
728A
  8
0
 10
0.42995
 20
-1.8455
 30
3.7845
 70
    64
  0
VERTEX
  5
728B
  8
0
 10
0.42995
 20
-1.8455
 30
3.1745
 70
    64
  0
VERTEX
  5
728C
  8
0
 10
0.42995
 20
-1.9855
 30
3.1745
 70
    64
  0
VERTEX
  5
728D
  8
0
 10
0.42995
 20
-1.8455
 30
3.7845
 70
    64
  0
VERTEX
  5
728E
  8
0
 10
0.42995
 20
-1.8455
 30
3.7845
 70
    64
  0
VERTEX
  5
728F
  8
0
 10
0.42995
 20
-1.9855
 30
3.7845
 70
    64
  0
VERTEX
  5
7290
  8
0
 10
0.47595
 20
-1.8455
 30
3.7845
 70
    64
  0
VERTEX
  5
7291
  8
0
 10
0.47595
 20
-1.8455
 30
3.7845
 70
    64
  0
VERTEX
  5
7292
  8
0
 10
0.47595
 20
-1.9855
 30
3.7845
 70
    64
  0
SEQEND
  5
7293
  8
0
  0
LINE
  5
7294
  8
0
 10
0.9057
 20
-1.8455
 30
3.5015
 11
1.28945
 21
-1.8455
 31
3.5015
  0
LINE
  5
7295
  8
0
 10
1.33545
 20
-1.8455
 30
3.5015
 11
1.7192
 21
-1.8455
 31
3.5015
  0
LINE
  5
7296
  8
0
 10
0.47595
 20
-1.8455
 30
3.5015
 11
0.8597
 21
-1.8455
 31
3.5015
  0
LINE
  5
7297
  8
0
 10
0.0462
 20
-1.8455
 30
3.5015
 11
0.42995
 21
-1.8455
 31
3.5015
  0
POLYLINE
  5
72AD
  8
0
 66
     1
 10
0.0
 20
0.0
 30
0.0
 70
    16
 71
     6
 72
     3
  0
VERTEX
  5
72AE
  8
0
 10
0.0462
 20
-1.9855
 30
3.7845
 70
    64
  0
VERTEX
  5
72AF
  8
0
 10
0.0462
 20
-1.9855
 30
2.9155
 70
    64
  0
VERTEX
  5
72B0
  8
0
 10
0.0462
 20
-1.9855
 30
2.9155
 70
    64
  0
VERTEX
  5
72B1
  8
0
 10
0.0002
 20
-1.9855
 30
3.7845
 70
    64
  0
VERTEX
  5
72B2
  8
0
 10
0.0002
 20
-1.9855
 30
2.9155
 70
    64
  0
VERTEX
  5
72B3
  8
0
 10
0.0002
 20
-1.9855
 30
2.9155
 70
    64
  0
VERTEX
  5
72B4
  8
0
 10
0.0002
 20
-1.8455
 30
3.7845
 70
    64
  0
VERTEX
  5
72B5
  8
0
 10
0.0002
 20
-1.8455
 30
2.9155
 70
    64
  0
VERTEX
  5
72B6
  8
0
 10
0.0002
 20
-1.9855
 30
2.9155
 70
    64
  0
VERTEX
  5
72B7
  8
0
 10
0.0462
 20
-1.8455
 30
3.7845
 70
    64
  0
VERTEX
  5
72B8
  8
0
 10
0.0462
 20
-1.8455
 30
2.9155
 70
    64
  0
VERTEX
  5
72B9
  8
0
 10
0.0462
 20
-1.9855
 30
2.9155
 70
    64
  0
VERTEX
  5
72BA
  8
0
 10
0.0462
 20
-1.8455
 30
3.7845
 70
    64
  0
VERTEX
  5
72BB
  8
0
 10
0.0462
 20
-1.8455
 30
3.7845
 70
    64
  0
VERTEX
  5
72BC
  8
0
 10
0.0462
 20
-1.9855
 30
3.7845
 70
    64
  0
VERTEX
  5
72BD
  8
0
 10
0.0002
 20
-1.8455
 30
3.7845
 70
    64
  0
VERTEX
  5
72BE
  8
0
 10
0.0002
 20
-1.8455
 30
3.7845
 70
    64
  0
VERTEX
  5
72BF
  8
0
 10
0.0002
 20
-1.9855
 30
3.7845
 70
    64
  0
SEQEND
  5
72C0
  8
0
  0
POLYLINE
  5
72C1
  8
0
 66
     1
 10
0.0
 20
0.0
 30
0.0
 70
    16
 71
     6
 72
     3
  0
VERTEX
  5
72C2
  8
0
 10
1.7652
 20
-1.9855
 30
3.7845
 70
    64
  0
VERTEX
  5
72C3
  8
0
 10
1.7652
 20
-1.9855
 30
2.9155
 70
    64
  0
VERTEX
  5
72C4
  8
0
 10
1.7652
 20
-1.9855
 30
2.9155
 70
    64
  0
VERTEX
  5
72C5
  8
0
 10
1.7192
 20
-1.9855
 30
3.7845
 70
    64
  0
VERTEX
  5
72C6
  8
0
 10
1.7192
 20
-1.9855
 30
2.9155
 70
    64
  0
VERTEX
  5
72C7
  8
0
 10
1.7192
 20
-1.9855
 30
2.9155
 70
    64
  0
VERTEX
  5
72C8
  8
0
 10
1.7192
 20
-1.8455
 30
3.7845
 70
    64
  0
VERTEX
  5
72C9
  8
0
 10
1.7192
 20
-1.8455
 30
2.9155
 70
    64
  0
VERTEX
  5
72CA
  8
0
 10
1.7192
 20
-1.9855
 30
2.9155
 70
    64
  0
VERTEX
  5
72CB
  8
0
 10
1.7652
 20
-1.8455
 30
3.7845
 70
    64
  0
VERTEX
  5
72CC
  8
0
 10
1.7652
 20
-1.8455
 30
2.9155
 70
    64
  0
VERTEX
  5
72CD
  8
0
 10
1.7652
 20
-1.9855
 30
2.9155
 70
    64
  0
VERTEX
  5
72CE
  8
0
 10
1.7652
 20
-1.8455
 30
3.7845
 70
    64
  0
VERTEX
  5
72CF
  8
0
 10
1.7652
 20
-1.8455
 30
3.7845
 70
    64
  0
VERTEX
  5
72D0
  8
0
 10
1.7652
 20
-1.9855
 30
3.7845
 70
    64
  0
VERTEX
  5
72D1
  8
0
 10
1.7192
 20
-1.8455
 30
3.7845
 70
    64
  0
VERTEX
  5
72D2
  8
0
 10
1.7192
 20
-1.8455
 30
3.7845
 70
    64
  0
VERTEX
  5
72D3
  8
0
 10
1.7192
 20
-1.9855
 30
3.7845
 70
    64
  0
SEQEND
  5
72D4
  8
0
  0
POLYLINE
  5
72D5
  8
0
 66
     1
 10
0.0
 20
0.0
 30
0.0
 70
    16
 71
     6
 72
     3
  0
VERTEX
  5
72D6
  8
0
 10
1.7652
 20
0.5385
 30
3.7845
 70
    64
  0
VERTEX
  5
72D7
  8
0
 10
1.7652
 20
0.5385
 30
2.9155
 70
    64
  0
VERTEX
  5
72D8
  8
0
 10
1.7652
 20
0.5385
 30
2.9155
 70
    64
  0
VERTEX
  5
72D9
  8
0
 10
1.7192
 20
0.5385
 30
3.7845
 70
    64
  0
VERTEX
  5
72DA
  8
0
 10
1.7192
 20
0.5385
 30
2.9155
 70
    64
  0
VERTEX
  5
72DB
  8
0
 10
1.7192
 20
0.5385
 30
2.9155
 70
    64
  0
VERTEX
  5
72DC
  8
0
 10
1.7192
 20
0.3985
 30
3.7845
 70
    64
  0
VERTEX
  5
72DD
  8
0
 10
1.7192
 20
0.3985
 30
2.9155
 70
    64
  0
VERTEX
  5
72DE
  8
0
 10
1.7192
 20
0.5385
 30
2.9155
 70
    64
  0
VERTEX
  5
72DF
  8
0
 10
1.7652
 20
0.3985
 30
3.7845
 70
    64
  0
VERTEX
  5
72E0
  8
0
 10
1.7652
 20
0.3985
 30
2.9155
 70
    64
  0
VERTEX
  5
72E1
  8
0
 10
1.7652
 20
0.5385
 30
2.9155
 70
    64
  0
VERTEX
  5
72E2
  8
0
 10
1.7652
 20
0.3985
 30
3.7845
 70
    64
  0
VERTEX
  5
72E3
  8
0
 10
1.7652
 20
0.3985
 30
3.7845
 70
    64
  0
VERTEX
  5
72E4
  8
0
 10
1.7652
 20
0.5385
 30
3.7845
 70
    64
  0
VERTEX
  5
72E5
  8
0
 10
1.7192
 20
0.3985
 30
3.7845
 70
    64
  0
VERTEX
  5
72E6
  8
0
 10
1.7192
 20
0.3985
 30
3.7845
 70
    64
  0
VERTEX
  5
72E7
  8
0
 10
1.7192
 20
0.5385
 30
3.7845
 70
    64
  0
SEQEND
  5
72E8
  8
0
  0
LINE
  5
72E9
  8
0
 10
1.33545
 20
0.3985
 30
3.5015
 11
1.7192
 21
0.3985
 31
3.5015
  0
POLYLINE
  5
72EA
  8
0
 66
     1
 10
0.0
 20
0.0
 30
0.0
 70
    16
 71
     6
 72
     3
  0
VERTEX
  5
72EB
  8
0
 10
1.33545
 20
0.5385
 30
3.7845
 70
    64
  0
VERTEX
  5
72EC
  8
0
 10
1.33545
 20
0.5385
 30
3.1745
 70
    64
  0
VERTEX
  5
72ED
  8
0
 10
1.33545
 20
0.5385
 30
3.1745
 70
    64
  0
VERTEX
  5
72EE
  8
0
 10
1.28945
 20
0.5385
 30
3.7845
 70
    64
  0
VERTEX
  5
72EF
  8
0
 10
1.28945
 20
0.5385
 30
3.1745
 70
    64
  0
VERTEX
  5
72F0
  8
0
 10
1.28945
 20
0.5385
 30
3.1745
 70
    64
  0
VERTEX
  5
72F1
  8
0
 10
1.28945
 20
0.3985
 30
3.7845
 70
    64
  0
VERTEX
  5
72F2
  8
0
 10
1.28945
 20
0.3985
 30
3.1745
 70
    64
  0
VERTEX
  5
72F3
  8
0
 10
1.28945
 20
0.5385
 30
3.1745
 70
    64
  0
VERTEX
  5
72F4
  8
0
 10
1.33545
 20
0.3985
 30
3.7845
 70
    64
  0
VERTEX
  5
72F5
  8
0
 10
1.33545
 20
0.3985
 30
3.1745
 70
    64
  0
VERTEX
  5
72F6
  8
0
 10
1.33545
 20
0.5385
 30
3.1745
 70
    64
  0
VERTEX
  5
72F7
  8
0
 10
1.33545
 20
0.3985
 30
3.7845
 70
    64
  0
VERTEX
  5
72F8
  8
0
 10
1.33545
 20
0.3985
 30
3.7845
 70
    64
  0
VERTEX
  5
72F9
  8
0
 10
1.33545
 20
0.5385
 30
3.7845
 70
    64
  0
VERTEX
  5
72FA
  8
0
 10
1.28945
 20
0.3985
 30
3.7845
 70
    64
  0
VERTEX
  5
72FB
  8
0
 10
1.28945
 20
0.3985
 30
3.7845
 70
    64
  0
VERTEX
  5
72FC
  8
0
 10
1.28945
 20
0.5385
 30
3.7845
 70
    64
  0
SEQEND
  5
72FD
  8
0
  0
LINE
  5
72FE
  8
0
 10
0.9057
 20
0.3985
 30
3.5015
 11
1.28945
 21
0.3985
 31
3.5015
  0
POLYLINE
  5
72FF
  8
0
 66
     1
 10
0.0
 20
0.0
 30
0.0
 70
    16
 71
     6
 72
     3
  0
VERTEX
  5
7300
  8
0
 10
0.9057
 20
0.5385
 30
3.7845
 70
    64
  0
VERTEX
  5
7301
  8
0
 10
0.9057
 20
0.5385
 30
3.1745
 70
    64
  0
VERTEX
  5
7302
  8
0
 10
0.9057
 20
0.5385
 30
3.1745
 70
    64
  0
VERTEX
  5
7303
  8
0
 10
0.8597
 20
0.5385
 30
3.7845
 70
    64
  0
VERTEX
  5
7304
  8
0
 10
0.8597
 20
0.5385
 30
3.1745
 70
    64
  0
VERTEX
  5
7305
  8
0
 10
0.8597
 20
0.5385
 30
3.1745
 70
    64
  0
VERTEX
  5
7306
  8
0
 10
0.8597
 20
0.3985
 30
3.7845
 70
    64
  0
VERTEX
  5
7307
  8
0
 10
0.8597
 20
0.3985
 30
3.1745
 70
    64
  0
VERTEX
  5
7308
  8
0
 10
0.8597
 20
0.5385
 30
3.1745
 70
    64
  0
VERTEX
  5
7309
  8
0
 10
0.9057
 20
0.3985
 30
3.7845
 70
    64
  0
VERTEX
  5
730A
  8
0
 10
0.9057
 20
0.3985
 30
3.1745
 70
    64
  0
VERTEX
  5
730B
  8
0
 10
0.9057
 20
0.5385
 30
3.1745
 70
    64
  0
VERTEX
  5
730C
  8
0
 10
0.9057
 20
0.3985
 30
3.7845
 70
    64
  0
VERTEX
  5
730D
  8
0
 10
0.9057
 20
0.3985
 30
3.7845
 70
    64
  0
VERTEX
  5
730E
  8
0
 10
0.9057
 20
0.5385
 30
3.7845
 70
    64
  0
VERTEX
  5
730F
  8
0
 10
0.8597
 20
0.3985
 30
3.7845
 70
    64
  0
VERTEX
  5
7310
  8
0
 10
0.8597
 20
0.3985
 30
3.7845
 70
    64
  0
VERTEX
  5
7311
  8
0
 10
0.8597
 20
0.5385
 30
3.7845
 70
    64
  0
SEQEND
  5
7312
  8
0
  0
POLYLINE
  5
7313
  8
0
 66
     1
 10
0.0
 20
0.0
 30
0.0
 70
    16
 71
     6
 72
     3
  0
VERTEX
  5
7314
  8
0
 10
0.42995
 20
0.5385
 30
3.7845
 70
    64
  0
VERTEX
  5
7315
  8
0
 10
0.42995
 20
0.5385
 30
3.1745
 70
    64
  0
VERTEX
  5
7316
  8
0
 10
0.42995
 20
0.5385
 30
3.1745
 70
    64
  0
VERTEX
  5
7317
  8
0
 10
0.47595
 20
0.5385
 30
3.7845
 70
    64
  0
VERTEX
  5
7318
  8
0
 10
0.47595
 20
0.5385
 30
3.1745
 70
    64
  0
VERTEX
  5
7319
  8
0
 10
0.47595
 20
0.5385
 30
3.1745
 70
    64
  0
VERTEX
  5
731A
  8
0
 10
0.47595
 20
0.3985
 30
3.7845
 70
    64
  0
VERTEX
  5
731B
  8
0
 10
0.47595
 20
0.3985
 30
3.1745
 70
    64
  0
VERTEX
  5
731C
  8
0
 10
0.47595
 20
0.5385
 30
3.1745
 70
    64
  0
VERTEX
  5
731D
  8
0
 10
0.42995
 20
0.3985
 30
3.7845
 70
    64
  0
VERTEX
  5
731E
  8
0
 10
0.42995
 20
0.3985
 30
3.1745
 70
    64
  0
VERTEX
  5
731F
  8
0
 10
0.42995
 20
0.5385
 30
3.1745
 70
    64
  0
VERTEX
  5
7320
  8
0
 10
0.42995
 20
0.3985
 30
3.7845
 70
    64
  0
VERTEX
  5
7321
  8
0
 10
0.42995
 20
0.3985
 30
3.7845
 70
    64
  0
VERTEX
  5
7322
  8
0
 10
0.42995
 20
0.5385
 30
3.7845
 70
    64
  0
VERTEX
  5
7323
  8
0
 10
0.47595
 20
0.3985
 30
3.7845
 70
    64
  0
VERTEX
  5
7324
  8
0
 10
0.47595
 20
0.3985
 30
3.7845
 70
    64
  0
VERTEX
  5
7325
  8
0
 10
0.47595
 20
0.5385
 30
3.7845
 70
    64
  0
SEQEND
  5
7326
  8
0
  0
LINE
  5
7327
  8
0
 10
0.0462
 20
0.3985
 30
3.5015
 11
0.42995
 21
0.3985
 31
3.5015
  0
LINE
  5
7328
  8
0
 10
0.47595
 20
0.3985
 30
3.5015
 11
0.8597
 21
0.3985
 31
3.5015
  0
POLYLINE
  5
7329
  8
0
 66
     1
 10
0.0
 20
0.0
 30
0.0
 70
    16
 71
     6
 72
     3
  0
VERTEX
  5
732A
  8
0
 10
0.0462
 20
0.5385
 30
3.7845
 70
    64
  0
VERTEX
  5
732B
  8
0
 10
0.0462
 20
0.5385
 30
2.9155
 70
    64
  0
VERTEX
  5
732C
  8
0
 10
0.0462
 20
0.5385
 30
2.9155
 70
    64
  0
VERTEX
  5
732D
  8
0
 10
0.0002
 20
0.5385
 30
3.7845
 70
    64
  0
VERTEX
  5
732E
  8
0
 10
0.0002
 20
0.5385
 30
2.9155
 70
    64
  0
VERTEX
  5
732F
  8
0
 10
0.0002
 20
0.5385
 30
2.9155
 70
    64
  0
VERTEX
  5
7330
  8
0
 10
0.0002
 20
0.3985
 30
3.7845
 70
    64
  0
VERTEX
  5
7331
  8
0
 10
0.0002
 20
0.3985
 30
2.9155
 70
    64
  0
VERTEX
  5
7332
  8
0
 10
0.0002
 20
0.5385
 30
2.9155
 70
    64
  0
VERTEX
  5
7333
  8
0
 10
0.0462
 20
0.3985
 30
3.7845
 70
    64
  0
VERTEX
  5
7334
  8
0
 10
0.0462
 20
0.3985
 30
2.9155
 70
    64
  0
VERTEX
  5
7335
  8
0
 10
0.0462
 20
0.5385
 30
2.9155
 70
    64
  0
VERTEX
  5
7336
  8
0
 10
0.0462
 20
0.3985
 30
3.7845
 70
    64
  0
VERTEX
  5
7337
  8
0
 10
0.0462
 20
0.3985
 30
3.7845
 70
    64
  0
VERTEX
  5
7338
  8
0
 10
0.0462
 20
0.5385
 30
3.7845
 70
    64
  0
VERTEX
  5
7339
  8
0
 10
0.0002
 20
0.3985
 30
3.7845
 70
    64
  0
VERTEX
  5
733A
  8
0
 10
0.0002
 20
0.3985
 30
3.7845
 70
    64
  0
VERTEX
  5
733B
  8
0
 10
0.0002
 20
0.5385
 30
3.7845
 70
    64
  0
SEQEND
  5
733C
  8
0
  0
POLYLINE
  5
733D
  8
0
 66
     1
 10
0.0
 20
0.0
 30
0.0
 70
    16
 71
     6
 72
     3
  0
VERTEX
  5
733E
  8
0
 10
1.7192
 20
0.6105
 30
3.1745
 70
    64
  0
VERTEX
  5
733F
  8
0
 10
1.7192
 20
0.6105
 30
2.9155
 70
    64
  0
VERTEX
  5
7340
  8
0
 10
1.7192
 20
0.6105
 30
2.9155
 70
    64
  0
VERTEX
  5
7341
  8
0
 10
0.0462
 20
0.6105
 30
3.1745
 70
    64
  0
VERTEX
  5
7342
  8
0
 10
0.0462
 20
0.6105
 30
2.9155
 70
    64
  0
VERTEX
  5
7343
  8
0
 10
0.0462
 20
0.6105
 30
2.9155
 70
    64
  0
VERTEX
  5
7344
  8
0
 10
0.0462
 20
0.3985
 30
3.1745
 70
    64
  0
VERTEX
  5
7345
  8
0
 10
0.0462
 20
0.3985
 30
2.9155
 70
    64
  0
VERTEX
  5
7346
  8
0
 10
0.0462
 20
0.6105
 30
2.9155
 70
    64
  0
VERTEX
  5
7347
  8
0
 10
1.7192
 20
0.3985
 30
3.1745
 70
    64
  0
VERTEX
  5
7348
  8
0
 10
1.7192
 20
0.3985
 30
2.9155
 70
    64
  0
VERTEX
  5
7349
  8
0
 10
1.7192
 20
0.6105
 30
2.9155
 70
    64
  0
VERTEX
  5
734A
  8
0
 10
1.7192
 20
0.3985
 30
3.1745
 70
    64
  0
VERTEX
  5
734B
  8
0
 10
1.7192
 20
0.3985
 30
3.1745
 70
    64
  0
VERTEX
  5
734C
  8
0
 10
1.7192
 20
0.6105
 30
3.1745
 70
    64
  0
VERTEX
  5
734D
  8
0
 10
0.0462
 20
0.3985
 30
3.1745
 70
    64
  0
VERTEX
  5
734E
  8
0
 10
0.0462
 20
0.3985
 30
3.1745
 70
    64
  0
VERTEX
  5
734F
  8
0
 10
0.0462
 20
0.6105
 30
3.1745
 70
    64
  0
SEQEND
  5
7350
  8
0
  0
TEXT
  5
7375
  8
0
 39
0.0
 10
0.364837
 20
0.854582
 30
2.9155
 40
0.083465
  1
A1
  0
TEXT
  5
7376
  8
0
 39
0.0
 10
1.285817
 20
0.853741
 30
2.9155
 40
0.083465
  1
A2
  0
LINE
  5
1D367
  8
0
 10
0.652923
 20
-1.9685
 30
0.0
 11
0.86359
 21
-1.9685
 31
0.0
  0
POLYLINE
  5
1D368
  8
0
 66
     1
 10
0.0
 20
0.0
 30
0.0
 70
     8
  0
VERTEX
  5
1D369
  8
0
 10
0.652923
 20
-1.9685
 30
0.0
 70
    32
  0
VERTEX
  5
1D36A
  8
0
 10
0.652923
 20
-2.1035
 30
0.0
 70
    32
  0
VERTEX
  5
1D36B
  8
0
 10
0.86359
 20
-2.1035
 30
0.0
 70
    32
  0
VERTEX
  5
1D36C
  8
0
 10
0.86359
 20
-1.9685
 30
0.0
 70
    32
  0
SEQEND
  5
1D36D
  8
0
  0
POLYLINE
  5
1D36E
  8
0
 66
     1
 10
0.0
 20
0.0
 30
0.0
 70
     8
  0
VERTEX
  5
1D36F
  8
0
 10
0.581133
 20
-1.9685
 30
0.187
 70
    32
  0
VERTEX
  5
1D370
  8
0
 10
0.581133
 20
-2.1035
 30
0.187
 70
    32
  0
VERTEX
  5
1D371
  8
0
 10
0.791799
 20
-2.1035
 30
0.187
 70
    32
  0
VERTEX
  5
1D372
  8
0
 10
0.791799
 20
-1.9685
 30
0.187
 70
    32
  0
SEQEND
  5
1D373
  8
0
  0
POLYLINE
  5
1D374
  8
0
 66
     1
 10
0.0
 20
0.0
 30
0.0
 70
    16
 71
     6
 72
     3
  0
VERTEX
  5
1D375
  8
0
 10
0.853799
 20
-2.1655
 30
0.187
 70
    64
  0
VERTEX
  5
1D376
  8
0
 10
0.853799
 20
-2.1655
 30
0.0
 70
    64
  0
VERTEX
  5
1D377
  8
0
 10
0.853799
 20
-2.1655
 30
0.0
 70
    64
  0
VERTEX
  5
1D378
  8
0
 10
0.246466
 20
-2.1655
 30
0.187
 70
    64
  0
VERTEX
  5
1D379
  8
0
 10
0.246466
 20
-2.1655
 30
0.0
 70
    64
  0
VERTEX
  5
1D37A
  8
0
 10
0.246466
 20
-2.1655
 30
0.0
 70
    64
  0
VERTEX
  5
1D37B
  8
0
 10
0.246466
 20
-2.1035
 30
0.187
 70
    64
  0
VERTEX
  5
1D37C
  8
0
 10
0.246466
 20
-2.1035
 30
0.0
 70
    64
  0
VERTEX
  5
1D37D
  8
0
 10
0.246466
 20
-2.1655
 30
0.0
 70
    64
  0
VERTEX
  5
1D37E
  8
0
 10
0.853799
 20
-2.1035
 30
0.187
 70
    64
  0
VERTEX
  5
1D37F
  8
0
 10
0.853799
 20
-2.1035
 30
0.0
 70
    64
  0
VERTEX
  5
1D380
  8
0
 10
0.853799
 20
-2.1655
 30
0.0
 70
    64
  0
VERTEX
  5
1D381
  8
0
 10
0.853799
 20
-2.1035
 30
0.187
 70
    64
  0
VERTEX
  5
1D382
  8
0
 10
0.853799
 20
-2.1035
 30
0.187
 70
    64
  0
VERTEX
  5
1D383
  8
0
 10
0.853799
 20
-2.1655
 30
0.187
 70
    64
  0
VERTEX
  5
1D384
  8
0
 10
0.246466
 20
-2.1035
 30
0.187
 70
    64
  0
VERTEX
  5
1D385
  8
0
 10
0.246466
 20
-2.1035
 30
0.187
 70
    64
  0
VERTEX
  5
1D386
  8
0
 10
0.246466
 20
-2.1655
 30
0.187
 70
    64
  0
SEQEND
  5
1D387
  8
0
  0
POLYLINE
  5
1D389
  8
0
 66
     1
 10
0.0
 20
0.0
 30
0.0
 70
    16
 71
     6
 72
     3
  0
VERTEX
  5
1D38A
  8
0
 10
0.853799
 20
-2.1035
 30
0.187
 70
    64
  0
VERTEX
  5
1D38B
  8
0
 10
0.853799
 20
-2.1035
 30
0.0
 70
    64
  0
VERTEX
  5
1D38C
  8
0
 10
0.853799
 20
-2.1035
 30
0.0
 70
    64
  0
VERTEX
  5
1D38D
  8
0
 10
0.519133
 20
-2.1035
 30
0.187
 70
    64
  0
VERTEX
  5
1D38E
  8
0
 10
0.519133
 20
-2.1035
 30
0.0
 70
    64
  0
VERTEX
  5
1D38F
  8
0
 10
0.519133
 20
-2.1035
 30
0.0
 70
    64
  0
VERTEX
  5
1D390
  8
0
 10
0.519133
 20
-1.9065
 30
0.187
 70
    64
  0
VERTEX
  5
1D391
  8
0
 10
0.519133
 20
-1.9065
 30
0.0
 70
    64
  0
VERTEX
  5
1D392
  8
0
 10
0.519133
 20
-2.1035
 30
0.0
 70
    64
  0
VERTEX
  5
1D393
  8
0
 10
0.853799
 20
-1.9065
 30
0.187
 70
    64
  0
VERTEX
  5
1D394
  8
0
 10
0.853799
 20
-1.9065
 30
0.0
 70
    64
  0
VERTEX
  5
1D395
  8
0
 10
0.853799
 20
-2.1035
 30
0.0
 70
    64
  0
VERTEX
  5
1D396
  8
0
 10
0.853799
 20
-1.9065
 30
0.187
 70
    64
  0
VERTEX
  5
1D397
  8
0
 10
0.853799
 20
-1.9065
 30
0.187
 70
    64
  0
VERTEX
  5
1D398
  8
0
 10
0.853799
 20
-2.1035
 30
0.187
 70
    64
  0
VERTEX
  5
1D399
  8
0
 10
0.519133
 20
-1.9065
 30
0.187
 70
    64
  0
VERTEX
  5
1D39A
  8
0
 10
0.519133
 20
-1.9065
 30
0.187
 70
    64
  0
VERTEX
  5
1D39B
  8
0
 10
0.519133
 20
-2.1035
 30
0.187
 70
    64
  0
SEQEND
  5
1D39C
  8
0
  0
LINE
  5
1D39D
  8
0
 10
0.652923
 20
-1.9685
 30
0.187
 11
0.86359
 21
-1.9685
 31
0.187
  0
POLYLINE
  5
1D3DC
  8
0
 66
     1
 10
0.0
 20
0.0
 30
0.0
 70
    16
 71
     6
 72
     3
  0
VERTEX
  5
1D3DD
  8
0
 10
1.7652
 20
-1.6855
 30
0.187
 70
    64
  0
VERTEX
  5
1D3DE
  8
0
 10
1.7652
 20
-1.6855
 30
0.0
 70
    64
  0
VERTEX
  5
1D3DF
  8
0
 10
1.7652
 20
-1.6855
 30
0.0
 70
    64
  0
VERTEX
  5
1D3E0
  8
0
 10
0.0052
 20
-1.6855
 30
0.187
 70
    64
  0
VERTEX
  5
1D3E1
  8
0
 10
0.0052
 20
-1.6855
 30
0.0
 70
    64
  0
VERTEX
  5
1D3E2
  8
0
 10
0.0052
 20
-1.6855
 30
0.0
 70
    64
  0
VERTEX
  5
1D3E3
  8
0
 10
0.0052
 20
-1.481
 30
0.187
 70
    64
  0
VERTEX
  5
1D3E4
  8
0
 10
0.0052
 20
-1.481
 30
0.0
 70
    64
  0
VERTEX
  5
1D3E5
  8
0
 10
0.0052
 20
-1.6855
 30
0.0
 70
    64
  0
VERTEX
  5
1D3E6
  8
0
 10
1.7652
 20
-1.481
 30
0.187
 70
    64
  0
VERTEX
  5
1D3E7
  8
0
 10
1.7652
 20
-1.481
 30
0.0
 70
    64
  0
VERTEX
  5
1D3E8
  8
0
 10
1.7652
 20
-1.6855
 30
0.0
 70
    64
  0
VERTEX
  5
1D3E9
  8
0
 10
1.7652
 20
-1.481
 30
0.187
 70
    64
  0
VERTEX
  5
1D3EA
  8
0
 10
1.7652
 20
-1.481
 30
0.187
 70
    64
  0
VERTEX
  5
1D3EB
  8
0
 10
1.7652
 20
-1.6855
 30
0.187
 70
    64
  0
VERTEX
  5
1D3EC
  8
0
 10
0.0052
 20
-1.481
 30
0.187
 70
    64
  0
VERTEX
  5
1D3ED
  8
0
 10
0.0052
 20
-1.481
 30
0.187
 70
    64
  0
VERTEX
  5
1D3EE
  8
0
 10
0.0052
 20
-1.6855
 30
0.187
 70
    64
  0
SEQEND
  5
1D3EF
  8
0
  0
POLYLINE
  5
1D3F0
  8
0
 66
     1
 10
0.0
 20
0.0
 30
0.0
 70
    16
 71
     6
 72
     3
  0
VERTEX
  5
1D3F1
  8
0
 10
1.7652
 20
0.2045
 30
0.187
 70
    64
  0
VERTEX
  5
1D3F2
  8
0
 10
1.7652
 20
0.2045
 30
0.0
 70
    64
  0
VERTEX
  5
1D3F3
  8
0
 10
1.7652
 20
0.2045
 30
0.0
 70
    64
  0
VERTEX
  5
1D3F4
  8
0
 10
0.0052
 20
0.2045
 30
0.187
 70
    64
  0
VERTEX
  5
1D3F5
  8
0
 10
0.0052
 20
0.2045
 30
0.0
 70
    64
  0
VERTEX
  5
1D3F6
  8
0
 10
0.0052
 20
0.2045
 30
0.0
 70
    64
  0
VERTEX
  5
1D3F7
  8
0
 10
0.0052
 20
0.0
 30
0.187
 70
    64
  0
VERTEX
  5
1D3F8
  8
0
 10
0.0052
 20
0.0
 30
0.0
 70
    64
  0
VERTEX
  5
1D3F9
  8
0
 10
0.0052
 20
0.2045
 30
0.0
 70
    64
  0
VERTEX
  5
1D3FA
  8
0
 10
1.7652
 20
0.0
 30
0.187
 70
    64
  0
VERTEX
  5
1D3FB
  8
0
 10
1.7652
 20
0.0
 30
0.0
 70
    64
  0
VERTEX
  5
1D3FC
  8
0
 10
1.7652
 20
0.2045
 30
0.0
 70
    64
  0
VERTEX
  5
1D3FD
  8
0
 10
1.7652
 20
0.0
 30
0.187
 70
    64
  0
VERTEX
  5
1D3FE
  8
0
 10
1.7652
 20
0.0
 30
0.187
 70
    64
  0
VERTEX
  5
1D3FF
  8
0
 10
1.7652
 20
0.2045
 30
0.187
 70
    64
  0
VERTEX
  5
1D400
  8
0
 10
0.0052
 20
0.0
 30
0.187
 70
    64
  0
VERTEX
  5
1D401
  8
0
 10
0.0052
 20
0.0
 30
0.187
 70
    64
  0
VERTEX
  5
1D402
  8
0
 10
0.0052
 20
0.2045
 30
0.187
 70
    64
  0
SEQEND
  5
1D403
  8
0
  0
POLYLINE
  5
1D43D
  8
0
 66
     1
 10
0.0
 20
0.0
 30
0.0
 70
    16
 71
     6
 72
     3
  0
VERTEX
  5
1D43E
  8
0
 10
0.3962
 20
-2.0815
 30
0.316
 70
    64
  0
VERTEX
  5
1D43F
  8
0
 10
0.3962
 20
-2.0815
 30
0.0
 70
    64
  0
VERTEX
  5
1D440
  8
0
 10
0.3962
 20
-2.0815
 30
0.0
 70
    64
  0
VERTEX
  5
1D441
  8
0
 10
0.0052
 20
-2.0815
 30
0.316
 70
    64
  0
VERTEX
  5
1D442
  8
0
 10
0.0052
 20
-2.0815
 30
0.0
 70
    64
  0
VERTEX
  5
1D443
  8
0
 10
0.0052
 20
-2.0815
 30
0.0
 70
    64
  0
VERTEX
  5
1D444
  8
0
 10
0.0052
 20
-1.6855
 30
0.316
 70
    64
  0
VERTEX
  5
1D445
  8
0
 10
0.0052
 20
-1.6855
 30
0.0
 70
    64
  0
VERTEX
  5
1D446
  8
0
 10
0.0052
 20
-2.0815
 30
0.0
 70
    64
  0
VERTEX
  5
1D447
  8
0
 10
0.3962
 20
-1.6855
 30
0.316
 70
    64
  0
VERTEX
  5
1D448
  8
0
 10
0.3962
 20
-1.6855
 30
0.0
 70
    64
  0
VERTEX
  5
1D449
  8
0
 10
0.3962
 20
-2.0815
 30
0.0
 70
    64
  0
VERTEX
  5
1D44A
  8
0
 10
0.3962
 20
-1.6855
 30
0.316
 70
    64
  0
VERTEX
  5
1D44B
  8
0
 10
0.3962
 20
-1.6855
 30
0.316
 70
    64
  0
VERTEX
  5
1D44C
  8
0
 10
0.3962
 20
-2.0815
 30
0.316
 70
    64
  0
VERTEX
  5
1D44D
  8
0
 10
0.0052
 20
-1.6855
 30
0.316
 70
    64
  0
VERTEX
  5
1D44E
  8
0
 10
0.0052
 20
-1.6855
 30
0.316
 70
    64
  0
VERTEX
  5
1D44F
  8
0
 10
0.0052
 20
-2.0815
 30
0.316
 70
    64
  0
SEQEND
  5
1D450
  8
0
  0
3DFACE
  5
1D590
  8
0
 10
1.7652
 20
-1.8455
 30
2.9155
 11
1.7652
 21
-1.8455
 31
2.9155
 12
0.0002
 22
-1.8455
 32
2.9155
 13
0.0002
 23
-1.8455
 33
2.9155
  0
3DFACE
  5
1D592
  8
0
 10
0.0002
 20
-1.8455
 30
2.9155
 11
0.0002
 21
-1.8455
 31
2.9155
 12
0.0002
 22
-1.8455
 32
2.9155
 13
0.0002
 23
0.3985
 33
2.9155
  0
3DFACE
  5
1D594
  8
0
 10
0.0002
 20
0.3985
 30
2.9155
 11
0.0002
 21
-1.8455
 31
2.9155
 12
1.7652
 22
-1.8455
 32
2.9155
 13
1.7652
 23
0.3985
 33
2.9155
  0
POLYLINE
  5
1D59B
  8
0
  6
CONTINUOUS
 66
     1
 10
0.0
 20
0.0
 30
0.0
 70
     8
  0
VERTEX
  5
1D664
  8
0
  6
CONTINUOUS
 10
1.7652
 20
0.3985
 30
2.9155
 70
    32
1001
ACAD
1000
R13OBJECT
1002
{
1005
1D59B
1002
}
  0
VERTEX
  5
1D665
  8
0
  6
CONTINUOUS
 10
1.7652
 20
-1.8455
 30
2.9155
 70
    32
1001
ACAD
1000
R13OBJECT
1002
{
1005
1D59B
1002
}
  0
SEQEND
  5
1D666
  8
0
  6
CONTINUOUS
1001
ACAD
1000
R13OBJECT
1002
{
1005
1D59B
1002
}
  0
POLYLINE
  5
1D667
  8
0
  6
CONTINUOUS
 66
     1
 10
0.0
 20
0.0
 30
0.0
 70
     8
1001
ACAD
1000
R13OBJECT
1002
{
1005
1D59B
1002
}
  0
VERTEX
  5
1D668
  8
0
  6
CONTINUOUS
 10
1.7652
 20
-1.8455
 30
2.9155
 70
    32
1001
ACAD
1000
R13OBJECT
1002
{
1005
1D59B
1002
}
  0
VERTEX
  5
1D669
  8
0
  6
CONTINUOUS
 10
0.0002
 20
-1.8455
 30
2.9155
 70
    32
1001
ACAD
1000
R13OBJECT
1002
{
1005
1D59B
1002
}
  0
SEQEND
  5
1D66A
  8
0
  6
CONTINUOUS
1001
ACAD
1000
R13OBJECT
1002
{
1005
1D59B
1002
}
  0
POLYLINE
  5
1D66B
  8
0
  6
CONTINUOUS
 66
     1
 10
0.0
 20
0.0
 30
0.0
 70
     8
1001
ACAD
1000
R13OBJECT
1002
{
1005
1D59B
1002
}
  0
VERTEX
  5
1D66C
  8
0
  6
CONTINUOUS
 10
0.0002
 20
-1.8455
 30
2.9155
 70
    32
1001
ACAD
1000
R13OBJECT
1002
{
1005
1D59B
1002
}
  0
VERTEX
  5
1D66D
  8
0
  6
CONTINUOUS
 10
0.0002
 20
0.3985
 30
2.9155
 70
    32
1001
ACAD
1000
R13OBJECT
1002
{
1005
1D59B
1002
}
  0
SEQEND
  5
1D66E
  8
0
  6
CONTINUOUS
1001
ACAD
1000
R13OBJECT
1002
{
1005
1D59B
1002
}
  0
POLYLINE
  5
1D66F
  8
0
  6
CONTINUOUS
 66
     1
 10
0.0
 20
0.0
 30
0.0
 70
     8
1001
ACAD
1000
R13OBJECT
1002
{
1005
1D59B
1002
}
  0
VERTEX
  5
1D670
  8
0
  6
CONTINUOUS
 10
0.0002
 20
0.3985
 30
2.9155
 70
    32
1001
ACAD
1000
R13OBJECT
1002
{
1005
1D59B
1002
}
  0
VERTEX
  5
1D671
  8
0
  6
CONTINUOUS
 10
1.7652
 20
0.3985
 30
2.9155
 70
    32
1001
ACAD
1000
R13OBJECT
1002
{
1005
1D59B
1002
}
  0
SEQEND
  5
1D672
  8
0
  6
CONTINUOUS
1001
ACAD
1000
R13OBJECT
1002
{
1005
1D59B
1002
}
  0
POLYLINE
  5
1D59C
  8
0
  6
CONTINUOUS
 66
     1
 10
0.0
 20
0.0
 30
0.0
 70
     8
  0
VERTEX
  5
1D673
  8
0
  6
CONTINUOUS
 10
0.0002
 20
-1.8455
 30
3.9375
 70
    32
1001
ACAD
1000
R13OBJECT
1002
{
1005
1D59C
1002
}
  0
VERTEX
  5
1D674
  8
0
  6
CONTINUOUS
 10
0.0002
 20
-1.8455
 30
2.9155
 70
    32
1001
ACAD
1000
R13OBJECT
1002
{
1005
1D59C
1002
}
  0
SEQEND
  5
1D675
  8
0
  6
CONTINUOUS
1001
ACAD
1000
R13OBJECT
1002
{
1005
1D59C
1002
}
  0
POLYLINE
  5
1D676
  8
0
  6
CONTINUOUS
 66
     1
 10
0.0
 20
0.0
 30
0.0
 70
     8
1001
ACAD
1000
R13OBJECT
1002
{
1005
1D59C
1002
}
  0
VERTEX
  5
1D677
  8
0
  6
CONTINUOUS
 10
1.7652
 20
-1.8455
 30
2.9155
 70
    32
1001
ACAD
1000
R13OBJECT
1002
{
1005
1D59C
1002
}
  0
VERTEX
  5
1D678
  8
0
  6
CONTINUOUS
 10
0.0002
 20
-1.8455
 30
2.9155
 70
    32
1001
ACAD
1000
R13OBJECT
1002
{
1005
1D59C
1002
}
  0
SEQEND
  5
1D679
  8
0
  6
CONTINUOUS
1001
ACAD
1000
R13OBJECT
1002
{
1005
1D59C
1002
}
  0
POLYLINE
  5
1D67A
  8
0
  6
CONTINUOUS
 66
     1
 10
0.0
 20
0.0
 30
0.0
 70
     8
1001
ACAD
1000
R13OBJECT
1002
{
1005
1D59C
1002
}
  0
VERTEX
  5
1D67B
  8
0
  6
CONTINUOUS
 10
1.7652
 20
-1.8455
 30
3.9375
 70
    32
1001
ACAD
1000
R13OBJECT
1002
{
1005
1D59C
1002
}
  0
VERTEX
  5
1D67C
  8
0
  6
CONTINUOUS
 10
1.7652
 20
-1.8455
 30
2.9155
 70
    32
1001
ACAD
1000
R13OBJECT
1002
{
1005
1D59C
1002
}
  0
SEQEND
  5
1D67D
  8
0
  6
CONTINUOUS
1001
ACAD
1000
R13OBJECT
1002
{
1005
1D59C
1002
}
  0
POLYLINE
  5
1D67E
  8
0
  6
CONTINUOUS
 66
     1
 10
0.0
 20
0.0
 30
0.0
 70
     8
1001
ACAD
1000
R13OBJECT
1002
{
1005
1D59C
1002
}
  0
VERTEX
  5
1D67F
  8
0
  6
CONTINUOUS
 10
0.0002
 20
-1.8455
 30
3.9375
 70
    32
1001
ACAD
1000
R13OBJECT
1002
{
1005
1D59C
1002
}
  0
VERTEX
  5
1D680
  8
0
  6
CONTINUOUS
 10
1.7652
 20
-1.8455
 30
3.9375
 70
    32
1001
ACAD
1000
R13OBJECT
1002
{
1005
1D59C
1002
}
  0
SEQEND
  5
1D681
  8
0
  6
CONTINUOUS
1001
ACAD
1000
R13OBJECT
1002
{
1005
1D59C
1002
}
  0
POLYLINE
  5
1D59E
  8
0
  6
CONTINUOUS
 66
     1
 10
0.0
 20
0.0
 30
0.0
 70
     8
  0
VERTEX
  5
1D682
  8
0
  6
CONTINUOUS
 10
1.7652
 20
0.3985
 30
3.9375
 70
    32
1001
ACAD
1000
R13OBJECT
1002
{
1005
1D59E
1002
}
  0
VERTEX
  5
1D683
  8
0
  6
CONTINUOUS
 10
1.7652
 20
0.3985
 30
2.9155
 70
    32
1001
ACAD
1000
R13OBJECT
1002
{
1005
1D59E
1002
}
  0
SEQEND
  5
1D684
  8
0
  6
CONTINUOUS
1001
ACAD
1000
R13OBJECT
1002
{
1005
1D59E
1002
}
  0
POLYLINE
  5
1D685
  8
0
  6
CONTINUOUS
 66
     1
 10
0.0
 20
0.0
 30
0.0
 70
     8
1001
ACAD
1000
R13OBJECT
1002
{
1005
1D59E
1002
}
  0
VERTEX
  5
1D686
  8
0
  6
CONTINUOUS
 10
0.0002
 20
0.3985
 30
2.9155
 70
    32
1001
ACAD
1000
R13OBJECT
1002
{
1005
1D59E
1002
}
  0
VERTEX
  5
1D687
  8
0
  6
CONTINUOUS
 10
1.7652
 20
0.3985
 30
2.9155
 70
    32
1001
ACAD
1000
R13OBJECT
1002
{
1005
1D59E
1002
}
  0
SEQEND
  5
1D688
  8
0
  6
CONTINUOUS
1001
ACAD
1000
R13OBJECT
1002
{
1005
1D59E
1002
}
  0
POLYLINE
  5
1D689
  8
0
  6
CONTINUOUS
 66
     1
 10
0.0
 20
0.0
 30
0.0
 70
     8
1001
ACAD
1000
R13OBJECT
1002
{
1005
1D59E
1002
}
  0
VERTEX
  5
1D68A
  8
0
  6
CONTINUOUS
 10
0.0002
 20
0.3985
 30
3.9375
 70
    32
1001
ACAD
1000
R13OBJECT
1002
{
1005
1D59E
1002
}
  0
VERTEX
  5
1D68B
  8
0
  6
CONTINUOUS
 10
0.0002
 20
0.3985
 30
2.9155
 70
    32
1001
ACAD
1000
R13OBJECT
1002
{
1005
1D59E
1002
}
  0
SEQEND
  5
1D68C
  8
0
  6
CONTINUOUS
1001
ACAD
1000
R13OBJECT
1002
{
1005
1D59E
1002
}
  0
POLYLINE
  5
1D68D
  8
0
  6
CONTINUOUS
 66
     1
 10
0.0
 20
0.0
 30
0.0
 70
     8
1001
ACAD
1000
R13OBJECT
1002
{
1005
1D59E
1002
}
  0
VERTEX
  5
1D68E
  8
0
  6
CONTINUOUS
 10
1.7652
 20
0.3985
 30
3.9375
 70
    32
1001
ACAD
1000
R13OBJECT
1002
{
1005
1D59E
1002
}
  0
VERTEX
  5
1D68F
  8
0
  6
CONTINUOUS
 10
0.0002
 20
0.3985
 30
3.9375
 70
    32
1001
ACAD
1000
R13OBJECT
1002
{
1005
1D59E
1002
}
  0
SEQEND
  5
1D690
  8
0
  6
CONTINUOUS
1001
ACAD
1000
R13OBJECT
1002
{
1005
1D59E
1002
}
  0
POLYLINE
  5
1D59F
  8
0
  6
CONTINUOUS
 66
     1
 10
0.0
 20
0.0
 30
0.0
 70
     8
  0
VERTEX
  5
1D691
  8
0
  6
CONTINUOUS
 10
1.7652
 20
-1.8455
 30
3.9375
 70
    32
1001
ACAD
1000
R13OBJECT
1002
{
1005
1D59F
1002
}
  0
VERTEX
  5
1D692
  8
0
  6
CONTINUOUS
 10
1.7652
 20
-1.8455
 30
2.9155
 70
    32
1001
ACAD
1000
R13OBJECT
1002
{
1005
1D59F
1002
}
  0
SEQEND
  5
1D693
  8
0
  6
CONTINUOUS
1001
ACAD
1000
R13OBJECT
1002
{
1005
1D59F
1002
}
  0
POLYLINE
  5
1D694
  8
0
  6
CONTINUOUS
 66
     1
 10
0.0
 20
0.0
 30
0.0
 70
     8
1001
ACAD
1000
R13OBJECT
1002
{
1005
1D59F
1002
}
  0
VERTEX
  5
1D695
  8
0
  6
CONTINUOUS
 10
1.7652
 20
0.3985
 30
2.9155
 70
    32
1001
ACAD
1000
R13OBJECT
1002
{
1005
1D59F
1002
}
  0
VERTEX
  5
1D696
  8
0
  6
CONTINUOUS
 10
1.7652
 20
-1.8455
 30
2.9155
 70
    32
1001
ACAD
1000
R13OBJECT
1002
{
1005
1D59F
1002
}
  0
SEQEND
  5
1D697
  8
0
  6
CONTINUOUS
1001
ACAD
1000
R13OBJECT
1002
{
1005
1D59F
1002
}
  0
POLYLINE
  5
1D698
  8
0
  6
CONTINUOUS
 66
     1
 10
0.0
 20
0.0
 30
0.0
 70
     8
1001
ACAD
1000
R13OBJECT
1002
{
1005
1D59F
1002
}
  0
VERTEX
  5
1D699
  8
0
  6
CONTINUOUS
 10
1.7652
 20
0.3985
 30
3.9375
 70
    32
1001
ACAD
1000
R13OBJECT
1002
{
1005
1D59F
1002
}
  0
VERTEX
  5
1D69A
  8
0
  6
CONTINUOUS
 10
1.7652
 20
0.3985
 30
2.9155
 70
    32
1001
ACAD
1000
R13OBJECT
1002
{
1005
1D59F
1002
}
  0
SEQEND
  5
1D69B
  8
0
  6
CONTINUOUS
1001
ACAD
1000
R13OBJECT
1002
{
1005
1D59F
1002
}
  0
POLYLINE
  5
1D69C
  8
0
  6
CONTINUOUS
 66
     1
 10
0.0
 20
0.0
 30
0.0
 70
     8
1001
ACAD
1000
R13OBJECT
1002
{
1005
1D59F
1002
}
  0
VERTEX
  5
1D69D
  8
0
  6
CONTINUOUS
 10
1.7652
 20
-1.8455
 30
3.9375
 70
    32
1001
ACAD
1000
R13OBJECT
1002
{
1005
1D59F
1002
}
  0
VERTEX
  5
1D69E
  8
0
  6
CONTINUOUS
 10
1.7652
 20
0.3985
 30
3.9375
 70
    32
1001
ACAD
1000
R13OBJECT
1002
{
1005
1D59F
1002
}
  0
SEQEND
  5
1D69F
  8
0
  6
CONTINUOUS
1001
ACAD
1000
R13OBJECT
1002
{
1005
1D59F
1002
}
  0
LINE
  5
1D5A0
  8
0
 10
0.0002
 20
0.3985
 30
3.9375
 11
0.0002
 21
0.3985
 31
2.9155
210
-1.0
220
0.0
230
0.0
  0
LINE
  5
1D5A2
  8
0
 10
0.0002
 20
0.3985
 30
3.9375
 11
0.0002
 21
-1.8455
 31
3.9375
210
-1.0
220
0.0
230
0.0
  0
LINE
  5
1D5A3
  8
0
 10
0.0002
 20
-1.8455
 30
3.9375
 11
0.0002
 21
-1.8455
 31
2.9155
210
-1.0
220
0.0
230
0.0
  0
3DFACE
  5
1D5A8
  8
0
 10
1.7652
 20
0.3985
 30
3.9375
 11
1.7652
 21
-1.8455
 31
3.9375
 12
0.0002
 22
-1.8455
 32
3.9375
 13
0.0002
 23
0.3985
 33
3.9375
  0
POLYLINE
  5
1D5A9
  8
0
 66
     1
 10
0.0
 20
0.0
 30
0.0
 70
    16
 71
     6
 72
     3
  0
VERTEX
  5
1D5AA
  8
0
 10
1.2507
 20
-0.439486
 30
4.1485
 70
    64
  0
VERTEX
  5
1D5AB
  8
0
 10
1.2507
 20
-0.439486
 30
3.9715
 70
    64
  0
VERTEX
  5
1D5AC
  8
0
 10
1.2507
 20
-0.439486
 30
3.9715
 70
    64
  0
VERTEX
  5
1D5AD
  8
0
 10
1.0812
 20
-0.439486
 30
4.1485
 70
    64
  0
VERTEX
  5
1D5AE
  8
0
 10
1.0812
 20
-0.439486
 30
3.9715
 70
    64
  0
VERTEX
  5
1D5AF
  8
0
 10
1.0812
 20
-0.439486
 30
3.9715
 70
    64
  0
VERTEX
  5
1D5B0
  8
0
 10
1.0812
 20
-0.086486
 30
4.1485
 70
    64
  0
VERTEX
  5
1D5B1
  8
0
 10
1.0812
 20
-0.086486
 30
3.9715
 70
    64
  0
VERTEX
  5
1D5B2
  8
0
 10
1.0812
 20
-0.439486
 30
3.9715
 70
    64
  0
VERTEX
  5
1D5B3
  8
0
 10
1.2507
 20
-0.086486
 30
4.1485
 70
    64
  0
VERTEX
  5
1D5B4
  8
0
 10
1.2507
 20
-0.086486
 30
3.9715
 70
    64
  0
VERTEX
  5
1D5B5
  8
0
 10
1.2507
 20
-0.439486
 30
3.9715
 70
    64
  0
VERTEX
  5
1D5B6
  8
0
 10
1.2507
 20
-0.086486
 30
4.1485
 70
    64
  0
VERTEX
  5
1D5B7
  8
0
 10
1.2507
 20
-0.086486
 30
4.1485
 70
    64
  0
VERTEX
  5
1D5B8
  8
0
 10
1.2507
 20
-0.439486
 30
4.1485
 70
    64
  0
VERTEX
  5
1D5B9
  8
0
 10
1.0812
 20
-0.086486
 30
4.1485
 70
    64
  0
VERTEX
  5
1D5BA
  8
0
 10
1.0812
 20
-0.086486
 30
4.1485
 70
    64
  0
VERTEX
  5
1D5BB
  8
0
 10
1.0812
 20
-0.439486
 30
4.1485
 70
    64
  0
SEQEND
  5
1D5BC
  8
0
  0
POLYLINE
  5
1D5BD
  8
0
 66
     1
 10
0.0
 20
0.0
 30
0.0
 70
    16
 71
     6
 72
     3
  0
VERTEX
  5
1D5BE
  8
0
 10
1.1227
 20
-0.894486
 30
4.1875
 70
    64
  0
VERTEX
  5
1D5BF
  8
0
 10
1.1227
 20
-0.894486
 30
3.9715
 70
    64
  0
VERTEX
  5
1D5C0
  8
0
 10
1.1227
 20
-0.894486
 30
3.9715
 70
    64
  0
VERTEX
  5
1D5C1
  8
0
 10
0.9877
 20
-0.894486
 30
4.1875
 70
    64
  0
VERTEX
  5
1D5C2
  8
0
 10
0.9877
 20
-0.894486
 30
3.9715
 70
    64
  0
VERTEX
  5
1D5C3
  8
0
 10
0.9877
 20
-0.894486
 30
3.9715
 70
    64
  0
VERTEX
  5
1D5C4
  8
0
 10
0.9877
 20
-0.549486
 30
4.1875
 70
    64
  0
VERTEX
  5
1D5C5
  8
0
 10
0.9877
 20
-0.549486
 30
3.9715
 70
    64
  0
VERTEX
  5
1D5C6
  8
0
 10
0.9877
 20
-0.894486
 30
3.9715
 70
    64
  0
VERTEX
  5
1D5C7
  8
0
 10
1.1227
 20
-0.549486
 30
4.1875
 70
    64
  0
VERTEX
  5
1D5C8
  8
0
 10
1.1227
 20
-0.549486
 30
3.9715
 70
    64
  0
VERTEX
  5
1D5C9
  8
0
 10
1.1227
 20
-0.894486
 30
3.9715
 70
    64
  0
VERTEX
  5
1D5CA
  8
0
 10
1.1227
 20
-0.549486
 30
4.1875
 70
    64
  0
VERTEX
  5
1D5CB
  8
0
 10
1.1227
 20
-0.549486
 30
4.1875
 70
    64
  0
VERTEX
  5
1D5CC
  8
0
 10
1.1227
 20
-0.894486
 30
4.1875
 70
    64
  0
VERTEX
  5
1D5CD
  8
0
 10
0.9877
 20
-0.549486
 30
4.1875
 70
    64
  0
VERTEX
  5
1D5CE
  8
0
 10
0.9877
 20
-0.549486
 30
4.1875
 70
    64
  0
VERTEX
  5
1D5CF
  8
0
 10
0.9877
 20
-0.894486
 30
4.1875
 70
    64
  0
SEQEND
  5
1D5D0
  8
0
  0
3DFACE
  5
1D5D1
  8
0
 10
1.7652
 20
0.3985
 30
3.9375
 11
1.7652
 21
0.3985
 31
3.9375
 12
0.0002
 22
0.3985
 32
3.9375
 13
0.0002
 23
0.3985
 33
3.9375
  0
CIRCLE
  5
1D5D2
  8
0
 10
0.238075
 20
0.154908
 30
3.9375
 40
0.138
  0
CIRCLE
  5
1D5D7
  8
0
 10
0.667825
 20
0.154908
 30
3.9375
 40
0.138
  0
CIRCLE
  5
1D5DE
  8
0
 10
1.097575
 20
0.154908
 30
3.9375
 40
0.138
  0
CIRCLE
  5
1D5E3
  8
0
 10
1.527325
 20
0.154908
 30
3.9375
 40
0.138
  0
POLYLINE
  5
1D5E6
  8
0
 66
     1
 10
0.0
 20
0.0
 30
0.0
 70
    16
 71
     6
 72
     3
  0
VERTEX
  5
1D5E7
  8
0
 10
1.2707
 20
-1.376486
 30
4.1375
 70
    64
  0
VERTEX
  5
1D5E8
  8
0
 10
1.2707
 20
-1.376486
 30
3.9375
 70
    64
  0
VERTEX
  5
1D5E9
  8
0
 10
1.2707
 20
-1.376486
 30
3.9375
 70
    64
  0
VERTEX
  5
1D5EA
  8
0
 10
0.4997
 20
-1.376486
 30
4.1375
 70
    64
  0
VERTEX
  5
1D5EB
  8
0
 10
0.4997
 20
-1.376486
 30
3.9375
 70
    64
  0
VERTEX
  5
1D5EC
  8
0
 10
0.4997
 20
-1.376486
 30
3.9375
 70
    64
  0
VERTEX
  5
1D5ED
  8
0
 10
0.4997
 20
-1.094486
 30
4.1375
 70
    64
  0
VERTEX
  5
1D5EE
  8
0
 10
0.4997
 20
-1.094486
 30
3.9375
 70
    64
  0
VERTEX
  5
1D5EF
  8
0
 10
0.4997
 20
-1.376486
 30
3.9375
 70
    64
  0
VERTEX
  5
1D5F0
  8
0
 10
1.2707
 20
-1.094486
 30
4.1375
 70
    64
  0
VERTEX
  5
1D5F1
  8
0
 10
1.2707
 20
-1.094486
 30
3.9375
 70
    64
  0
VERTEX
  5
1D5F2
  8
0
 10
1.2707
 20
-1.376486
 30
3.9375
 70
    64
  0
VERTEX
  5
1D5F3
  8
0
 10
1.2707
 20
-1.094486
 30
4.1375
 70
    64
  0
VERTEX
  5
1D5F4
  8
0
 10
1.2707
 20
-1.094486
 30
4.1375
 70
    64
  0
VERTEX
  5
1D5F5
  8
0
 10
1.2707
 20
-1.376486
 30
4.1375
 70
    64
  0
VERTEX
  5
1D5F6
  8
0
 10
0.4997
 20
-1.094486
 30
4.1375
 70
    64
  0
VERTEX
  5
1D5F7
  8
0
 10
0.4997
 20
-1.094486
 30
4.1375
 70
    64
  0
VERTEX
  5
1D5F8
  8
0
 10
0.4997
 20
-1.376486
 30
4.1375
 70
    64
  0
SEQEND
  5
1D5F9
  8
0
  0
POLYLINE
  5
1D5FA
  8
0
 66
     1
 10
0.0
 20
0.0
 30
0.0
 70
    16
 71
     6
 72
     3
  0
VERTEX
  5
1D5FB
  8
0
 10
1.2507
 20
-0.439486
 30
3.9715
 70
    64
  0
VERTEX
  5
1D5FC
  8
0
 10
1.2507
 20
-0.439486
 30
3.9375
 70
    64
  0
VERTEX
  5
1D5FD
  8
0
 10
1.2507
 20
-0.439486
 30
3.9375
 70
    64
  0
VERTEX
  5
1D5FE
  8
0
 10
0.5197
 20
-0.439486
 30
3.9715
 70
    64
  0
VERTEX
  5
1D5FF
  8
0
 10
0.5197
 20
-0.439486
 30
3.9375
 70
    64
  0
VERTEX
  5
1D600
  8
0
 10
0.5197
 20
-0.439486
 30
3.9375
 70
    64
  0
VERTEX
  5
1D601
  8
0
 10
0.5197
 20
-0.086486
 30
3.9715
 70
    64
  0
VERTEX
  5
1D602
  8
0
 10
0.5197
 20
-0.086486
 30
3.9375
 70
    64
  0
VERTEX
  5
1D603
  8
0
 10
0.5197
 20
-0.439486
 30
3.9375
 70
    64
  0
VERTEX
  5
1D604
  8
0
 10
1.2507
 20
-0.086486
 30
3.9715
 70
    64
  0
VERTEX
  5
1D605
  8
0
 10
1.2507
 20
-0.086486
 30
3.9375
 70
    64
  0
VERTEX
  5
1D606
  8
0
 10
1.2507
 20
-0.439486
 30
3.9375
 70
    64
  0
VERTEX
  5
1D607
  8
0
 10
1.2507
 20
-0.086486
 30
3.9715
 70
    64
  0
VERTEX
  5
1D608
  8
0
 10
1.2507
 20
-0.086486
 30
3.9715
 70
    64
  0
VERTEX
  5
1D609
  8
0
 10
1.2507
 20
-0.439486
 30
3.9715
 70
    64
  0
VERTEX
  5
1D60A
  8
0
 10
0.5197
 20
-0.086486
 30
3.9715
 70
    64
  0
VERTEX
  5
1D60B
  8
0
 10
0.5197
 20
-0.086486
 30
3.9715
 70
    64
  0
VERTEX
  5
1D60C
  8
0
 10
0.5197
 20
-0.439486
 30
3.9715
 70
    64
  0
SEQEND
  5
1D60D
  8
0
  0
POLYLINE
  5
1D60E
  8
0
 66
     1
 10
0.0
 20
0.0
 30
0.0
 70
    16
 71
     6
 72
     3
  0
VERTEX
  5
1D60F
  8
0
 10
0.6892
 20
-0.439486
 30
4.1485
 70
    64
  0
VERTEX
  5
1D610
  8
0
 10
0.6892
 20
-0.439486
 30
3.9715
 70
    64
  0
VERTEX
  5
1D611
  8
0
 10
0.6892
 20
-0.439486
 30
3.9715
 70
    64
  0
VERTEX
  5
1D612
  8
0
 10
0.5197
 20
-0.439486
 30
4.1485
 70
    64
  0
VERTEX
  5
1D613
  8
0
 10
0.5197
 20
-0.439486
 30
3.9715
 70
    64
  0
VERTEX
  5
1D614
  8
0
 10
0.5197
 20
-0.439486
 30
3.9715
 70
    64
  0
VERTEX
  5
1D615
  8
0
 10
0.5197
 20
-0.086486
 30
4.1485
 70
    64
  0
VERTEX
  5
1D616
  8
0
 10
0.5197
 20
-0.086486
 30
3.9715
 70
    64
  0
VERTEX
  5
1D617
  8
0
 10
0.5197
 20
-0.439486
 30
3.9715
 70
    64
  0
VERTEX
  5
1D618
  8
0
 10
0.6892
 20
-0.086486
 30
4.1485
 70
    64
  0
VERTEX
  5
1D619
  8
0
 10
0.6892
 20
-0.086486
 30
3.9715
 70
    64
  0
VERTEX
  5
1D61A
  8
0
 10
0.6892
 20
-0.439486
 30
3.9715
 70
    64
  0
VERTEX
  5
1D61B
  8
0
 10
0.6892
 20
-0.086486
 30
4.1485
 70
    64
  0
VERTEX
  5
1D61C
  8
0
 10
0.6892
 20
-0.086486
 30
4.1485
 70
    64
  0
VERTEX
  5
1D61D
  8
0
 10
0.6892
 20
-0.439486
 30
4.1485
 70
    64
  0
VERTEX
  5
1D61E
  8
0
 10
0.5197
 20
-0.086486
 30
4.1485
 70
    64
  0
VERTEX
  5
1D61F
  8
0
 10
0.5197
 20
-0.086486
 30
4.1485
 70
    64
  0
VERTEX
  5
1D620
  8
0
 10
0.5197
 20
-0.439486
 30
4.1485
 70
    64
  0
SEQEND
  5
1D621
  8
0
  0
POLYLINE
  5
1D622
  8
0
 66
     1
 10
0.0
 20
0.0
 30
0.0
 70
    16
 71
     6
 72
     3
  0
VERTEX
  5
1D623
  8
0
 10
0.7827
 20
-0.894486
 30
4.1875
 70
    64
  0
VERTEX
  5
1D624
  8
0
 10
0.7827
 20
-0.894486
 30
3.9715
 70
    64
  0
VERTEX
  5
1D625
  8
0
 10
0.7827
 20
-0.894486
 30
3.9715
 70
    64
  0
VERTEX
  5
1D626
  8
0
 10
0.6477
 20
-0.894486
 30
4.1875
 70
    64
  0
VERTEX
  5
1D627
  8
0
 10
0.6477
 20
-0.894486
 30
3.9715
 70
    64
  0
VERTEX
  5
1D628
  8
0
 10
0.6477
 20
-0.894486
 30
3.9715
 70
    64
  0
VERTEX
  5
1D629
  8
0
 10
0.6477
 20
-0.549486
 30
4.1875
 70
    64
  0
VERTEX
  5
1D62A
  8
0
 10
0.6477
 20
-0.549486
 30
3.9715
 70
    64
  0
VERTEX
  5
1D62B
  8
0
 10
0.6477
 20
-0.894486
 30
3.9715
 70
    64
  0
VERTEX
  5
1D62C
  8
0
 10
0.7827
 20
-0.549486
 30
4.1875
 70
    64
  0
VERTEX
  5
1D62D
  8
0
 10
0.7827
 20
-0.549486
 30
3.9715
 70
    64
  0
VERTEX
  5
1D62E
  8
0
 10
0.7827
 20
-0.894486
 30
3.9715
 70
    64
  0
VERTEX
  5
1D62F
  8
0
 10
0.7827
 20
-0.549486
 30
4.1875
 70
    64
  0
VERTEX
  5
1D630
  8
0
 10
0.7827
 20
-0.549486
 30
4.1875
 70
    64
  0
VERTEX
  5
1D631
  8
0
 10
0.7827
 20
-0.894486
 30
4.1875
 70
    64
  0
VERTEX
  5
1D632
  8
0
 10
0.6477
 20
-0.549486
 30
4.1875
 70
    64
  0
VERTEX
  5
1D633
  8
0
 10
0.6477
 20
-0.549486
 30
4.1875
 70
    64
  0
VERTEX
  5
1D634
  8
0
 10
0.6477
 20
-0.894486
 30
4.1875
 70
    64
  0
SEQEND
  5
1D635
  8
0
  0
POLYLINE
  5
1D63E
  8
0
 66
     1
 10
0.0
 20
0.0
 30
0.0
 70
    16
 71
     6
 72
     3
  0
VERTEX
  5
1D63F
  8
0
 10
1.1227
 20
-0.894486
 30
3.9715
 70
    64
  0
VERTEX
  5
1D640
  8
0
 10
1.1227
 20
-0.894486
 30
3.9375
 70
    64
  0
VERTEX
  5
1D641
  8
0
 10
1.1227
 20
-0.894486
 30
3.9375
 70
    64
  0
VERTEX
  5
1D642
  8
0
 10
0.6477
 20
-0.894486
 30
3.9715
 70
    64
  0
VERTEX
  5
1D643
  8
0
 10
0.6477
 20
-0.894486
 30
3.9375
 70
    64
  0
VERTEX
  5
1D644
  8
0
 10
0.6477
 20
-0.894486
 30
3.9375
 70
    64
  0
VERTEX
  5
1D645
  8
0
 10
0.6477
 20
-0.549486
 30
3.9715
 70
    64
  0
VERTEX
  5
1D646
  8
0
 10
0.6477
 20
-0.549486
 30
3.9375
 70
    64
  0
VERTEX
  5
1D647
  8
0
 10
0.6477
 20
-0.894486
 30
3.9375
 70
    64
  0
VERTEX
  5
1D648
  8
0
 10
1.1227
 20
-0.549486
 30
3.9715
 70
    64
  0
VERTEX
  5
1D649
  8
0
 10
1.1227
 20
-0.549486
 30
3.9375
 70
    64
  0
VERTEX
  5
1D64A
  8
0
 10
1.1227
 20
-0.894486
 30
3.9375
 70
    64
  0
VERTEX
  5
1D64B
  8
0
 10
1.1227
 20
-0.549486
 30
3.9715
 70
    64
  0
VERTEX
  5
1D64C
  8
0
 10
1.1227
 20
-0.549486
 30
3.9715
 70
    64
  0
VERTEX
  5
1D64D
  8
0
 10
1.1227
 20
-0.894486
 30
3.9715
 70
    64
  0
VERTEX
  5
1D64E
  8
0
 10
0.6477
 20
-0.549486
 30
3.9715
 70
    64
  0
VERTEX
  5
1D64F
  8
0
 10
0.6477
 20
-0.549486
 30
3.9715
 70
    64
  0
VERTEX
  5
1D650
  8
0
 10
0.6477
 20
-0.894486
 30
3.9715
 70
    64
  0
SEQEND
  5
1D651
  8
0
  0
CIRCLE
  5
1D654
  8
0
 10
0.238075
 20
-1.58788
 30
3.9375
 40
0.138
  0
POLYLINE
  5
1D65D
  8
0
 66
     1
 10
0.0
 20
0.0
 30
2.9155
  0
VERTEX
  5
B2087
  8
0
 10
0.0002
 20
-1.8455
 30
2.9155
  0
VERTEX
  5
B2088
  8
0
 10
0.0002
 20
0.3985
 30
2.9155
  0
SEQEND
  5
B2089
  8
0
  0
POLYLINE
  5
1D6B4
  8
0
 66
     1
 10
0.0
 20
0.0
 30
0.0
 70
    16
 71
     6
 72
     3
  0
VERTEX
  5
1D6B5
  8
0
 10
1.7652
 20
-1.8455
 30
3.9375
 70
    64
  0
VERTEX
  5
1D6B6
  8
0
 10
1.7652
 20
-1.8455
 30
2.9155
 70
    64
  0
VERTEX
  5
1D6B7
  8
0
 10
1.7652
 20
-1.8455
 30
2.9155
 70
    64
  0
VERTEX
  5
1D6B8
  8
0
 10
0.0002
 20
-1.8455
 30
3.9375
 70
    64
  0
VERTEX
  5
1D6B9
  8
0
 10
0.0002
 20
-1.8455
 30
2.9155
 70
    64
  0
VERTEX
  5
1D6BA
  8
0
 10
0.0002
 20
-1.8455
 30
2.9155
 70
    64
  0
VERTEX
  5
1D6BB
  8
0
 10
0.0002
 20
0.3985
 30
3.9375
 70
    64
  0
VERTEX
  5
1D6BC
  8
0
 10
0.0002
 20
0.3985
 30
2.9155
 70
    64
  0
VERTEX
  5
1D6BD
  8
0
 10
0.0002
 20
-1.8455
 30
2.9155
 70
    64
  0
VERTEX
  5
1D6BE
  8
0
 10
1.7652
 20
0.3985
 30
3.9375
 70
    64
  0
VERTEX
  5
1D6BF
  8
0
 10
1.7652
 20
0.3985
 30
2.9155
 70
    64
  0
VERTEX
  5
1D6C0
  8
0
 10
1.7652
 20
-1.8455
 30
2.9155
 70
    64
  0
VERTEX
  5
1D6C1
  8
0
 10
1.7652
 20
0.3985
 30
3.9375
 70
    64
  0
VERTEX
  5
1D6C2
  8
0
 10
1.7652
 20
0.3985
 30
3.9375
 70
    64
  0
VERTEX
  5
1D6C3
  8
0
 10
1.7652
 20
-1.8455
 30
3.9375
 70
    64
  0
VERTEX
  5
1D6C4
  8
0
 10
0.0002
 20
0.3985
 30
3.9375
 70
    64
  0
VERTEX
  5
1D6C5
  8
0
 10
0.0002
 20
0.3985
 30
3.9375
 70
    64
  0
VERTEX
  5
1D6C6
  8
0
 10
0.0002
 20
-1.8455
 30
3.9375
 70
    64
  0
SEQEND
  5
1D6C7
  8
0
  0
POLYLINE
  5
1D6F1
  8
0
 66
     1
 10
0.0
 20
0.0
 30
0.0
 70
     8
  0
VERTEX
  5
1D6F2
  8
0
 10
1.76541
 20
-0.6405
 30
2.4475
 70
    32
  0
VERTEX
  5
1D6F3
  8
0
 10
1.76541
 20
-0.6405
 30
3.0205
 70
    32
  0
VERTEX
  5
1D6F4
  8
0
 10
1.76541
 20
-0.8065
 30
3.0205
 70
    32
  0
VERTEX
  5
1D6F5
  8
0
 10
1.76541
 20
-0.8065
 30
2.4475
 70
    32
  0
VERTEX
  5
1D6F6
  8
0
 10
1.76541
 20
-0.6405
 30
2.4475
 70
    32
  0
SEQEND
  5
1D6F7
  8
0
  0
LINE
  5
1D6F8
  8
0
 10
1.76541
 20
-0.8065
 30
2.734
 11
1.76541
 21
-0.6405
 31
2.734
  0
LINE
  5
1D6FA
  8
0
 10
1.76541
 20
-0.8065
 30
2.924
 11
1.76541
 21
-0.6405
 31
2.924
  0
POLYLINE
  5
1D79B
  8
0
 66
     1
 10
0.0
 20
0.0
 30
0.0
 70
    16
 71
     6
 72
     3
  0
VERTEX
  5
1D79C
  8
0
 10
1.7652
 20
-1.9685
 30
2.9155
 70
    64
  0
VERTEX
  5
1D79D
  8
0
 10
1.7652
 20
-1.9685
 30
1.318
 70
    64
  0
VERTEX
  5
1D79E
  8
0
 10
1.7652
 20
-1.9685
 30
1.318
 70
    64
  0
VERTEX
  5
1D79F
  8
0
 10
0.0002
 20
-1.9685
 30
2.9155
 70
    64
  0
VERTEX
  5
1D7A0
  8
0
 10
0.0002
 20
-1.9685
 30
1.318
 70
    64
  0
VERTEX
  5
1D7A1
  8
0
 10
0.0002
 20
-1.9685
 30
1.318
 70
    64
  0
VERTEX
  5
1D7A2
  8
0
 10
0.0002
 20
0.5215
 30
2.9155
 70
    64
  0
VERTEX
  5
1D7A3
  8
0
 10
0.0002
 20
0.5215
 30
1.318
 70
    64
  0
VERTEX
  5
1D7A4
  8
0
 10
0.0002
 20
-1.9685
 30
1.318
 70
    64
  0
VERTEX
  5
1D7A5
  8
0
 10
1.7652
 20
0.5215
 30
2.9155
 70
    64
  0
VERTEX
  5
1D7A6
  8
0
 10
1.7652
 20
0.5215
 30
1.318
 70
    64
  0
VERTEX
  5
1D7A7
  8
0
 10
1.7652
 20
-1.9685
 30
1.318
 70
    64
  0
VERTEX
  5
1D7A8
  8
0
 10
1.7652
 20
0.5215
 30
2.9155
 70
    64
  0
VERTEX
  5
1D7A9
  8
0
 10
1.7652
 20
0.5215
 30
2.9155
 70
    64
  0
VERTEX
  5
1D7AA
  8
0
 10
1.7652
 20
-1.9685
 30
2.9155
 70
    64
  0
VERTEX
  5
1D7AB
  8
0
 10
0.0002
 20
0.5215
 30
2.9155
 70
    64
  0
VERTEX
  5
1D7AC
  8
0
 10
0.0002
 20
0.5215
 30
2.9155
 70
    64
  0
VERTEX
  5
1D7AD
  8
0
 10
0.0002
 20
-1.9685
 30
2.9155
 70
    64
  0
SEQEND
  5
1D7AE
  8
0
  0
POLYLINE
  5
1D7D5
  8
0
 66
     1
 10
0.0
 20
0.0
 30
0.0
 70
    16
 71
     6
 72
     3
  0
VERTEX
  5
1D7D6
  8
0
 10
1.7652
 20
-2.1655
 30
1.0425
 70
    64
  0
VERTEX
  5
1D7D7
  8
0
 10
1.7652
 20
-2.1655
 30
0.8555
 70
    64
  0
VERTEX
  5
1D7D8
  8
0
 10
1.7652
 20
-2.1655
 30
0.8555
 70
    64
  0
VERTEX
  5
1D7D9
  8
0
 10
0.8852
 20
-2.1655
 30
1.0425
 70
    64
  0
VERTEX
  5
1D7DA
  8
0
 10
0.8852
 20
-2.1655
 30
0.8555
 70
    64
  0
VERTEX
  5
1D7DB
  8
0
 10
0.8852
 20
-2.1655
 30
0.8555
 70
    64
  0
VERTEX
  5
1D7DC
  8
0
 10
0.8852
 20
-1.9685
 30
1.0425
 70
    64
  0
VERTEX
  5
1D7DD
  8
0
 10
0.8852
 20
-1.9685
 30
0.8555
 70
    64
  0
VERTEX
  5
1D7DE
  8
0
 10
0.8852
 20
-2.1655
 30
0.8555
 70
    64
  0
VERTEX
  5
1D7DF
  8
0
 10
1.7652
 20
-1.9685
 30
1.0425
 70
    64
  0
VERTEX
  5
1D7E0
  8
0
 10
1.7652
 20
-1.9685
 30
0.8555
 70
    64
  0
VERTEX
  5
1D7E1
  8
0
 10
1.7652
 20
-2.1655
 30
0.8555
 70
    64
  0
VERTEX
  5
1D7E2
  8
0
 10
1.7652
 20
-1.9685
 30
1.0425
 70
    64
  0
VERTEX
  5
1D7E3
  8
0
 10
1.7652
 20
-1.9685
 30
1.0425
 70
    64
  0
VERTEX
  5
1D7E4
  8
0
 10
1.7652
 20
-2.1655
 30
1.0425
 70
    64
  0
VERTEX
  5
1D7E5
  8
0
 10
0.8852
 20
-1.9685
 30
1.0425
 70
    64
  0
VERTEX
  5
1D7E6
  8
0
 10
0.8852
 20
-1.9685
 30
1.0425
 70
    64
  0
VERTEX
  5
1D7E7
  8
0
 10
0.8852
 20
-2.1655
 30
1.0425
 70
    64
  0
SEQEND
  5
1D7E8
  8
0
  0
POLYLINE
  5
1D7E9
  8
0
 66
     1
 10
0.0
 20
0.0
 30
0.0
 70
    16
 71
     6
 72
     3
  0
VERTEX
  5
1D7EA
  8
0
 10
0.0052
 20
0.7185
 30
1.0425
 70
    64
  0
VERTEX
  5
1D7EB
  8
0
 10
0.0052
 20
0.7185
 30
0.8555
 70
    64
  0
VERTEX
  5
1D7EC
  8
0
 10
0.0052
 20
0.7185
 30
0.8555
 70
    64
  0
VERTEX
  5
1D7ED
  8
0
 10
0.8852
 20
0.7185
 30
1.0425
 70
    64
  0
VERTEX
  5
1D7EE
  8
0
 10
0.8852
 20
0.7185
 30
0.8555
 70
    64
  0
VERTEX
  5
1D7EF
  8
0
 10
0.8852
 20
0.7185
 30
0.8555
 70
    64
  0
VERTEX
  5
1D7F0
  8
0
 10
0.8852
 20
0.5215
 30
1.0425
 70
    64
  0
VERTEX
  5
1D7F1
  8
0
 10
0.8852
 20
0.5215
 30
0.8555
 70
    64
  0
VERTEX
  5
1D7F2
  8
0
 10
0.8852
 20
0.7185
 30
0.8555
 70
    64
  0
VERTEX
  5
1D7F3
  8
0
 10
0.0052
 20
0.5215
 30
1.0425
 70
    64
  0
VERTEX
  5
1D7F4
  8
0
 10
0.0052
 20
0.5215
 30
0.8555
 70
    64
  0
VERTEX
  5
1D7F5
  8
0
 10
0.0052
 20
0.7185
 30
0.8555
 70
    64
  0
VERTEX
  5
1D7F6
  8
0
 10
0.0052
 20
0.5215
 30
1.0425
 70
    64
  0
VERTEX
  5
1D7F7
  8
0
 10
0.0052
 20
0.5215
 30
1.0425
 70
    64
  0
VERTEX
  5
1D7F8
  8
0
 10
0.0052
 20
0.7185
 30
1.0425
 70
    64
  0
VERTEX
  5
1D7F9
  8
0
 10
0.8852
 20
0.5215
 30
1.0425
 70
    64
  0
VERTEX
  5
1D7FA
  8
0
 10
0.8852
 20
0.5215
 30
1.0425
 70
    64
  0
VERTEX
  5
1D7FB
  8
0
 10
0.8852
 20
0.7185
 30
1.0425
 70
    64
  0
SEQEND
  5
1D7FC
  8
0
  0
POLYLINE
  5
1D7FD
  8
0
 66
     1
 10
0.0
 20
0.0
 30
0.0
 70
     8
  0
VERTEX
  5
1D7FE
  8
0
 10
0.277867
 20
0.5215
 30
0.8555
 70
    32
  0
VERTEX
  5
1D7FF
  8
0
 10
0.277867
 20
0.6565
 30
0.8555
 70
    32
  0
VERTEX
  5
1D800
  8
0
 10
0.0672
 20
0.6565
 30
0.8555
 70
    32
  0
VERTEX
  5
1D801
  8
0
 10
0.0672
 20
0.5215
 30
0.8555
 70
    32
  0
SEQEND
  5
1D802
  8
0
  0
LINE
  5
1D803
  8
0
 10
0.0672
 20
0.5215
 30
0.8555
 11
0.277867
 21
0.5215
 31
0.8555
  0
POLYLINE
  5
1D804
  8
0
 66
     1
 10
0.0
 20
0.0
 30
0.0
 70
     8
  0
VERTEX
  5
1D805
  8
0
 10
0.277867
 20
0.5215
 30
1.0425
 70
    32
  0
VERTEX
  5
1D806
  8
0
 10
0.277867
 20
0.6565
 30
1.0425
 70
    32
  0
VERTEX
  5
1D807
  8
0
 10
0.0672
 20
0.6565
 30
1.0425
 70
    32
  0
VERTEX
  5
1D808
  8
0
 10
0.0672
 20
0.5215
 30
1.0425
 70
    32
  0
SEQEND
  5
1D809
  8
0
  0
POLYLINE
  5
1D80A
  8
0
 66
     1
 10
0.0
 20
0.0
 30
0.0
 70
     8
  0
VERTEX
  5
1D80B
  8
0
 10
0.550533
 20
0.5215
 30
1.0425
 70
    32
  0
VERTEX
  5
1D80C
  8
0
 10
0.550533
 20
0.6565
 30
1.0425
 70
    32
  0
VERTEX
  5
1D80D
  8
0
 10
0.339867
 20
0.6565
 30
1.0425
 70
    32
  0
VERTEX
  5
1D80E
  8
0
 10
0.339867
 20
0.5215
 30
1.0425
 70
    32
  0
SEQEND
  5
1D80F
  8
0
  0
POLYLINE
  5
1D810
  8
0
 66
     1
 10
0.0
 20
0.0
 30
0.0
 70
     8
  0
VERTEX
  5
1D811
  8
0
 10
0.550533
 20
0.5215
 30
0.8555
 70
    32
  0
VERTEX
  5
1D812
  8
0
 10
0.550533
 20
0.6565
 30
0.8555
 70
    32
  0
VERTEX
  5
1D813
  8
0
 10
0.339867
 20
0.6565
 30
0.8555
 70
    32
  0
VERTEX
  5
1D814
  8
0
 10
0.339867
 20
0.5215
 30
0.8555
 70
    32
  0
SEQEND
  5
1D815
  8
0
  0
LINE
  5
1D816
  8
0
 10
0.339867
 20
0.5215
 30
0.8555
 11
0.550533
 21
0.5215
 31
0.8555
  0
POLYLINE
  5
1D817
  8
0
 66
     1
 10
0.0
 20
0.0
 30
0.0
 70
     8
  0
VERTEX
  5
1D818
  8
0
 10
0.8232
 20
0.5215
 30
0.8555
 70
    32
  0
VERTEX
  5
1D819
  8
0
 10
0.8232
 20
0.6565
 30
0.8555
 70
    32
  0
VERTEX
  5
1D81A
  8
0
 10
0.612533
 20
0.6565
 30
0.8555
 70
    32
  0
VERTEX
  5
1D81B
  8
0
 10
0.612533
 20
0.5215
 30
0.8555
 70
    32
  0
SEQEND
  5
1D81C
  8
0
  0
LINE
  5
1D81D
  8
0
 10
0.612533
 20
0.5215
 30
0.8555
 11
0.8232
 21
0.5215
 31
0.8555
  0
POLYLINE
  5
1D81E
  8
0
 66
     1
 10
0.0
 20
0.0
 30
0.0
 70
     8
  0
VERTEX
  5
1D81F
  8
0
 10
0.8232
 20
0.5215
 30
1.0425
 70
    32
  0
VERTEX
  5
1D820
  8
0
 10
0.8232
 20
0.6565
 30
1.0425
 70
    32
  0
VERTEX
  5
1D821
  8
0
 10
0.612533
 20
0.6565
 30
1.0425
 70
    32
  0
VERTEX
  5
1D822
  8
0
 10
0.612533
 20
0.5215
 30
1.0425
 70
    32
  0
SEQEND
  5
1D823
  8
0
  0
LINE
  5
3B592
  8
0
 10
0.7047
 20
0.9585
 30
2.4945
 11
0.3877
 21
0.9585
 31
2.4945
  0
LINE
  5
3B593
  8
0
 10
0.3877
 20
0.9585
 30
2.6945
 11
0.3877
 21
0.9585
 31
2.4945
  0
LINE
  5
3B594
  8
0
 10
0.7047
 20
0.9585
 30
2.6945
 11
0.3877
 21
0.9585
 31
2.6945
  0
LINE
  5
3B595
  8
0
 10
0.7047
 20
0.9585
 30
2.6945
 11
0.7047
 21
0.9585
 31
2.4945
  0
LINE
  5
3B597
  8
0
 10
1.0657
 20
0.9585
 30
2.6945
 11
1.0657
 21
0.9585
 31
2.4945
  0
LINE
  5
3B598
  8
0
 10
1.0657
 20
0.9585
 30
2.6945
 11
1.3827
 21
0.9585
 31
2.6945
  0
LINE
  5
3B599
  8
0
 10
1.0657
 20
0.9585
 30
2.4945
 11
1.3827
 21
0.9585
 31
2.4945
  0
LINE
  5
3B59A
  8
0
 10
1.3827
 20
0.9585
 30
2.6945
 11
1.3827
 21
0.9585
 31
2.4945
  0
POINT
  5
3B59B
  8
DIMS-MTG-HOLES
 10
0.1912
 20
-1.9345
 30
0.0
  0
POINT
  5
3B59C
  8
DIMS-MTG-HOLES
 10
1.5712
 20
0.4255
 30
0.0
  0
INSERT
  5
B1C74
  8
0
 62
     1
  2
AVE_RENDER
 10
-4.009819
 20
-2.7341
 30
0.0
1001
AVE_RENDER
1002
{
1070
     2
1000
Pref
1070
    30
1070
    20
1070
     0
1070
     0
1000

1070
    10
1070
     0
1070
    30
1040
1.0
1070
     1
1040
0.3
1040
0.4
1040
0.76
1040
1.538462
1010
-1.0
1020
-1.0
1030
-1.0
1040
0.3
1070
    49
1002
}
  0
INSERT
  5
B1C75
  8
0
 62
     3
  2
AVE_RENDER
 10
-4.009819
 20
-2.7341
 30
0.0
1001
AVE_RENDER
1002
{
1070
     0
1000
Full Opt
1070
     0
1070
     1
1070
     1
1070
     1
1070
     0
1070
     0
1070
     0
1070
     1
1070
     1
1040
0.0001
1040
0.0001
1002
}
  0
INSERT
  5
B1C76
  8
0
 62
     4
  2
AVE_RENDER
 10
-4.009819
 20
-2.7341
 30
0.0
1001
AVE_RENDER
1002
{
1070
     0
1000
Quick Opt
1070
     0
1070
     1
1070
     1
1070
     1
1070
     0
1070
     0
1070
     1
1002
}
  0
TEXT
  5
B1F50
  8
0
 10
0.072617
 20
0.301596
 30
3.9375
 40
0.083465
  1
13
  0
TEXT
  5
B1F51
  8
0
 10
0.286165
 20
0.300754
 30
3.9375
 40
0.083465
  1
NO
  0
TEXT
  5
B1F52
  8
0
 10
0.523368
 20
0.299912
 30
3.9375
 40
0.083465
  1
21
  0
TEXT
  5
B1F53
  8
0
 10
0.712789
 20
0.301324
 30
3.9375
 40
0.083465
  1
NC
  0
TEXT
  5
B1F54
  8
0
 10
0.964902
 20
0.302735
 30
3.9375
 40
0.083465
  1
31
  0
TEXT
  5
B1F55
  8
0
 10
1.134405
 20
0.304736
 30
3.9375
 40
0.083465
  1
NC
  0
TEXT
  5
B1F56
  8
0
 10
1.370108
 20
0.302735
 30
3.9375
 40
0.083465
  1
43
  0
TEXT
  5
B1F57
  8
0
 10
1.599316
 20
0.304736
 30
3.9375
 40
0.083465
  1
NO
  0
TEXT
  5
B1F58
  8
0
 10
1.598494
 20
-1.819002
 30
3.9375
 40
0.083465
  1
NO
  0
TEXT
  5
B1F59
  8
0
 10
1.398522
 20
-1.820413
 30
3.9375
 40
0.083465
  1
44
  0
TEXT
  5
B1F5A
  8
0
 10
1.139556
 20
-1.820413
 30
3.9375
 40
0.083465
  1
NC
  0
TEXT
  5
B1F5B
  8
0
 10
0.93266
 20
-1.819002
 30
3.9375
 40
0.083465
  1
32
  0
TEXT
  5
B1F5C
  8
0
 10
0.717619
 20
-1.820413
 30
3.9375
 40
0.083465
  1
NC
  0
TEXT
  5
B1F5D
  8
0
 10
0.528707
 20
-1.819571
 30
3.9375
 40
0.083465
  1
22
  0
TEXT
  5
B1F5E
  8
0
 10
0.284827
 20
-1.817525
 30
3.9375
 40
0.083465
  1
NO
  0
TEXT
  5
B1F5F
  8
0
 10
0.080559
 20
-1.821552
 30
3.9375
 40
0.083465
  1
14
  0
POLYLINE
  5
B1F9F
  8
0
 66
     1
 10
0.0
 20
0.0
 30
3.9375
  0
VERTEX
  5
B208A
  8
0
 10
0.218075
 20
0.291451
 30
3.9375
  0
VERTEX
  5
B208B
  8
0
 10
0.218075
 20
0.174908
 30
3.9375
  0
VERTEX
  5
B208C
  8
0
 10
0.158075
 20
0.174908
 30
3.9375
  0
VERTEX
  5
B208D
  8
0
 10
0.158075
 20
0.134908
 30
3.9375
  0
VERTEX
  5
B208E
  8
0
 10
0.218075
 20
0.134908
 30
3.9375
  0
VERTEX
  5
B208F
  8
0
 10
0.218075
 20
0.018365
 30
3.9375
  0
SEQEND
  5
B2090
  8
0
  0
POLYLINE
  5
B1FA0
  8
0
 66
     1
 10
0.0
 20
0.0
 30
3.9375
  0
VERTEX
  5
B2091
  8
0
 10
0.258075
 20
0.291451
 30
3.9375
  0
VERTEX
  5
B2092
  8
0
 10
0.258075
 20
0.174908
 30
3.9375
  0
VERTEX
  5
B2093
  8
0
 10
0.318075
 20
0.174908
 30
3.9375
  0
VERTEX
  5
B2094
  8
0
 10
0.318075
 20
0.134908
 30
3.9375
  0
VERTEX
  5
B2095
  8
0
 10
0.258075
 20
0.134908
 30
3.9375
  0
VERTEX
  5
B2096
  8
0
 10
0.258075
 20
0.018365
 30
3.9375
  0
SEQEND
  5
B2097
  8
0
  0
POLYLINE
  5
B1FA1
  8
0
 66
     1
 10
0.0
 20
0.0
 30
3.9375
  0
VERTEX
  5
B2098
  8
0
 10
0.647825
 20
0.291451
 30
3.9375
  0
VERTEX
  5
B2099
  8
0
 10
0.647825
 20
0.174908
 30
3.9375
  0
VERTEX
  5
B209A
  8
0
 10
0.587825
 20
0.174908
 30
3.9375
  0
VERTEX
  5
B209B
  8
0
 10
0.587825
 20
0.134908
 30
3.9375
  0
VERTEX
  5
B209C
  8
0
 10
0.647825
 20
0.134908
 30
3.9375
  0
VERTEX
  5
B209D
  8
0
 10
0.647825
 20
0.018365
 30
3.9375
  0
SEQEND
  5
B209E
  8
0
  0
POLYLINE
  5
B1FA2
  8
0
 66
     1
 10
0.0
 20
0.0
 30
3.9375
  0
VERTEX
  5
B209F
  8
0
 10
0.687825
 20
0.291451
 30
3.9375
  0
VERTEX
  5
B20A0
  8
0
 10
0.687825
 20
0.174908
 30
3.9375
  0
VERTEX
  5
B20A1
  8
0
 10
0.747825
 20
0.174908
 30
3.9375
  0
VERTEX
  5
B20A2
  8
0
 10
0.747825
 20
0.134908
 30
3.9375
  0
VERTEX
  5
B20A3
  8
0
 10
0.687825
 20
0.134908
 30
3.9375
  0
VERTEX
  5
B20A4
  8
0
 10
0.687825
 20
0.018365
 30
3.9375
  0
SEQEND
  5
B20A5
  8
0
  0
POLYLINE
  5
B1FA3
  8
0
 66
     1
 10
0.0
 20
0.0
 30
3.9375
  0
VERTEX
  5
B20A6
  8
0
 10
1.077575
 20
0.291451
 30
3.9375
  0
VERTEX
  5
B20A7
  8
0
 10
1.077575
 20
0.174908
 30
3.9375
  0
VERTEX
  5
B20A8
  8
0
 10
1.017575
 20
0.174908
 30
3.9375
  0
VERTEX
  5
B20A9
  8
0
 10
1.017575
 20
0.134908
 30
3.9375
  0
VERTEX
  5
B20AA
  8
0
 10
1.077575
 20
0.134908
 30
3.9375
  0
VERTEX
  5
B20AB
  8
0
 10
1.077575
 20
0.018365
 30
3.9375
  0
SEQEND
  5
B20AC
  8
0
  0
POLYLINE
  5
B1FA4
  8
0
 66
     1
 10
0.0
 20
0.0
 30
3.9375
  0
VERTEX
  5
B20AD
  8
0
 10
1.117575
 20
0.291451
 30
3.9375
  0
VERTEX
  5
B20AE
  8
0
 10
1.117575
 20
0.174908
 30
3.9375
  0
VERTEX
  5
B20AF
  8
0
 10
1.177575
 20
0.174908
 30
3.9375
  0
VERTEX
  5
B20B0
  8
0
 10
1.177575
 20
0.134908
 30
3.9375
  0
VERTEX
  5
B20B1
  8
0
 10
1.117575
 20
0.134908
 30
3.9375
  0
VERTEX
  5
B20B2
  8
0
 10
1.117575
 20
0.018365
 30
3.9375
  0
SEQEND
  5
B20B3
  8
0
  0
POLYLINE
  5
B1FA5
  8
0
 66
     1
 10
0.0
 20
0.0
 30
3.9375
  0
VERTEX
  5
B20B4
  8
0
 10
1.547325
 20
0.291451
 30
3.9375
  0
VERTEX
  5
B20B5
  8
0
 10
1.547325
 20
0.174908
 30
3.9375
  0
VERTEX
  5
B20B6
  8
0
 10
1.607325
 20
0.174908
 30
3.9375
  0
VERTEX
  5
B20B7
  8
0
 10
1.607325
 20
0.134908
 30
3.9375
  0
VERTEX
  5
B20B8
  8
0
 10
1.547325
 20
0.134908
 30
3.9375
  0
VERTEX
  5
B20B9
  8
0
 10
1.547325
 20
0.018365
 30
3.9375
  0
SEQEND
  5
B20BA
  8
0
  0
POLYLINE
  5
B1FA6
  8
0
 66
     1
 10
0.0
 20
0.0
 30
3.9375
  0
VERTEX
  5
B20BB
  8
0
 10
1.507325
 20
0.291451
 30
3.9375
  0
VERTEX
  5
B20BC
  8
0
 10
1.507325
 20
0.174908
 30
3.9375
  0
VERTEX
  5
B20BD
  8
0
 10
1.447325
 20
0.174908
 30
3.9375
  0
VERTEX
  5
B20BE
  8
0
 10
1.447325
 20
0.134908
 30
3.9375
  0
VERTEX
  5
B20BF
  8
0
 10
1.507325
 20
0.134908
 30
3.9375
  0
VERTEX
  5
B20C0
  8
0
 10
1.507325
 20
0.018365
 30
3.9375
  0
SEQEND
  5
B20C1
  8
0
  0
POLYLINE
  5
B1FA7
  8
0
 66
     1
 10
0.0
 20
0.0
 30
2.9155
  0
VERTEX
  5
B20C2
  8
0
 10
0.5662
 20
0.858322
 30
2.9155
  0
VERTEX
  5
B20C3
  8
0
 10
0.5662
 20
0.76
 30
2.9155
  0
VERTEX
  5
B20C4
  8
0
 10
0.6262
 20
0.76
 30
2.9155
  0
VERTEX
  5
B20C5
  8
0
 10
0.6262
 20
0.72
 30
2.9155
  0
VERTEX
  5
B20C6
  8
0
 10
0.5662
 20
0.72
 30
2.9155
  0
VERTEX
  5
B20C7
  8
0
 10
0.5662
 20
0.621678
 30
2.9155
  0
SEQEND
  5
B20C8
  8
0
  0
POLYLINE
  5
B1FA8
  8
0
 66
     1
 10
0.0
 20
0.0
 30
2.9155
  0
VERTEX
  5
B20C9
  8
0
 10
0.5262
 20
0.858322
 30
2.9155
  0
VERTEX
  5
B20CA
  8
0
 10
0.5262
 20
0.76
 30
2.9155
  0
VERTEX
  5
B20CB
  8
0
 10
0.4662
 20
0.76
 30
2.9155
  0
VERTEX
  5
B20CC
  8
0
 10
0.4662
 20
0.72
 30
2.9155
  0
VERTEX
  5
B20CD
  8
0
 10
0.5262
 20
0.72
 30
2.9155
  0
VERTEX
  5
B20CE
  8
0
 10
0.5262
 20
0.621678
 30
2.9155
  0
SEQEND
  5
B20CF
  8
0
  0
POLYLINE
  5
B1FA9
  8
0
 66
     1
 10
0.0
 20
0.0
 30
2.9155
  0
VERTEX
  5
B20D0
  8
0
 10
1.2042
 20
0.858322
 30
2.9155
  0
VERTEX
  5
B20D1
  8
0
 10
1.2042
 20
0.76
 30
2.9155
  0
VERTEX
  5
B20D2
  8
0
 10
1.1442
 20
0.76
 30
2.9155
  0
VERTEX
  5
B20D3
  8
0
 10
1.1442
 20
0.72
 30
2.9155
  0
VERTEX
  5
B20D4
  8
0
 10
1.2042
 20
0.72
 30
2.9155
  0
VERTEX
  5
B20D5
  8
0
 10
1.2042
 20
0.621678
 30
2.9155
  0
SEQEND
  5
B20D6
  8
0
  0
POLYLINE
  5
B1FAA
  8
0
 66
     1
 10
0.0
 20
0.0
 30
2.9155
  0
VERTEX
  5
B20D7
  8
0
 10
1.2442
 20
0.858322
 30
2.9155
  0
VERTEX
  5
B20D8
  8
0
 10
1.2442
 20
0.76
 30
2.9155
  0
VERTEX
  5
B20D9
  8
0
 10
1.3042
 20
0.76
 30
2.9155
  0
VERTEX
  5
B20DA
  8
0
 10
1.3042
 20
0.72
 30
2.9155
  0
VERTEX
  5
B20DB
  8
0
 10
1.2442
 20
0.72
 30
2.9155
  0
VERTEX
  5
B20DC
  8
0
 10
1.2442
 20
0.621678
 30
2.9155
  0
SEQEND
  5
B20DD
  8
0
  0
CIRCLE
  5
B1FAB
  8
0
 10
0.667825
 20
-1.58788
 30
3.9375
 40
0.138
  0
POLYLINE
  5
B1FAC
  8
0
 66
     1
 10
0.0
 20
0.0
 30
3.9375
  0
VERTEX
  5
B20DE
  8
0
 10
1.117575
 20
-1.451337
 30
3.9375
  0
VERTEX
  5
B20DF
  8
0
 10
1.117575
 20
-1.56788
 30
3.9375
  0
VERTEX
  5
B20E0
  8
0
 10
1.177575
 20
-1.56788
 30
3.9375
  0
VERTEX
  5
B20E1
  8
0
 10
1.177575
 20
-1.60788
 30
3.9375
  0
VERTEX
  5
B20E2
  8
0
 10
1.117575
 20
-1.60788
 30
3.9375
  0
VERTEX
  5
B20E3
  8
0
 10
1.117575
 20
-1.724423
 30
3.9375
  0
SEQEND
  5
B20E4
  8
0
  0
CIRCLE
  5
B1FAD
  8
0
 10
1.097575
 20
-1.58788
 30
3.9375
 40
0.138
  0
POLYLINE
  5
B1FAE
  8
0
 66
     1
 10
0.0
 20
0.0
 30
3.9375
  0
VERTEX
  5
B20E5
  8
0
 10
0.687825
 20
-1.451337
 30
3.9375
  0
VERTEX
  5
B20E6
  8
0
 10
0.687825
 20
-1.56788
 30
3.9375
  0
VERTEX
  5
B20E7
  8
0
 10
0.747825
 20
-1.56788
 30
3.9375
  0
VERTEX
  5
B20E8
  8
0
 10
0.747825
 20
-1.60788
 30
3.9375
  0
VERTEX
  5
B20E9
  8
0
 10
0.687825
 20
-1.60788
 30
3.9375
  0
VERTEX
  5
B20EA
  8
0
 10
0.687825
 20
-1.724423
 30
3.9375
  0
SEQEND
  5
B20EB
  8
0
  0
POLYLINE
  5
B1FAF
  8
0
 66
     1
 10
0.0
 20
0.0
 30
3.9375
  0
VERTEX
  5
B20EC
  8
0
 10
0.647825
 20
-1.451337
 30
3.9375
  0
VERTEX
  5
B20ED
  8
0
 10
0.647825
 20
-1.56788
 30
3.9375
  0
VERTEX
  5
B20EE
  8
0
 10
0.587825
 20
-1.56788
 30
3.9375
  0
VERTEX
  5
B20EF
  8
0
 10
0.587825
 20
-1.60788
 30
3.9375
  0
VERTEX
  5
B20F0
  8
0
 10
0.647825
 20
-1.60788
 30
3.9375
  0
VERTEX
  5
B20F1
  8
0
 10
0.647825
 20
-1.724423
 30
3.9375
  0
SEQEND
  5
B20F2
  8
0
  0
POLYLINE
  5
B1FB0
  8
0
 66
     1
 10
0.0
 20
0.0
 30
3.9375
  0
VERTEX
  5
B20F3
  8
0
 10
1.077575
 20
-1.451337
 30
3.9375
  0
VERTEX
  5
B20F4
  8
0
 10
1.077575
 20
-1.56788
 30
3.9375
  0
VERTEX
  5
B20F5
  8
0
 10
1.017575
 20
-1.56788
 30
3.9375
  0
VERTEX
  5
B20F6
  8
0
 10
1.017575
 20
-1.60788
 30
3.9375
  0
VERTEX
  5
B20F7
  8
0
 10
1.077575
 20
-1.60788
 30
3.9375
  0
VERTEX
  5
B20F8
  8
0
 10
1.077575
 20
-1.724423
 30
3.9375
  0
SEQEND
  5
B20F9
  8
0
  0
POLYLINE
  5
B1FB1
  8
0
 66
     1
 10
0.0
 20
0.0
 30
3.9375
  0
VERTEX
  5
B20FA
  8
0
 10
1.507325
 20
-1.451337
 30
3.9375
  0
VERTEX
  5
B20FB
  8
0
 10
1.507325
 20
-1.56788
 30
3.9375
  0
VERTEX
  5
B20FC
  8
0
 10
1.447325
 20
-1.56788
 30
3.9375
  0
VERTEX
  5
B20FD
  8
0
 10
1.447325
 20
-1.60788
 30
3.9375
  0
VERTEX
  5
B20FE
  8
0
 10
1.507325
 20
-1.60788
 30
3.9375
  0
VERTEX
  5
B20FF
  8
0
 10
1.507325
 20
-1.724423
 30
3.9375
  0
SEQEND
  5
B2100
  8
0
  0
CIRCLE
  5
B1FB2
  8
0
 10
1.527325
 20
-1.58788
 30
3.9375
 40
0.138
  0
POLYLINE
  5
B1FB3
  8
0
 66
     1
 10
0.0
 20
0.0
 30
3.9375
  0
VERTEX
  5
B2101
  8
0
 10
1.547325
 20
-1.451337
 30
3.9375
  0
VERTEX
  5
B2102
  8
0
 10
1.547325
 20
-1.56788
 30
3.9375
  0
VERTEX
  5
B2103
  8
0
 10
1.607325
 20
-1.56788
 30
3.9375
  0
VERTEX
  5
B2104
  8
0
 10
1.607325
 20
-1.60788
 30
3.9375
  0
VERTEX
  5
B2105
  8
0
 10
1.547325
 20
-1.60788
 30
3.9375
  0
VERTEX
  5
B2106
  8
0
 10
1.547325
 20
-1.724423
 30
3.9375
  0
SEQEND
  5
B2107
  8
0
  0
POLYLINE
  5
B1FB5
  8
0
 66
     1
 10
0.0
 20
0.0
 30
3.9375
  0
VERTEX
  5
B2108
  8
0
 10
0.218075
 20
-1.451337
 30
3.9375
  0
VERTEX
  5
B2109
  8
0
 10
0.218075
 20
-1.56788
 30
3.9375
  0
VERTEX
  5
B210A
  8
0
 10
0.158075
 20
-1.56788
 30
3.9375
  0
VERTEX
  5
B210B
  8
0
 10
0.158075
 20
-1.60788
 30
3.9375
  0
VERTEX
  5
B210C
  8
0
 10
0.218075
 20
-1.60788
 30
3.9375
  0
VERTEX
  5
B210D
  8
0
 10
0.218075
 20
-1.724423
 30
3.9375
  0
SEQEND
  5
B210E
  8
0
  0
POLYLINE
  5
B1FB6
  8
0
 66
     1
 10
0.0
 20
0.0
 30
3.9375
  0
VERTEX
  5
B210F
  8
0
 10
0.258075
 20
-1.451337
 30
3.9375
  0
VERTEX
  5
B2110
  8
0
 10
0.258075
 20
-1.56788
 30
3.9375
  0
VERTEX
  5
B2111
  8
0
 10
0.318075
 20
-1.56788
 30
3.9375
  0
VERTEX
  5
B2112
  8
0
 10
0.318075
 20
-1.60788
 30
3.9375
  0
VERTEX
  5
B2113
  8
0
 10
0.258075
 20
-1.60788
 30
3.9375
  0
VERTEX
  5
B2114
  8
0
 10
0.258075
 20
-1.724423
 30
3.9375
  0
SEQEND
  5
B2115
  8
0
  0
ENDSEC
  0
EOF
