  0
SECTION
  2
HEADER
  9
$ACADVER
  1
AC1009
  9
$INSBASE
 10
0.0
 20
0.0
 30
0.0
  9
$EXTMIN
 10
-0.150371
 20
-1.460319
 30
-0.95017
  9
$EXTMAX
 10
0.36039
 20
1.360733
 30
1.010087
  9
$LIMMIN
 10
0.0
 20
0.0
  9
$LIMMAX
 10
12.0
 20
9.0
  9
$ORTHOMODE
 70
     0
  9
$REGENMODE
 70
     1
  9
$FILLMODE
 70
     1
  9
$QTEXTMODE
 70
     0
  9
$MIRRTEXT
 70
     1
  9
$DRAGMODE
 70
     2
  9
$LTSCALE
 40
1.0
  9
$OSMODE
 70
     8
  9
$ATTMODE
 70
     0
  9
$TEXTSIZE
 40
0.12
  9
$TRACEWID
 40
0.05
  9
$TEXTSTYLE
  7
STANDARD
  9
$CLAYER
  8
0
  9
$CELTYPE
  6
BYLAYER
  9
$CECOLOR
 62
   256
  9
$DIMSCALE
 40
1.0
  9
$DIMASZ
 40
0.18
  9
$DIMEXO
 40
0.0625
  9
$DIMDLI
 40
0.38
  9
$DIMRND
 40
0.0
  9
$DIMDLE
 40
0.0
  9
$DIMEXE
 40
0.18
  9
$DIMTP
 40
0.0
  9
$DIMTM
 40
0.0
  9
$DIMTXT
 40
0.18
  9
$DIMCEN
 40
0.09
  9
$DIMTSZ
 40
0.0
  9
$DIMTOL
 70
     0
  9
$DIMLIM
 70
     0
  9
$DIMTIH
 70
     1
  9
$DIMTOH
 70
     1
  9
$DIMSE1
 70
     0
  9
$DIMSE2
 70
     0
  9
$DIMTAD
 70
     0
  9
$DIMZIN
 70
     0
  9
$DIMBLK
  1

  9
$DIMASO
 70
     1
  9
$DIMSHO
 70
     1
  9
$DIMPOST
  1

  9
$DIMAPOST
  1

  9
$DIMALT
 70
     0
  9
$DIMALTD
 70
     2
  9
$DIMALTF
 40
25.4
  9
$DIMLFAC
 40
1.0
  9
$DIMTOFL
 70
     0
  9
$DIMTVP
 40
0.0
  9
$DIMTIX
 70
     0
  9
$DIMSOXD
 70
     0
  9
$DIMSAH
 70
     0
  9
$DIMBLK1
  1

  9
$DIMBLK2
  1

  9
$DIMSTYLE
  2
STANDARD
  9
$DIMCLRD
 70
     0
  9
$DIMCLRE
 70
     0
  9
$DIMCLRT
 70
     0
  9
$DIMTFAC
 40
1.0
  9
$DIMGAP
 40
0.09
  9
$LUNITS
 70
     2
  9
$LUPREC
 70
     4
  9
$SKETCHINC
 40
0.1
  9
$FILLETRAD
 40
0.0
  9
$AUNITS
 70
     0
  9
$AUPREC
 70
     0
  9
$MENU
  1

  9
$ELEVATION
 40
0.0
  9
$PELEVATION
 40
0.0
  9
$THICKNESS
 40
0.0
  9
$LIMCHECK
 70
     0
  9
$BLIPMODE
 70
     0
  9
$CHAMFERA
 40
0.0
  9
$CHAMFERB
 40
0.0
  9
$SKPOLY
 70
     0
  9
$TDCREATE
 40
2450757.431601
  9
$TDUPDATE
 40
2451165.595941
  9
$TDINDWG
 40
0.003858
  9
$TDUSRTIMER
 40
0.003858
  9
$USRTIMER
 70
     1
  9
$ANGBASE
 50
0.0
  9
$ANGDIR
 70
     0
  9
$PDMODE
 70
     3
  9
$PDSIZE
 40
0.09
  9
$PLINEWID
 40
0.0
  9
$COORDS
 70
     1
  9
$SPLFRAME
 70
     1
  9
$SPLINETYPE
 70
     6
  9
$SPLINESEGS
 70
     8
  9
$ATTDIA
 70
     0
  9
$ATTREQ
 70
     1
  9
$HANDLING
 70
     1
  9
$HANDSEED
  5
3EEDC
  9
$SURFTAB1
 70
     6
  9
$SURFTAB2
 70
     6
  9
$SURFTYPE
 70
     6
  9
$SURFU
 70
     6
  9
$SURFV
 70
     6
  9
$UCSNAME
  2

  9
$UCSORG
 10
0.0
 20
0.0
 30
0.0
  9
$UCSXDIR
 10
1.0
 20
0.0
 30
0.0
  9
$UCSYDIR
 10
0.0
 20
1.0
 30
0.0
  9
$PUCSNAME
  2

  9
$PUCSORG
 10
0.0
 20
0.0
 30
0.0
  9
$PUCSXDIR
 10
1.0
 20
0.0
 30
0.0
  9
$PUCSYDIR
 10
0.0
 20
1.0
 30
0.0
  9
$USERI1
 70
     0
  9
$USERI2
 70
     0
  9
$USERI3
 70
     0
  9
$USERI4
 70
     0
  9
$USERI5
 70
     0
  9
$USERR1
 40
0.0
  9
$USERR2
 40
0.0
  9
$USERR3
 40
0.0
  9
$USERR4
 40
0.0
  9
$USERR5
 40
0.0
  9
$WORLDVIEW
 70
     1
  9
$SHADEDGE
 70
     3
  9
$SHADEDIF
 70
    70
  9
$TILEMODE
 70
     1
  9
$MAXACTVP
 70
    16
  9
$PLIMCHECK
 70
     0
  9
$PEXTMIN
 10
1.000000E+020
 20
1.000000E+020
 30
1.000000E+020
  9
$PEXTMAX
 10
-1.000000E+020
 20
-1.000000E+020
 30
-1.000000E+020
  9
$PLIMMIN
 10
0.0
 20
0.0
  9
$PLIMMAX
 10
12.0
 20
9.0
  9
$UNITMODE
 70
     0
  9
$VISRETAIN
 70
     0
  9
$PLINEGEN
 70
     0
  9
$PSLTSCALE
 70
     1
  0
ENDSEC
  0
SECTION
  2
TABLES
  0
TABLE
  2
VPORT
 70
     2
  0
VPORT
  2
*ACTIVE
 70
     0
 10
0.0
 20
0.0
 11
1.0
 21
1.0
 12
0.10501
 22
-0.049793
 13
0.0
 23
0.0
 14
0.25
 24
0.25
 15
0.25
 25
0.25
 16
0.0
 26
0.0
 36
0.14
 17
0.0
 27
0.0
 37
0.0
 40
2.99983
 41
1.603066
 42
50.0
 43
0.0
 44
0.0
 50
0.0
 51
0.0
 71
     0
 72
 20000
 73
     1
 74
     1
 75
     0
 76
     0
 77
     0
 78
     0
  0
ENDTAB
  0
TABLE
  2
LTYPE
 70
     1
  0
LTYPE
  2
CONTINUOUS
 70
     0
  3
Solid line
 72
    65
 73
     0
 40
0.0
  0
ENDTAB
  0
TABLE
  2
LAYER
 70
     2
  0
LAYER
  2
0
 70
     0
 62
     7
  6
CONTINUOUS
  0
LAYER
  2
DIMS-MTG-HOLES
 70
     0
 62
     1
  6
CONTINUOUS
  0
ENDTAB
  0
TABLE
  2
STYLE
 70
     1
  0
STYLE
  2
STANDARD
 70
     0
 40
0.0
 41
1.0
 50
0.0
 71
     0
 42
0.12
  3
txt
  4

  0
ENDTAB
  0
TABLE
  2
VIEW
 70
     0
  0
ENDTAB
  0
TABLE
  2
UCS
 70
     0
  0
ENDTAB
  0
TABLE
  2
APPID
 70
     1
  0
APPID
  2
ACAD
 70
     0
  0
ENDTAB
  0
TABLE
  2
DIMSTYLE
 70
     1
  0
DIMSTYLE
  2
STANDARD
 70
     0
  3

  4

  5

  6

  7

 40
1.0
 41
0.18
 42
0.0625
 43
0.38
 44
0.18
 45
0.0
 46
0.0
 47
0.0
 48
0.0
140
0.18
141
0.09
142
0.0
143
25.4
144
1.0
145
0.0
146
1.0
147
0.09
 71
     0
 72
     0
 73
     1
 74
     1
 75
     0
 76
     0
 77
     0
 78
     0
170
     0
171
     2
172
     0
173
     0
174
     0
175
     0
176
     0
177
     0
178
     0
  0
ENDTAB
  0
ENDSEC
  0
SECTION
  2
BLOCKS
  0
BLOCK
  8
0
  2
$MODEL_SPACE
 70
     0
 10
0.0
 20
0.0
 30
0.0
  3
$MODEL_SPACE
  1

  0
ENDBLK
  5
3EE8E
  8
0
  0
BLOCK
 67
     1
  8
0
  2
$PAPER_SPACE
 70
     0
 10
0.0
 20
0.0
 30
0.0
  3
$PAPER_SPACE
  1

  0
ENDBLK
  5
3EE8C
 67
     1
  8
0
  0
ENDSEC
  0
SECTION
  2
ENTITIES
  0
POLYLINE
  5
3EC5A
  8
0
 66
     1
 10
0.0
 20
0.0
 30
0.0
 70
    16
 71
     6
 72
     3
  0
VERTEX
  5
3EC5B
  8
0
 10
0.0
 20
0.835
 30
1.01
 70
    64
  0
VERTEX
  5
3EC5C
  8
0
 10
0.0
 20
0.835
 30
0.3
 70
    64
  0
VERTEX
  5
3EC5D
  8
0
 10
0.0
 20
0.835
 30
0.3
 70
    64
  0
VERTEX
  5
3EC5E
  8
0
 10
0.36
 20
0.835
 30
1.01
 70
    64
  0
VERTEX
  5
3EC5F
  8
0
 10
0.36
 20
0.835
 30
0.3
 70
    64
  0
VERTEX
  5
3EC60
  8
0
 10
0.36
 20
0.835
 30
0.3
 70
    64
  0
VERTEX
  5
3EC61
  8
0
 10
0.36
 20
-0.935
 30
1.01
 70
    64
  0
VERTEX
  5
3EC62
  8
0
 10
0.36
 20
-0.935
 30
0.3
 70
    64
  0
VERTEX
  5
3EC63
  8
0
 10
0.36
 20
0.835
 30
0.3
 70
    64
  0
VERTEX
  5
3EC64
  8
0
 10
0.0
 20
-0.935
 30
1.01
 70
    64
  0
VERTEX
  5
3EC65
  8
0
 10
0.0
 20
-0.935
 30
0.3
 70
    64
  0
VERTEX
  5
3EC66
  8
0
 10
0.0
 20
0.835
 30
0.3
 70
    64
  0
VERTEX
  5
3EC67
  8
0
 10
0.0
 20
-0.935
 30
1.01
 70
    64
  0
VERTEX
  5
3EC68
  8
0
 10
0.0
 20
-0.935
 30
1.01
 70
    64
  0
VERTEX
  5
3EC69
  8
0
 10
0.0
 20
0.835
 30
1.01
 70
    64
  0
VERTEX
  5
3EC6A
  8
0
 10
0.36
 20
-0.935
 30
1.01
 70
    64
  0
VERTEX
  5
3EC6B
  8
0
 10
0.36
 20
-0.935
 30
1.01
 70
    64
  0
VERTEX
  5
3EC6C
  8
0
 10
0.36
 20
0.835
 30
1.01
 70
    64
  0
SEQEND
  5
3EC6D
  8
0
  0
POLYLINE
  5
3EC6E
  8
0
 66
     1
 10
0.0
 20
0.0
 30
0.0
 70
    16
 71
     6
 72
     3
  0
VERTEX
  5
3EC6F
  8
0
 10
0.0
 20
1.36
 30
0.3
 70
    64
  0
VERTEX
  5
3EC70
  8
0
 10
0.0
 20
1.36
 30
-0.58
 70
    64
  0
VERTEX
  5
3EC71
  8
0
 10
0.0
 20
1.36
 30
-0.58
 70
    64
  0
VERTEX
  5
3EC72
  8
0
 10
0.36
 20
1.36
 30
0.3
 70
    64
  0
VERTEX
  5
3EC73
  8
0
 10
0.36
 20
1.36
 30
-0.58
 70
    64
  0
VERTEX
  5
3EC74
  8
0
 10
0.36
 20
1.36
 30
-0.58
 70
    64
  0
VERTEX
  5
3EC75
  8
0
 10
0.36
 20
-1.46
 30
0.3
 70
    64
  0
VERTEX
  5
3EC76
  8
0
 10
0.36
 20
-1.46
 30
-0.58
 70
    64
  0
VERTEX
  5
3EC77
  8
0
 10
0.36
 20
1.36
 30
-0.58
 70
    64
  0
VERTEX
  5
3EC78
  8
0
 10
0.0
 20
-1.46
 30
0.3
 70
    64
  0
VERTEX
  5
3EC79
  8
0
 10
0.0
 20
-1.46
 30
-0.58
 70
    64
  0
VERTEX
  5
3EC7A
  8
0
 10
0.0
 20
1.36
 30
-0.58
 70
    64
  0
VERTEX
  5
3EC7B
  8
0
 10
0.0
 20
-1.46
 30
0.3
 70
    64
  0
VERTEX
  5
3EC7C
  8
0
 10
0.0
 20
-1.46
 30
0.3
 70
    64
  0
VERTEX
  5
3EC7D
  8
0
 10
0.0
 20
1.36
 30
0.3
 70
    64
  0
VERTEX
  5
3EC7E
  8
0
 10
0.36
 20
-1.46
 30
0.3
 70
    64
  0
VERTEX
  5
3EC7F
  8
0
 10
0.36
 20
-1.46
 30
0.3
 70
    64
  0
VERTEX
  5
3EC80
  8
0
 10
0.36
 20
1.36
 30
0.3
 70
    64
  0
SEQEND
  5
3EC81
  8
0
  0
POLYLINE
  5
3EC82
  8
0
 66
     1
 10
0.0
 20
0.0
 30
0.0
 70
    16
 71
     6
 72
     3
  0
VERTEX
  5
3EC83
  8
0
 10
0.0
 20
0.655
 30
-0.58
 70
    64
  0
VERTEX
  5
3EC84
  8
0
 10
0.0
 20
0.655
 30
-0.95
 70
    64
  0
VERTEX
  5
3EC85
  8
0
 10
0.0
 20
0.655
 30
-0.95
 70
    64
  0
VERTEX
  5
3EC86
  8
0
 10
0.36
 20
0.655
 30
-0.58
 70
    64
  0
VERTEX
  5
3EC87
  8
0
 10
0.36
 20
0.655
 30
-0.95
 70
    64
  0
VERTEX
  5
3EC88
  8
0
 10
0.36
 20
0.655
 30
-0.95
 70
    64
  0
VERTEX
  5
3EC89
  8
0
 10
0.36
 20
-0.755
 30
-0.58
 70
    64
  0
VERTEX
  5
3EC8A
  8
0
 10
0.36
 20
-0.755
 30
-0.95
 70
    64
  0
VERTEX
  5
3EC8B
  8
0
 10
0.36
 20
0.655
 30
-0.95
 70
    64
  0
VERTEX
  5
3EC8C
  8
0
 10
0.0
 20
-0.755
 30
-0.58
 70
    64
  0
VERTEX
  5
3EC8D
  8
0
 10
0.0
 20
-0.755
 30
-0.95
 70
    64
  0
VERTEX
  5
3EC8E
  8
0
 10
0.0
 20
0.655
 30
-0.95
 70
    64
  0
VERTEX
  5
3EC8F
  8
0
 10
0.0
 20
-0.755
 30
-0.58
 70
    64
  0
VERTEX
  5
3EC90
  8
0
 10
0.0
 20
-0.755
 30
-0.58
 70
    64
  0
VERTEX
  5
3EC91
  8
0
 10
0.0
 20
0.655
 30
-0.58
 70
    64
  0
VERTEX
  5
3EC92
  8
0
 10
0.36
 20
-0.755
 30
-0.58
 70
    64
  0
VERTEX
  5
3EC93
  8
0
 10
0.36
 20
-0.755
 30
-0.58
 70
    64
  0
VERTEX
  5
3EC94
  8
0
 10
0.36
 20
0.655
 30
-0.58
 70
    64
  0
SEQEND
  5
3EC95
  8
0
  0
CIRCLE
  5
3EC96
  8
0
 10
0.185
 20
0.43
 30
1.01
 40
0.125
  0
CIRCLE
  5
3EC97
  8
0
 10
0.185
 20
-0.53
 30
1.01
 40
0.125
  0
LINE
  5
3EC98
  8
0
 10
0.33
 20
0.835
 30
0.7
 11
0.03
 21
0.835
 31
0.7
  0
LINE
  5
3EC99
  8
0
 10
0.03
 20
0.835
 30
0.7
 11
0.03
 21
0.835
 31
0.41
  0
LINE
  5
3EC9A
  8
0
 10
0.33
 20
0.835
 30
0.41
 11
0.33
 21
0.835
 31
0.7
  0
POLYLINE
  5
3EC9B
  8
0
 66
     1
 10
0.0
 20
0.0
 30
0.41
  0
VERTEX
  5
3EE97
  8
0
 10
0.03
 20
0.835
 30
0.41
  0
VERTEX
  5
3EE98
  8
0
 10
0.33
 20
0.835
 30
0.41
  0
SEQEND
  5
3EE99
  8
0
  0
POLYLINE
  5
3EC9F
  8
0
 66
     1
 10
0.0
 20
0.0
 30
0.41
  0
VERTEX
  5
3EE9A
  8
0
 10
0.03
 20
-0.935
 30
0.41
  0
VERTEX
  5
3EE9B
  8
0
 10
0.33
 20
-0.935
 30
0.41
  0
SEQEND
  5
3EE9C
  8
0
  0
LINE
  5
3ECA3
  8
0
 10
0.33
 20
-0.935
 30
0.7
 11
0.03
 21
-0.935
 31
0.7
  0
LINE
  5
3ECA4
  8
0
 10
0.33
 20
-0.935
 30
0.41
 11
0.33
 21
-0.935
 31
0.7
  0
LINE
  5
3ECA5
  8
0
 10
0.03
 20
-0.935
 30
0.7
 11
0.03
 21
-0.935
 31
0.41
  0
TEXT
  5
3ECA8
  8
0
 10
0.324249
 20
-0.686343
 30
1.01
 40
0.08
  1
NO
 50
180.0
  0
TEXT
  5
3ECAB
  8
0
 10
0.045751
 20
0.586343
 30
1.01
 40
0.08
  1
NO
  0
POLYLINE
  5
3ECAC
  8
0
 66
     1
 10
0.0
 20
0.0
 30
1.01
  0
VERTEX
  5
3EE9D
  8
0
 10
0.060903
 20
0.445
 30
1.01
  0
VERTEX
  5
3EE9E
  8
0
 10
0.17
 20
0.445
 30
1.01
  0
VERTEX
  5
3EE9F
  8
0
 10
0.17
 20
0.49
 30
1.01
  0
VERTEX
  5
3EEA0
  8
0
 10
0.2
 20
0.49
 30
1.01
  0
VERTEX
  5
3EEA1
  8
0
 10
0.2
 20
0.445
 30
1.01
  0
VERTEX
  5
3EEA2
  8
0
 10
0.309097
 20
0.445
 30
1.01
  0
SEQEND
  5
3EEA3
  8
0
  0
POLYLINE
  5
3ECB4
  8
0
 66
     1
 10
0.0
 20
0.0
 30
1.01
  0
VERTEX
  5
3EEA4
  8
0
 10
0.060903
 20
0.415
 30
1.01
  0
VERTEX
  5
3EEA5
  8
0
 10
0.17
 20
0.415
 30
1.01
  0
VERTEX
  5
3EEA6
  8
0
 10
0.17
 20
0.37
 30
1.01
  0
VERTEX
  5
3EEA7
  8
0
 10
0.2
 20
0.37
 30
1.01
  0
VERTEX
  5
3EEA8
  8
0
 10
0.2
 20
0.415
 30
1.01
  0
VERTEX
  5
3EEA9
  8
0
 10
0.309097
 20
0.415
 30
1.01
  0
SEQEND
  5
3EEAA
  8
0
  0
POLYLINE
  5
3ECBC
  8
0
 66
     1
 10
0.0
 20
0.0
 30
1.01
  0
VERTEX
  5
3EEAB
  8
0
 10
0.309097
 20
-0.515
 30
1.01
  0
VERTEX
  5
3EEAC
  8
0
 10
0.2
 20
-0.515
 30
1.01
  0
VERTEX
  5
3EEAD
  8
0
 10
0.2
 20
-0.47
 30
1.01
  0
VERTEX
  5
3EEAE
  8
0
 10
0.17
 20
-0.47
 30
1.01
  0
VERTEX
  5
3EEAF
  8
0
 10
0.17
 20
-0.515
 30
1.01
  0
VERTEX
  5
3EEB0
  8
0
 10
0.060903
 20
-0.515
 30
1.01
  0
SEQEND
  5
3EEB1
  8
0
  0
POLYLINE
  5
3ECC4
  8
0
 66
     1
 10
0.0
 20
0.0
 30
1.01
  0
VERTEX
  5
3EEB2
  8
0
 10
0.309097
 20
-0.545
 30
1.01
  0
VERTEX
  5
3EEB3
  8
0
 10
0.2
 20
-0.545
 30
1.01
  0
VERTEX
  5
3EEB4
  8
0
 10
0.2
 20
-0.59
 30
1.01
  0
VERTEX
  5
3EEB5
  8
0
 10
0.17
 20
-0.59
 30
1.01
  0
VERTEX
  5
3EEB6
  8
0
 10
0.17
 20
-0.545
 30
1.01
  0
VERTEX
  5
3EEB7
  8
0
 10
0.060903
 20
-0.545
 30
1.01
  0
SEQEND
  5
3EEB8
  8
0
  0
POLYLINE
  5
3ECCC
  8
0
 66
     1
 10
0.0
 20
0.0
 30
0.0
 70
    16
 71
     6
 72
     3
  0
VERTEX
  5
3ECCD
  8
0
 10
-0.15
 20
0.0
 30
0.0
 70
    64
  0
VERTEX
  5
3ECCE
  8
0
 10
-0.15
 20
0.0
 30
-0.14
 70
    64
  0
VERTEX
  5
3ECCF
  8
0
 10
-0.15
 20
0.0
 30
-0.14
 70
    64
  0
VERTEX
  5
3ECD0
  8
0
 10
-0.15
 20
-0.1
 30
0.0
 70
    64
  0
VERTEX
  5
3ECD1
  8
0
 10
-0.15
 20
-0.1
 30
-0.14
 70
    64
  0
VERTEX
  5
3ECD2
  8
0
 10
-0.15
 20
-0.1
 30
-0.14
 70
    64
  0
VERTEX
  5
3ECD3
  8
0
 10
0.0
 20
-0.1
 30
0.0
 70
    64
  0
VERTEX
  5
3ECD4
  8
0
 10
0.0
 20
-0.1
 30
-0.14
 70
    64
  0
VERTEX
  5
3ECD5
  8
0
 10
-0.15
 20
-0.1
 30
-0.14
 70
    64
  0
VERTEX
  5
3ECD6
  8
0
 10
0.0
 20
0.0
 30
0.0
 70
    64
  0
VERTEX
  5
3ECD7
  8
0
 10
0.0
 20
0.0
 30
-0.14
 70
    64
  0
VERTEX
  5
3ECD8
  8
0
 10
-0.15
 20
0.0
 30
-0.14
 70
    64
  0
VERTEX
  5
3ECD9
  8
0
 10
0.0
 20
0.0
 30
0.0
 70
    64
  0
VERTEX
  5
3ECDA
  8
0
 10
0.0
 20
0.0
 30
0.0
 70
    64
  0
VERTEX
  5
3ECDB
  8
0
 10
-0.15
 20
0.0
 30
0.0
 70
    64
  0
VERTEX
  5
3ECDC
  8
0
 10
0.0
 20
-0.1
 30
0.0
 70
    64
  0
VERTEX
  5
3ECDD
  8
0
 10
0.0
 20
-0.1
 30
0.0
 70
    64
  0
VERTEX
  5
3ECDE
  8
0
 10
-0.15
 20
-0.1
 30
0.0
 70
    64
  0
SEQEND
  5
3ECDF
  8
0
  0
LINE
  5
3ECE1
  8
0
 10
0.33
 20
1.36
 30
-0.3
 11
0.33
 21
1.36
 31
-0.01
  0
LINE
  5
3ECE2
  8
0
 10
0.03
 20
1.36
 30
-0.01
 11
0.03
 21
1.36
 31
-0.3
  0
POLYLINE
  5
3ECE3
  8
0
 66
     1
 10
0.0
 20
0.0
 30
-0.3
  0
VERTEX
  5
3EEB9
  8
0
 10
0.03
 20
1.36
 30
-0.3
  0
VERTEX
  5
3EEBA
  8
0
 10
0.33
 20
1.36
 30
-0.3
  0
SEQEND
  5
3EEBB
  8
0
  0
LINE
  5
3ECE8
  8
0
 10
0.33
 20
1.36
 30
-0.01
 11
0.03
 21
1.36
 31
-0.01
  0
POLYLINE
  5
3ECE9
  8
0
 66
     1
 10
0.0
 20
0.0
 30
0.3
  0
VERTEX
  5
3EEBC
  8
0
 10
0.060903
 20
0.979187
 30
0.3
  0
VERTEX
  5
3EEBD
  8
0
 10
0.17
 20
0.979187
 30
0.3
  0
VERTEX
  5
3EEBE
  8
0
 10
0.17
 20
0.934187
 30
0.3
  0
VERTEX
  5
3EEBF
  8
0
 10
0.2
 20
0.934187
 30
0.3
  0
VERTEX
  5
3EEC0
  8
0
 10
0.2
 20
0.979187
 30
0.3
  0
VERTEX
  5
3EEC1
  8
0
 10
0.309097
 20
0.979187
 30
0.3
  0
SEQEND
  5
3EEC2
  8
0
  0
POLYLINE
  5
3ECF1
  8
0
 66
     1
 10
0.0
 20
0.0
 30
0.3
  0
VERTEX
  5
3EEC3
  8
0
 10
0.060903
 20
1.009187
 30
0.3
  0
VERTEX
  5
3EEC4
  8
0
 10
0.17
 20
1.009187
 30
0.3
  0
VERTEX
  5
3EEC5
  8
0
 10
0.17
 20
1.054187
 30
0.3
  0
VERTEX
  5
3EEC6
  8
0
 10
0.2
 20
1.054187
 30
0.3
  0
VERTEX
  5
3EEC7
  8
0
 10
0.2
 20
1.009187
 30
0.3
  0
VERTEX
  5
3EEC8
  8
0
 10
0.309097
 20
1.009187
 30
0.3
  0
SEQEND
  5
3EEC9
  8
0
  0
TEXT
  5
3ECF9
  8
0
 10
0.045751
 20
1.15053
 30
0.3
 40
0.08
  1
NC
  0
CIRCLE
  5
3ECFA
  8
0
 10
0.185
 20
0.994187
 30
0.3
 40
0.125
  0
LINE
  5
3ECFC
  8
0
 10
0.03
 20
-1.46
 30
-0.01
 11
0.03
 21
-1.46
 31
-0.3
  0
LINE
  5
3ECFD
  8
0
 10
0.33
 20
-1.46
 30
-0.3
 11
0.33
 21
-1.46
 31
-0.01
  0
POLYLINE
  5
3ECFE
  8
0
 66
     1
 10
0.0
 20
0.0
 30
-0.3
  0
VERTEX
  5
3EECA
  8
0
 10
0.03
 20
-1.46
 30
-0.3
  0
VERTEX
  5
3EECB
  8
0
 10
0.33
 20
-1.46
 30
-0.3
  0
SEQEND
  5
3EECC
  8
0
  0
LINE
  5
3ED02
  8
0
 10
0.33
 20
-1.46
 30
-0.01
 11
0.03
 21
-1.46
 31
-0.01
  0
POLYLINE
  5
3ED04
  8
0
 66
     1
 10
0.0
 20
0.0
 30
0.3
  0
VERTEX
  5
3EECD
  8
0
 10
0.309097
 20
-1.1092
 30
0.3
  0
VERTEX
  5
3EECE
  8
0
 10
0.2
 20
-1.1092
 30
0.3
  0
VERTEX
  5
3EECF
  8
0
 10
0.2
 20
-1.1542
 30
0.3
  0
VERTEX
  5
3EED0
  8
0
 10
0.17
 20
-1.1542
 30
0.3
  0
VERTEX
  5
3EED1
  8
0
 10
0.17
 20
-1.1092
 30
0.3
  0
VERTEX
  5
3EED2
  8
0
 10
0.060903
 20
-1.1092
 30
0.3
  0
SEQEND
  5
3EED3
  8
0
  0
POLYLINE
  5
3ED0C
  8
0
 66
     1
 10
0.0
 20
0.0
 30
0.3
  0
VERTEX
  5
3EED4
  8
0
 10
0.309097
 20
-1.0792
 30
0.3
  0
VERTEX
  5
3EED5
  8
0
 10
0.2
 20
-1.0792
 30
0.3
  0
VERTEX
  5
3EED6
  8
0
 10
0.2
 20
-1.0342
 30
0.3
  0
VERTEX
  5
3EED7
  8
0
 10
0.17
 20
-1.0342
 30
0.3
  0
VERTEX
  5
3EED8
  8
0
 10
0.17
 20
-1.0792
 30
0.3
  0
VERTEX
  5
3EED9
  8
0
 10
0.060903
 20
-1.0792
 30
0.3
  0
SEQEND
  5
3EEDA
  8
0
  0
CIRCLE
  5
3ED14
  8
0
 10
0.185
 20
-1.0942
 30
0.3
 40
0.125
  0
TEXT
  5
3ED15
  8
0
 10
0.324249
 20
-1.250543
 30
0.3
 40
0.08
  1
NC
 50
180.0
  0
ENDSEC
  0
EOF
