ISO-10303-21;
HEADER;
/* Generated by software containing ST-Developer
 * from STEP Tools, Inc. (www.steptools.com) 
 */
/* OPTION: using custom schema-name function */

FILE_DESCRIPTION(
/* description */ (''),
/* implementation_level */ '2;1');

FILE_NAME(
/* name */ 'PC7TM_AuerSignal_910800900.stp',
/* time_stamp */ '2021-05-20T08:58:43+02:00',
/* author */ (''),
/* organization */ (''),
/* preprocessor_version */ 'ST-DEVELOPER v16',
/* originating_system */ 'SIEMENS PLM Software NX 10.0',
/* authorisation */ '');

FILE_SCHEMA (('AUTOMOTIVE_DESIGN { 1 0 10303 214 3 1 1 1 }'));
ENDSEC;

DATA;
#10=PROPERTY_DEFINITION_REPRESENTATION(#14,#12);
#11=PROPERTY_DEFINITION_REPRESENTATION(#15,#13);
#12=REPRESENTATION('',(#16),#431);
#13=REPRESENTATION('',(#17),#431);
#14=PROPERTY_DEFINITION('pmi validation property','',#21);
#15=PROPERTY_DEFINITION('pmi validation property','',#21);
#16=VALUE_REPRESENTATION_ITEM('number of annotations',COUNT_MEASURE(0.));
#17=VALUE_REPRESENTATION_ITEM('number of views',COUNT_MEASURE(0.));
#18=SHAPE_REPRESENTATION_RELATIONSHIP('None',
'relationship between P.Ge5A4074D5e7ms-None and P.Ge5A4074D5e7ms-None',
#30,#19);
#19=ADVANCED_BREP_SHAPE_REPRESENTATION('P.Ge5A4074D5e7ms-None',(#40),#431);
#20=SHAPE_DEFINITION_REPRESENTATION(#21,#30);
#21=PRODUCT_DEFINITION_SHAPE('','',#22);
#22=PRODUCT_DEFINITION(' ','',#24,#23);
#23=PRODUCT_DEFINITION_CONTEXT('part definition',#29,'design');
#24=PRODUCT_DEFINITION_FORMATION_WITH_SPECIFIED_SOURCE(' ',' ',#26,
 .NOT_KNOWN.);
#25=PRODUCT_RELATED_PRODUCT_CATEGORY('part','',(#26));
#26=PRODUCT('P.Ge5A4074D5e7ms','PC7TM_AuerSignal_910800900',' ',(#27));
#27=PRODUCT_CONTEXT(' ',#29,'mechanical');
#28=APPLICATION_PROTOCOL_DEFINITION('international standard',
'automotive_design',2010,#29);
#29=APPLICATION_CONTEXT(
'core data for automotive mechanical design processes');
#30=SHAPE_REPRESENTATION('P.Ge5A4074D5e7ms-None',(#254),#431);
#31=PRESENTATION_LAYER_ASSIGNMENT('1','Layer 1',(#40));
#32=STYLED_ITEM('',(#33),#40);
#33=PRESENTATION_STYLE_ASSIGNMENT((#34));
#34=SURFACE_STYLE_USAGE(.BOTH.,#35);
#35=SURFACE_SIDE_STYLE('',(#36));
#36=SURFACE_STYLE_FILL_AREA(#37);
#37=FILL_AREA_STYLE('',(#38));
#38=FILL_AREA_STYLE_COLOUR('',#39);
#39=COLOUR_RGB('Dark Gray',0.2,0.2,0.2);
#40=MANIFOLD_SOLID_BREP('',#41);
#41=CLOSED_SHELL('',(#66,#67,#68,#69,#70,#71,#72,#73,#74,#75,#76,#77,#78,
#79,#80));
#42=CONICAL_SURFACE('',#278,35.7999013059853,0.9);
#43=CONICAL_SURFACE('',#279,35.7999013059853,0.9);
#44=B_SPLINE_CURVE_WITH_KNOTS('',3,(#400,#401,#402,#403),.UNSPECIFIED.,
 .F.,.F.,(4,4),(0.,1.),.UNSPECIFIED.);
#45=B_SPLINE_CURVE_WITH_KNOTS('',3,(#411,#412,#413,#414),.UNSPECIFIED.,
 .F.,.F.,(4,4),(0.,1.),.UNSPECIFIED.);
#46=PLANE('',#263);
#47=PLANE('',#265);
#48=PLANE('',#267);
#49=PLANE('',#270);
#50=PLANE('',#271);
#51=PLANE('',#273);
#52=PLANE('',#274);
#53=PLANE('',#277);
#54=PLANE('',#282);
#55=PLANE('',#284);
#56=FACE_OUTER_BOUND('',#116,.T.);
#57=FACE_OUTER_BOUND('',#117,.T.);
#58=FACE_OUTER_BOUND('',#118,.T.);
#59=FACE_OUTER_BOUND('',#121,.T.);
#60=FACE_OUTER_BOUND('',#122,.T.);
#61=FACE_OUTER_BOUND('',#123,.T.);
#62=FACE_OUTER_BOUND('',#126,.T.);
#63=FACE_OUTER_BOUND('',#127,.T.);
#64=FACE_OUTER_BOUND('',#130,.T.);
#65=FACE_OUTER_BOUND('',#131,.T.);
#66=ADVANCED_FACE('',(#104,#105),#81,.T.);
#67=ADVANCED_FACE('',(#56),#46,.T.);
#68=ADVANCED_FACE('',(#57),#47,.T.);
#69=ADVANCED_FACE('',(#58),#48,.T.);
#70=ADVANCED_FACE('',(#106,#107),#49,.F.);
#71=ADVANCED_FACE('',(#59),#50,.T.);
#72=ADVANCED_FACE('',(#60),#51,.T.);
#73=ADVANCED_FACE('',(#61),#52,.T.);
#74=ADVANCED_FACE('',(#108,#109),#53,.T.);
#75=ADVANCED_FACE('',(#62),#42,.T.);
#76=ADVANCED_FACE('',(#63),#43,.T.);
#77=ADVANCED_FACE('',(#110,#111),#82,.T.);
#78=ADVANCED_FACE('',(#64),#54,.F.);
#79=ADVANCED_FACE('',(#65),#55,.F.);
#80=ADVANCED_FACE('',(#112,#113),#83,.F.);
#81=CYLINDRICAL_SURFACE('',#261,35.);
#82=CYLINDRICAL_SURFACE('',#281,31.4);
#83=CYLINDRICAL_SURFACE('',#285,31.);
#84=LINE('',#369,#94);
#85=LINE('',#374,#95);
#86=LINE('',#378,#96);
#87=LINE('',#382,#97);
#88=LINE('',#384,#98);
#89=LINE('',#388,#99);
#90=LINE('',#392,#100);
#91=LINE('',#394,#101);
#92=LINE('',#405,#102);
#93=LINE('',#409,#103);
#94=VECTOR('',#296,1.);
#95=VECTOR('',#299,1.);
#96=VECTOR('',#304,1.);
#97=VECTOR('',#307,1.);
#98=VECTOR('',#310,1.);
#99=VECTOR('',#313,1.);
#100=VECTOR('',#320,1.);
#101=VECTOR('',#321,1.);
#102=VECTOR('',#328,1.);
#103=VECTOR('',#333,1.);
#104=FACE_BOUND('',#114,.T.);
#105=FACE_BOUND('',#115,.T.);
#106=FACE_BOUND('',#119,.T.);
#107=FACE_BOUND('',#120,.T.);
#108=FACE_BOUND('',#124,.T.);
#109=FACE_BOUND('',#125,.T.);
#110=FACE_BOUND('',#128,.T.);
#111=FACE_BOUND('',#129,.T.);
#112=FACE_BOUND('',#132,.T.);
#113=FACE_BOUND('',#133,.T.);
#114=EDGE_LOOP('',(#142,#143,#144,#145));
#115=EDGE_LOOP('',(#146,#147,#148,#149));
#116=EDGE_LOOP('',(#150,#151,#152,#153));
#117=EDGE_LOOP('',(#154,#155,#156,#157));
#118=EDGE_LOOP('',(#158,#159,#160,#161));
#119=EDGE_LOOP('',(#162,#163,#164,#165));
#120=EDGE_LOOP('',(#166));
#121=EDGE_LOOP('',(#167,#168,#169,#170));
#122=EDGE_LOOP('',(#171,#172,#173,#174));
#123=EDGE_LOOP('',(#175,#176,#177,#178));
#124=EDGE_LOOP('',(#179));
#125=EDGE_LOOP('',(#180,#181,#182,#183));
#126=EDGE_LOOP('',(#184,#185,#186,#187));
#127=EDGE_LOOP('',(#188,#189,#190,#191));
#128=EDGE_LOOP('',(#192));
#129=EDGE_LOOP('',(#193));
#130=EDGE_LOOP('',(#194));
#131=EDGE_LOOP('',(#195));
#132=EDGE_LOOP('',(#196));
#133=EDGE_LOOP('',(#197));
#134=ELLIPSE('',#256,72.4693326287059,35.);
#135=ELLIPSE('',#257,35.0480321099272,35.);
#136=ELLIPSE('',#258,72.4693326287058,35.);
#137=ELLIPSE('',#260,35.0480321099272,35.);
#138=ELLIPSE('',#262,74.8625400540686,36.1411623905608);
#139=ELLIPSE('',#264,74.8347310137927,36.127737104165);
#140=ELLIPSE('',#266,35.7094291580136,35.6604785410443);
#141=ELLIPSE('',#272,35.6271977467272,35.5783598528793);
#142=ORIENTED_EDGE('',*,*,#218,.F.);
#143=ORIENTED_EDGE('',*,*,#219,.F.);
#144=ORIENTED_EDGE('',*,*,#220,.T.);
#145=ORIENTED_EDGE('',*,*,#221,.F.);
#146=ORIENTED_EDGE('',*,*,#222,.T.);
#147=ORIENTED_EDGE('',*,*,#223,.F.);
#148=ORIENTED_EDGE('',*,*,#224,.T.);
#149=ORIENTED_EDGE('',*,*,#225,.T.);
#150=ORIENTED_EDGE('',*,*,#226,.T.);
#151=ORIENTED_EDGE('',*,*,#227,.F.);
#152=ORIENTED_EDGE('',*,*,#228,.F.);
#153=ORIENTED_EDGE('',*,*,#221,.T.);
#154=ORIENTED_EDGE('',*,*,#229,.F.);
#155=ORIENTED_EDGE('',*,*,#230,.F.);
#156=ORIENTED_EDGE('',*,*,#231,.T.);
#157=ORIENTED_EDGE('',*,*,#219,.T.);
#158=ORIENTED_EDGE('',*,*,#232,.T.);
#159=ORIENTED_EDGE('',*,*,#226,.F.);
#160=ORIENTED_EDGE('',*,*,#220,.F.);
#161=ORIENTED_EDGE('',*,*,#231,.F.);
#162=ORIENTED_EDGE('',*,*,#233,.T.);
#163=ORIENTED_EDGE('',*,*,#223,.T.);
#164=ORIENTED_EDGE('',*,*,#234,.F.);
#165=ORIENTED_EDGE('',*,*,#235,.F.);
#166=ORIENTED_EDGE('',*,*,#236,.T.);
#167=ORIENTED_EDGE('',*,*,#237,.T.);
#168=ORIENTED_EDGE('',*,*,#234,.T.);
#169=ORIENTED_EDGE('',*,*,#222,.F.);
#170=ORIENTED_EDGE('',*,*,#238,.F.);
#171=ORIENTED_EDGE('',*,*,#239,.T.);
#172=ORIENTED_EDGE('',*,*,#238,.T.);
#173=ORIENTED_EDGE('',*,*,#225,.F.);
#174=ORIENTED_EDGE('',*,*,#240,.F.);
#175=ORIENTED_EDGE('',*,*,#241,.T.);
#176=ORIENTED_EDGE('',*,*,#240,.T.);
#177=ORIENTED_EDGE('',*,*,#224,.F.);
#178=ORIENTED_EDGE('',*,*,#233,.F.);
#179=ORIENTED_EDGE('',*,*,#242,.F.);
#180=ORIENTED_EDGE('',*,*,#243,.F.);
#181=ORIENTED_EDGE('',*,*,#229,.T.);
#182=ORIENTED_EDGE('',*,*,#218,.T.);
#183=ORIENTED_EDGE('',*,*,#228,.T.);
#184=ORIENTED_EDGE('',*,*,#241,.F.);
#185=ORIENTED_EDGE('',*,*,#235,.T.);
#186=ORIENTED_EDGE('',*,*,#237,.F.);
#187=ORIENTED_EDGE('',*,*,#239,.F.);
#188=ORIENTED_EDGE('',*,*,#227,.T.);
#189=ORIENTED_EDGE('',*,*,#232,.F.);
#190=ORIENTED_EDGE('',*,*,#230,.T.);
#191=ORIENTED_EDGE('',*,*,#243,.T.);
#192=ORIENTED_EDGE('',*,*,#244,.F.);
#193=ORIENTED_EDGE('',*,*,#242,.T.);
#194=ORIENTED_EDGE('',*,*,#244,.T.);
#195=ORIENTED_EDGE('',*,*,#245,.T.);
#196=ORIENTED_EDGE('',*,*,#236,.F.);
#197=ORIENTED_EDGE('',*,*,#245,.F.);
#198=VERTEX_POINT('',#362);
#199=VERTEX_POINT('',#363);
#200=VERTEX_POINT('',#365);
#201=VERTEX_POINT('',#367);
#202=VERTEX_POINT('',#370);
#203=VERTEX_POINT('',#371);
#204=VERTEX_POINT('',#373);
#205=VERTEX_POINT('',#375);
#206=VERTEX_POINT('',#379);
#207=VERTEX_POINT('',#381);
#208=VERTEX_POINT('',#385);
#209=VERTEX_POINT('',#387);
#210=VERTEX_POINT('',#393);
#211=VERTEX_POINT('',#395);
#212=VERTEX_POINT('',#398);
#213=VERTEX_POINT('',#404);
#214=VERTEX_POINT('',#408);
#215=VERTEX_POINT('',#417);
#216=VERTEX_POINT('',#423);
#217=VERTEX_POINT('',#427);
#218=EDGE_CURVE('',#198,#199,#246,.T.);
#219=EDGE_CURVE('',#200,#198,#134,.T.);
#220=EDGE_CURVE('',#200,#201,#135,.T.);
#221=EDGE_CURVE('',#199,#201,#136,.T.);
#222=EDGE_CURVE('',#202,#203,#84,.T.);
#223=EDGE_CURVE('',#204,#203,#247,.T.);
#224=EDGE_CURVE('',#204,#205,#85,.T.);
#225=EDGE_CURVE('',#205,#202,#137,.T.);
#226=EDGE_CURVE('',#201,#206,#86,.T.);
#227=EDGE_CURVE('',#207,#206,#138,.T.);
#228=EDGE_CURVE('',#199,#207,#87,.T.);
#229=EDGE_CURVE('',#208,#198,#88,.T.);
#230=EDGE_CURVE('',#209,#208,#139,.T.);
#231=EDGE_CURVE('',#209,#200,#89,.T.);
#232=EDGE_CURVE('',#209,#206,#140,.T.);
#233=EDGE_CURVE('',#210,#204,#90,.T.);
#234=EDGE_CURVE('',#211,#203,#91,.T.);
#235=EDGE_CURVE('',#210,#211,#248,.T.);
#236=EDGE_CURVE('',#212,#212,#249,.T.);
#237=EDGE_CURVE('',#213,#211,#44,.T.);
#238=EDGE_CURVE('',#213,#202,#92,.T.);
#239=EDGE_CURVE('',#214,#213,#141,.T.);
#240=EDGE_CURVE('',#214,#205,#93,.T.);
#241=EDGE_CURVE('',#210,#214,#45,.T.);
#242=EDGE_CURVE('',#215,#215,#250,.T.);
#243=EDGE_CURVE('',#208,#207,#251,.T.);
#244=EDGE_CURVE('',#216,#216,#252,.T.);
#245=EDGE_CURVE('',#217,#217,#253,.T.);
#246=CIRCLE('',#255,35.);
#247=CIRCLE('',#259,35.);
#248=CIRCLE('',#268,35.4387858337475);
#249=CIRCLE('',#269,31.);
#250=CIRCLE('',#275,31.4);
#251=CIRCLE('',#276,35.7938150040623);
#252=CIRCLE('',#280,31.4);
#253=CIRCLE('',#283,31.);
#254=AXIS2_PLACEMENT_3D('',#360,#286,#287);
#255=AXIS2_PLACEMENT_3D('',#361,#288,#289);
#256=AXIS2_PLACEMENT_3D('',#364,#290,#291);
#257=AXIS2_PLACEMENT_3D('',#366,#292,#293);
#258=AXIS2_PLACEMENT_3D('',#368,#294,#295);
#259=AXIS2_PLACEMENT_3D('',#372,#297,#298);
#260=AXIS2_PLACEMENT_3D('',#376,#300,#301);
#261=AXIS2_PLACEMENT_3D('',#377,#302,#303);
#262=AXIS2_PLACEMENT_3D('',#380,#305,#306);
#263=AXIS2_PLACEMENT_3D('',#383,#308,#309);
#264=AXIS2_PLACEMENT_3D('',#386,#311,#312);
#265=AXIS2_PLACEMENT_3D('',#389,#314,#315);
#266=AXIS2_PLACEMENT_3D('',#390,#316,#317);
#267=AXIS2_PLACEMENT_3D('',#391,#318,#319);
#268=AXIS2_PLACEMENT_3D('',#396,#322,#323);
#269=AXIS2_PLACEMENT_3D('',#397,#324,#325);
#270=AXIS2_PLACEMENT_3D('',#399,#326,#327);
#271=AXIS2_PLACEMENT_3D('',#406,#329,#330);
#272=AXIS2_PLACEMENT_3D('',#407,#331,#332);
#273=AXIS2_PLACEMENT_3D('',#410,#334,#335);
#274=AXIS2_PLACEMENT_3D('',#415,#336,#337);
#275=AXIS2_PLACEMENT_3D('',#416,#338,#339);
#276=AXIS2_PLACEMENT_3D('',#418,#340,#341);
#277=AXIS2_PLACEMENT_3D('',#419,#342,#343);
#278=AXIS2_PLACEMENT_3D('',#420,#344,#345);
#279=AXIS2_PLACEMENT_3D('',#421,#346,#347);
#280=AXIS2_PLACEMENT_3D('',#422,#348,#349);
#281=AXIS2_PLACEMENT_3D('',#424,#350,#351);
#282=AXIS2_PLACEMENT_3D('',#425,#352,#353);
#283=AXIS2_PLACEMENT_3D('',#426,#354,#355);
#284=AXIS2_PLACEMENT_3D('',#428,#356,#357);
#285=AXIS2_PLACEMENT_3D('',#429,#358,#359);
#286=DIRECTION('',(0.,0.,1.));
#287=DIRECTION('',(1.,0.,0.));
#288=DIRECTION('',(0.,0.,1.));
#289=DIRECTION('',(1.,0.,0.));
#290=DIRECTION('',(0.558061704261374,0.674769559748983,-0.482962913144534));
#291=DIRECTION('',(0.307800988671429,0.372171636272762,0.875640807938361));
#292=DIRECTION('',(-0.0483870007597211,0.0199436825421505,-0.998629534754574));
#293=DIRECTION('',(-0.923278975405448,0.380548132643433,0.0523359562429438));
#294=DIRECTION('',(-0.079481461115652,-0.872026101596659,-0.482962913144534));
#295=DIRECTION('',(-0.0438382926576687,-0.480969208546571,0.875640807938361));
#296=DIRECTION('',(0.,0.,-1.));
#297=DIRECTION('',(0.,0.,-1.));
#298=DIRECTION('',(1.,0.,0.));
#299=DIRECTION('',(0.,0.,1.));
#300=DIRECTION('',(-0.0471389036412833,0.022737107981472,0.998629534754574));
#301=DIRECTION('',(0.899463863688979,-0.433849865278105,0.0523359562429436));
#302=DIRECTION('',(0.,0.,1.));
#303=DIRECTION('',(1.,0.,0.));
#304=DIRECTION('',(-0.99675671353238,0.0634004695004802,0.0495624302798667));
#305=DIRECTION('',(-0.079481461115652,-0.872026101596659,-0.482962913144534));
#306=DIRECTION('',(-0.0438382926576686,-0.480969208546571,0.875640807938361));
#307=DIRECTION('',(-0.99587193023791,0.0907694803566612,0.));
#308=DIRECTION('',(0.079481461115652,0.872026101596659,0.482962913144534));
#309=DIRECTION('',(-3.46944695195361E-17,0.484495690692787,-0.874793647496437));
#310=DIRECTION('',(0.770600860114872,-0.63731806375641,0.));
#311=DIRECTION('',(0.558061704261374,0.674769559748983,-0.482962913144534));
#312=DIRECTION('',(0.307800988671429,0.372171636272762,0.875640807938361));
#313=DIRECTION('',(0.751943535106674,-0.657361761525593,-0.0495624302798667));
#314=DIRECTION('',(-0.558061704261374,-0.674769559748983,0.482962913144534));
#315=DIRECTION('',(-0.770600860114872,0.637318063756409,4.30211422042248E-16));
#316=DIRECTION('',(-0.0483870007597211,0.0199436825421505,-0.998629534754574));
#317=DIRECTION('',(-0.923278975405448,0.380548132643432,0.0523359562429438));
#318=DIRECTION('',(-0.0483870007597211,0.0199436825421505,-0.998629534754574));
#319=DIRECTION('',(0.998828196705023,-1.73472347597681E-18,-0.0483966266075583));
#320=DIRECTION('',(0.98245039772551,-0.186524036008736,0.));
#321=DIRECTION('',(0.757564984384049,-0.652759752462723,0.));
#322=DIRECTION('',(0.,0.,1.));
#323=DIRECTION('',(1.,0.,0.));
#324=DIRECTION('',(0.,0.,1.));
#325=DIRECTION('',(1.,0.,0.));
#326=DIRECTION('',(0.,0.,1.));
#327=DIRECTION('',(-1.,0.,0.));
#328=DIRECTION('',(0.756596181868126,-0.651924978808299,0.0505572901604954));
#329=DIRECTION('',(-0.652759752462724,-0.757564984384049,-2.39403336070464E-16));
#330=DIRECTION('',(-0.757564984384049,0.652759752462724,0.));
#331=DIRECTION('',(-0.0471389036412833,0.022737107981472,0.998629534754574));
#332=DIRECTION('',(0.899463863688979,-0.433849865278105,0.0523359562429436));
#333=DIRECTION('',(0.981194003308258,-0.186285502075555,0.0505572901604954));
#334=DIRECTION('',(-0.0471389036412833,0.022737107981472,0.998629534754574));
#335=DIRECTION('',(-0.998887768675264,0.,-0.0471510932105687));
#336=DIRECTION('',(0.186524036008736,0.98245039772551,5.50693795321079E-15));
#337=DIRECTION('',(0.98245039772551,-0.186524036008736,0.));
#338=DIRECTION('',(0.,0.,1.));
#339=DIRECTION('',(1.,0.,0.));
#340=DIRECTION('',(0.,0.,-1.));
#341=DIRECTION('',(1.,0.,0.));
#342=DIRECTION('',(0.,0.,1.));
#343=DIRECTION('',(-1.,0.,0.));
#344=DIRECTION('',(0.,0.,1.));
#345=DIRECTION('',(-1.,0.,-8.75627040444193E-16));
#346=DIRECTION('',(0.,0.,1.));
#347=DIRECTION('',(-1.,0.,-8.75627040444193E-16));
#348=DIRECTION('',(0.,0.,1.));
#349=DIRECTION('',(-1.,0.,0.));
#350=DIRECTION('',(0.,0.,1.));
#351=DIRECTION('',(-1.,0.,0.));
#352=DIRECTION('',(0.,0.,-1.));
#353=DIRECTION('',(1.,0.,0.));
#354=DIRECTION('',(0.,0.,-1.));
#355=DIRECTION('',(1.,0.,0.));
#356=DIRECTION('',(0.,0.,1.));
#357=DIRECTION('',(-1.,0.,0.));
#358=DIRECTION('',(0.,0.,-1.));
#359=DIRECTION('',(1.,0.,0.));
#360=CARTESIAN_POINT('',(0.,0.,0.));
#361=CARTESIAN_POINT('',(0.,0.,22.6));
#362=CARTESIAN_POINT('',(-32.6943495011159,12.4931785666773,22.6));
#363=CARTESIAN_POINT('',(-31.7969382470066,14.6271910535156,22.6));
#364=CARTESIAN_POINT('',(0.,0.,42.923398616883));
#365=CARTESIAN_POINT('',(-33.8980774766485,8.71322806927104,15.9279555618046));
#366=CARTESIAN_POINT('',(0.,0.,14.1114659708048));
#367=CARTESIAN_POINT('',(-29.9238120891966,18.1539381416389,15.9239297869539));
#368=CARTESIAN_POINT('',(0.,0.,43.7776618917519));
#369=CARTESIAN_POINT('',(-31.703308444567,14.8290334704809,3.50148422235347));
#370=CARTESIAN_POINT('',(-31.7033084445671,14.8290334704809,7.04991749997522));
#371=CARTESIAN_POINT('',(-31.703308444567,14.8290334704809,0.));
#372=CARTESIAN_POINT('',(0.,0.,0.));
#373=CARTESIAN_POINT('',(-31.21639678748,15.828347090161,0.));
#374=CARTESIAN_POINT('',(-31.21639678748,15.828347090161,3.50153648936255));
#375=CARTESIAN_POINT('',(-31.21639678748,15.828347090161,7.05014879696692));
#376=CARTESIAN_POINT('',(0.,0.,8.88405966522538));
#377=CARTESIAN_POINT('',(0.,0.,-15.));
#378=CARTESIAN_POINT('',(-32.9397519014464,18.3457723148989,16.0738934688068));
#379=CARTESIAN_POINT('',(-30.6983219905448,18.2032022105051,15.9624412837569));
#380=CARTESIAN_POINT('',(-0.0934729607207246,-1.02553300351872,45.6447222602987));
#381=CARTESIAN_POINT('',(-32.6343936188114,14.7035215400095,22.6));
#382=CARTESIAN_POINT('',(-32.5462732831172,14.6954897471283,22.6));
#383=CARTESIAN_POINT('',(-32.4403777815699,15.8573159150767,20.4848076211353));
#384=CARTESIAN_POINT('',(-33.2608805235781,12.961722624933,22.6));
#385=CARTESIAN_POINT('',(-33.3392605031886,13.0265460366733,22.6));
#386=CARTESIAN_POINT('',(0.65605616568787,0.793257675112702,44.7897654321928));
#387=CARTESIAN_POINT('',(-34.4780358830822,9.22023752126496,15.9661820332643));
#388=CARTESIAN_POINT('',(-36.1121954098822,10.6488474301176,16.0738934688068));
#389=CARTESIAN_POINT('',(-34.0044026385166,12.062707182143,20.4848076211353));
#390=CARTESIAN_POINT('',(-0.0271435851762671,0.0111877784799988,14.1130046016238));
#391=CARTESIAN_POINT('',(-33.2223902100433,13.9600115486099,16.));
#392=CARTESIAN_POINT('',(7.99920611009807,8.38303224891669,0.));
#393=CARTESIAN_POINT('',(-31.6649321170913,15.9135041832471,-1.05920032316888E-16));
#394=CARTESIAN_POINT('',(-32.4503300861486,15.4727084975673,0.));
#395=CARTESIAN_POINT('',(-32.0484013830514,15.1263845700501,0.));
#396=CARTESIAN_POINT('',(0.,0.,0.));
#397=CARTESIAN_POINT('',(0.,0.,0.));
#398=CARTESIAN_POINT('',(31.,0.,0.));
#399=CARTESIAN_POINT('',(0.,-33.75,0.));
#400=CARTESIAN_POINT('',(-32.1350938396871,15.2010835697404,7.021064724834));
#401=CARTESIAN_POINT('',(-32.106199781325,15.1761868562269,4.680709742825));
#402=CARTESIAN_POINT('',(-32.0773023072629,15.151287199558,2.34035483429117));
#403=CARTESIAN_POINT('',(-32.0484013830514,15.1263845700501,0.));
#404=CARTESIAN_POINT('',(-32.1350938396871,15.2010835697404,7.021064724834));
#405=CARTESIAN_POINT('',(-32.5090014093803,15.5232629440093,6.99607946328072));
#406=CARTESIAN_POINT('',(-32.4503300861486,15.4727084975673,3.50000000000003));
#407=CARTESIAN_POINT('',(0.0263825481938344,-0.0127254306055657,8.88559475289659));
#408=CARTESIAN_POINT('',(-31.7776093173614,15.9348966181316,7.02123159545606));
#409=CARTESIAN_POINT('',(-32.3632857164574,16.0460907567948,6.99105386144075));
#410=CARTESIAN_POINT('',(-32.3199965089273,15.7429179693641,7.00000000000006));
#411=CARTESIAN_POINT('',(-31.6649321170913,15.9135041832471,-1.05920032316888E-16));
#412=CARTESIAN_POINT('',(-31.7024959302342,15.9206358960049,2.34041045289779));
#413=CARTESIAN_POINT('',(-31.7400549810707,15.9277667046105,4.68082098499112));
#414=CARTESIAN_POINT('',(-31.7776093173614,15.9348966181316,7.02123159545606));
#415=CARTESIAN_POINT('',(-32.189662931706,16.0131274411609,3.50000000000003));
#416=CARTESIAN_POINT('',(0.,0.,22.6));
#417=CARTESIAN_POINT('',(31.4,0.,22.6));
#418=CARTESIAN_POINT('',(0.,0.,22.6));
#419=CARTESIAN_POINT('',(0.,0.,22.6));
#420=CARTESIAN_POINT('',(0.,0.,22.9874341461505));
#421=CARTESIAN_POINT('',(0.,0.,22.9874341461505));
#422=CARTESIAN_POINT('',(0.,0.,34.5));
#423=CARTESIAN_POINT('',(-31.4,0.,34.5));
#424=CARTESIAN_POINT('',(0.,0.,0.));
#425=CARTESIAN_POINT('',(0.,-31.4,34.5));
#426=CARTESIAN_POINT('',(0.,0.,20.5));
#427=CARTESIAN_POINT('',(31.,0.,20.5));
#428=CARTESIAN_POINT('',(0.,0.,20.5));
#429=CARTESIAN_POINT('',(0.,0.,20.5));
#430=MECHANICAL_DESIGN_GEOMETRIC_PRESENTATION_REPRESENTATION('',(#32),#431);
#431=(
GEOMETRIC_REPRESENTATION_CONTEXT(3)
GLOBAL_UNCERTAINTY_ASSIGNED_CONTEXT((#432))
GLOBAL_UNIT_ASSIGNED_CONTEXT((#438,#434,#433))
REPRESENTATION_CONTEXT('PC7TM_AuerSignal_910800900',
'TOP_LEVEL_ASSEMBLY_PART')
);
#432=UNCERTAINTY_MEASURE_WITH_UNIT(LENGTH_MEASURE(2.E-5),#438,
'DISTANCE_ACCURACY_VALUE','Maximum Tolerance applied to model');
#433=(
NAMED_UNIT(*)
SI_UNIT($,.STERADIAN.)
SOLID_ANGLE_UNIT()
);
#434=(
CONVERSION_BASED_UNIT('DEGREE',#436)
NAMED_UNIT(#435)
PLANE_ANGLE_UNIT()
);
#435=DIMENSIONAL_EXPONENTS(0.,0.,0.,0.,0.,0.,0.);
#436=PLANE_ANGLE_MEASURE_WITH_UNIT(PLANE_ANGLE_MEASURE(0.0174532925),#437);
#437=(
NAMED_UNIT(*)
PLANE_ANGLE_UNIT()
SI_UNIT($,.RADIAN.)
);
#438=(
LENGTH_UNIT()
NAMED_UNIT(*)
SI_UNIT(.MILLI.,.METRE.)
);
ENDSEC;
END-ISO-10303-21;
