ISO-10303-21;
HEADER;
/* Generated by software containing ST-Developer
 * from STEP Tools, Inc. (www.steptools.com) 
 */
/* OPTION: using custom schema-name function */

FILE_DESCRIPTION(
/* description */ (''),
/* implementation_level */ '2;1');

FILE_NAME(
/* name */ 'PC7BHV3_AuerSignal_910772313.stp',
/* time_stamp */ '2021-05-19T19:00:50+02:00',
/* author */ (''),
/* organization */ (''),
/* preprocessor_version */ 'ST-DEVELOPER v16',
/* originating_system */ 'SIEMENS PLM Software NX 10.0',
/* authorisation */ '');

FILE_SCHEMA (('AUTOMOTIVE_DESIGN { 1 0 10303 214 3 1 1 1 }'));
ENDSEC;

DATA;
#10=PROPERTY_DEFINITION_REPRESENTATION(#14,#12);
#11=PROPERTY_DEFINITION_REPRESENTATION(#15,#13);
#12=REPRESENTATION('',(#16),#431);
#13=REPRESENTATION('',(#17),#431);
#14=PROPERTY_DEFINITION('pmi validation property','',#21);
#15=PROPERTY_DEFINITION('pmi validation property','',#21);
#16=VALUE_REPRESENTATION_ITEM('number of annotations',COUNT_MEASURE(0.));
#17=VALUE_REPRESENTATION_ITEM('number of views',COUNT_MEASURE(0.));
#18=SHAPE_REPRESENTATION_RELATIONSHIP('None',
'relationship between P.Ge93604186d4yj-None and P.Ge93604186d4yj-None',
#30,#19);
#19=ADVANCED_BREP_SHAPE_REPRESENTATION('P.Ge93604186d4yj-None',(#40),#431);
#20=SHAPE_DEFINITION_REPRESENTATION(#21,#30);
#21=PRODUCT_DEFINITION_SHAPE('','',#22);
#22=PRODUCT_DEFINITION(' ','',#24,#23);
#23=PRODUCT_DEFINITION_CONTEXT('part definition',#29,'design');
#24=PRODUCT_DEFINITION_FORMATION_WITH_SPECIFIED_SOURCE(' ',' ',#26,
 .NOT_KNOWN.);
#25=PRODUCT_RELATED_PRODUCT_CATEGORY('part','',(#26));
#26=PRODUCT('P.Ge93604186d4yj','PC7BHV3_AuerSignal_910772313',' ',(#27));
#27=PRODUCT_CONTEXT(' ',#29,'mechanical');
#28=APPLICATION_PROTOCOL_DEFINITION('international standard',
'automotive_design',2010,#29);
#29=APPLICATION_CONTEXT(
'core data for automotive mechanical design processes');
#30=SHAPE_REPRESENTATION('P.Ge93604186d4yj-None',(#254),#431);
#31=PRESENTATION_LAYER_ASSIGNMENT('1','Layer 1',(#40));
#32=STYLED_ITEM('',(#33),#40);
#33=PRESENTATION_STYLE_ASSIGNMENT((#34));
#34=SURFACE_STYLE_USAGE(.BOTH.,#35);
#35=SURFACE_SIDE_STYLE('',(#36));
#36=SURFACE_STYLE_FILL_AREA(#37);
#37=FILL_AREA_STYLE('',(#38));
#38=FILL_AREA_STYLE_COLOUR('',#39);
#39=COLOUR_RGB('Dark Gray',0.2,0.2,0.2);
#40=MANIFOLD_SOLID_BREP('',#41);
#41=CLOSED_SHELL('',(#87,#88,#89,#90,#91,#92,#93,#94,#95,#96,#97,#98,#99,
#100,#101));
#42=CONICAL_SURFACE('',#281,35.7999013059853,0.9);
#43=CONICAL_SURFACE('',#282,35.7999013059853,0.9);
#44=B_SPLINE_CURVE_WITH_KNOTS('',3,(#404,#405,#406,#407),.UNSPECIFIED.,
 .F.,.F.,(4,4),(0.,1.),.UNSPECIFIED.);
#45=B_SPLINE_CURVE_WITH_KNOTS('',3,(#415,#416,#417,#418),.UNSPECIFIED.,
 .F.,.F.,(4,4),(0.,1.),.UNSPECIFIED.);
#46=LINE('',#370,#56);
#47=LINE('',#374,#57);
#48=LINE('',#384,#58);
#49=LINE('',#388,#59);
#50=LINE('',#390,#60);
#51=LINE('',#394,#61);
#52=LINE('',#398,#62);
#53=LINE('',#400,#63);
#54=LINE('',#409,#64);
#55=LINE('',#413,#65);
#56=VECTOR('',#298,1.);
#57=VECTOR('',#301,1.);
#58=VECTOR('',#312,1.);
#59=VECTOR('',#315,1.);
#60=VECTOR('',#318,1.);
#61=VECTOR('',#321,1.);
#62=VECTOR('',#328,1.);
#63=VECTOR('',#329,1.);
#64=VECTOR('',#334,1.);
#65=VECTOR('',#339,1.);
#66=ELLIPSE('',#259,35.0480321099272,35.);
#67=ELLIPSE('',#262,72.4693326287059,35.);
#68=ELLIPSE('',#263,35.0480321099272,35.);
#69=ELLIPSE('',#264,72.4693326287058,35.);
#70=ELLIPSE('',#266,74.8625400540686,36.1411623905608);
#71=ELLIPSE('',#268,74.8347310137927,36.127737104165);
#72=ELLIPSE('',#270,35.7094291580136,35.6604785410443);
#73=ELLIPSE('',#275,35.6271977467272,35.5783598528793);
#74=CYLINDRICAL_SURFACE('',#258,31.);
#75=CYLINDRICAL_SURFACE('',#265,35.);
#76=CYLINDRICAL_SURFACE('',#284,31.4);
#77=FACE_BOUND('',#123,.T.);
#78=FACE_BOUND('',#124,.T.);
#79=FACE_BOUND('',#125,.T.);
#80=FACE_BOUND('',#126,.T.);
#81=FACE_BOUND('',#130,.T.);
#82=FACE_BOUND('',#131,.T.);
#83=FACE_BOUND('',#135,.T.);
#84=FACE_BOUND('',#136,.T.);
#85=FACE_BOUND('',#139,.T.);
#86=FACE_BOUND('',#140,.T.);
#87=ADVANCED_FACE('',(#112),#102,.F.);
#88=ADVANCED_FACE('',(#77,#78),#74,.F.);
#89=ADVANCED_FACE('',(#79,#80),#75,.T.);
#90=ADVANCED_FACE('',(#113),#103,.T.);
#91=ADVANCED_FACE('',(#114),#104,.T.);
#92=ADVANCED_FACE('',(#115),#105,.T.);
#93=ADVANCED_FACE('',(#81,#82),#106,.F.);
#94=ADVANCED_FACE('',(#116),#107,.T.);
#95=ADVANCED_FACE('',(#117),#108,.T.);
#96=ADVANCED_FACE('',(#118),#109,.T.);
#97=ADVANCED_FACE('',(#83,#84),#110,.T.);
#98=ADVANCED_FACE('',(#119),#42,.T.);
#99=ADVANCED_FACE('',(#120),#43,.T.);
#100=ADVANCED_FACE('',(#85,#86),#76,.T.);
#101=ADVANCED_FACE('',(#121),#111,.F.);
#102=PLANE('',#256);
#103=PLANE('',#267);
#104=PLANE('',#269);
#105=PLANE('',#271);
#106=PLANE('',#273);
#107=PLANE('',#274);
#108=PLANE('',#276);
#109=PLANE('',#277);
#110=PLANE('',#280);
#111=PLANE('',#285);
#112=FACE_OUTER_BOUND('',#122,.T.);
#113=FACE_OUTER_BOUND('',#127,.T.);
#114=FACE_OUTER_BOUND('',#128,.T.);
#115=FACE_OUTER_BOUND('',#129,.T.);
#116=FACE_OUTER_BOUND('',#132,.T.);
#117=FACE_OUTER_BOUND('',#133,.T.);
#118=FACE_OUTER_BOUND('',#134,.T.);
#119=FACE_OUTER_BOUND('',#137,.T.);
#120=FACE_OUTER_BOUND('',#138,.T.);
#121=FACE_OUTER_BOUND('',#141,.T.);
#122=EDGE_LOOP('',(#142));
#123=EDGE_LOOP('',(#143));
#124=EDGE_LOOP('',(#144));
#125=EDGE_LOOP('',(#145,#146,#147,#148));
#126=EDGE_LOOP('',(#149,#150,#151,#152));
#127=EDGE_LOOP('',(#153,#154,#155,#156));
#128=EDGE_LOOP('',(#157,#158,#159,#160));
#129=EDGE_LOOP('',(#161,#162,#163,#164));
#130=EDGE_LOOP('',(#165));
#131=EDGE_LOOP('',(#166,#167,#168,#169));
#132=EDGE_LOOP('',(#170,#171,#172,#173));
#133=EDGE_LOOP('',(#174,#175,#176,#177));
#134=EDGE_LOOP('',(#178,#179,#180,#181));
#135=EDGE_LOOP('',(#182));
#136=EDGE_LOOP('',(#183,#184,#185,#186));
#137=EDGE_LOOP('',(#187,#188,#189,#190));
#138=EDGE_LOOP('',(#191,#192,#193,#194));
#139=EDGE_LOOP('',(#195));
#140=EDGE_LOOP('',(#196));
#141=EDGE_LOOP('',(#197));
#142=ORIENTED_EDGE('',*,*,#218,.T.);
#143=ORIENTED_EDGE('',*,*,#219,.F.);
#144=ORIENTED_EDGE('',*,*,#218,.F.);
#145=ORIENTED_EDGE('',*,*,#220,.T.);
#146=ORIENTED_EDGE('',*,*,#221,.T.);
#147=ORIENTED_EDGE('',*,*,#222,.F.);
#148=ORIENTED_EDGE('',*,*,#223,.T.);
#149=ORIENTED_EDGE('',*,*,#224,.F.);
#150=ORIENTED_EDGE('',*,*,#225,.F.);
#151=ORIENTED_EDGE('',*,*,#226,.T.);
#152=ORIENTED_EDGE('',*,*,#227,.F.);
#153=ORIENTED_EDGE('',*,*,#228,.T.);
#154=ORIENTED_EDGE('',*,*,#229,.F.);
#155=ORIENTED_EDGE('',*,*,#230,.F.);
#156=ORIENTED_EDGE('',*,*,#227,.T.);
#157=ORIENTED_EDGE('',*,*,#231,.F.);
#158=ORIENTED_EDGE('',*,*,#232,.F.);
#159=ORIENTED_EDGE('',*,*,#233,.T.);
#160=ORIENTED_EDGE('',*,*,#225,.T.);
#161=ORIENTED_EDGE('',*,*,#234,.T.);
#162=ORIENTED_EDGE('',*,*,#228,.F.);
#163=ORIENTED_EDGE('',*,*,#226,.F.);
#164=ORIENTED_EDGE('',*,*,#233,.F.);
#165=ORIENTED_EDGE('',*,*,#219,.T.);
#166=ORIENTED_EDGE('',*,*,#235,.T.);
#167=ORIENTED_EDGE('',*,*,#222,.T.);
#168=ORIENTED_EDGE('',*,*,#236,.F.);
#169=ORIENTED_EDGE('',*,*,#237,.F.);
#170=ORIENTED_EDGE('',*,*,#238,.T.);
#171=ORIENTED_EDGE('',*,*,#236,.T.);
#172=ORIENTED_EDGE('',*,*,#221,.F.);
#173=ORIENTED_EDGE('',*,*,#239,.F.);
#174=ORIENTED_EDGE('',*,*,#240,.T.);
#175=ORIENTED_EDGE('',*,*,#239,.T.);
#176=ORIENTED_EDGE('',*,*,#220,.F.);
#177=ORIENTED_EDGE('',*,*,#241,.F.);
#178=ORIENTED_EDGE('',*,*,#242,.T.);
#179=ORIENTED_EDGE('',*,*,#241,.T.);
#180=ORIENTED_EDGE('',*,*,#223,.F.);
#181=ORIENTED_EDGE('',*,*,#235,.F.);
#182=ORIENTED_EDGE('',*,*,#243,.F.);
#183=ORIENTED_EDGE('',*,*,#244,.F.);
#184=ORIENTED_EDGE('',*,*,#231,.T.);
#185=ORIENTED_EDGE('',*,*,#224,.T.);
#186=ORIENTED_EDGE('',*,*,#230,.T.);
#187=ORIENTED_EDGE('',*,*,#242,.F.);
#188=ORIENTED_EDGE('',*,*,#237,.T.);
#189=ORIENTED_EDGE('',*,*,#238,.F.);
#190=ORIENTED_EDGE('',*,*,#240,.F.);
#191=ORIENTED_EDGE('',*,*,#229,.T.);
#192=ORIENTED_EDGE('',*,*,#234,.F.);
#193=ORIENTED_EDGE('',*,*,#232,.T.);
#194=ORIENTED_EDGE('',*,*,#244,.T.);
#195=ORIENTED_EDGE('',*,*,#245,.F.);
#196=ORIENTED_EDGE('',*,*,#243,.T.);
#197=ORIENTED_EDGE('',*,*,#245,.T.);
#198=VERTEX_POINT('',#362);
#199=VERTEX_POINT('',#365);
#200=VERTEX_POINT('',#368);
#201=VERTEX_POINT('',#369);
#202=VERTEX_POINT('',#371);
#203=VERTEX_POINT('',#373);
#204=VERTEX_POINT('',#376);
#205=VERTEX_POINT('',#377);
#206=VERTEX_POINT('',#379);
#207=VERTEX_POINT('',#381);
#208=VERTEX_POINT('',#385);
#209=VERTEX_POINT('',#387);
#210=VERTEX_POINT('',#391);
#211=VERTEX_POINT('',#393);
#212=VERTEX_POINT('',#399);
#213=VERTEX_POINT('',#401);
#214=VERTEX_POINT('',#408);
#215=VERTEX_POINT('',#412);
#216=VERTEX_POINT('',#421);
#217=VERTEX_POINT('',#427);
#218=EDGE_CURVE('',#198,#198,#246,.T.);
#219=EDGE_CURVE('',#199,#199,#247,.T.);
#220=EDGE_CURVE('',#200,#201,#66,.T.);
#221=EDGE_CURVE('',#201,#202,#46,.T.);
#222=EDGE_CURVE('',#203,#202,#248,.T.);
#223=EDGE_CURVE('',#203,#200,#47,.T.);
#224=EDGE_CURVE('',#204,#205,#249,.T.);
#225=EDGE_CURVE('',#206,#204,#67,.T.);
#226=EDGE_CURVE('',#206,#207,#68,.T.);
#227=EDGE_CURVE('',#205,#207,#69,.T.);
#228=EDGE_CURVE('',#207,#208,#48,.T.);
#229=EDGE_CURVE('',#209,#208,#70,.T.);
#230=EDGE_CURVE('',#205,#209,#49,.T.);
#231=EDGE_CURVE('',#210,#204,#50,.T.);
#232=EDGE_CURVE('',#211,#210,#71,.T.);
#233=EDGE_CURVE('',#211,#206,#51,.T.);
#234=EDGE_CURVE('',#211,#208,#72,.T.);
#235=EDGE_CURVE('',#212,#203,#52,.T.);
#236=EDGE_CURVE('',#213,#202,#53,.T.);
#237=EDGE_CURVE('',#212,#213,#250,.T.);
#238=EDGE_CURVE('',#214,#213,#44,.T.);
#239=EDGE_CURVE('',#214,#201,#54,.T.);
#240=EDGE_CURVE('',#215,#214,#73,.T.);
#241=EDGE_CURVE('',#215,#200,#55,.T.);
#242=EDGE_CURVE('',#212,#215,#45,.T.);
#243=EDGE_CURVE('',#216,#216,#251,.T.);
#244=EDGE_CURVE('',#210,#209,#252,.T.);
#245=EDGE_CURVE('',#217,#217,#253,.T.);
#246=CIRCLE('',#255,31.);
#247=CIRCLE('',#257,31.);
#248=CIRCLE('',#260,35.);
#249=CIRCLE('',#261,35.);
#250=CIRCLE('',#272,35.4387858337475);
#251=CIRCLE('',#278,31.4);
#252=CIRCLE('',#279,35.7938150040623);
#253=CIRCLE('',#283,31.4);
#254=AXIS2_PLACEMENT_3D('',#360,#286,#287);
#255=AXIS2_PLACEMENT_3D('',#361,#288,#289);
#256=AXIS2_PLACEMENT_3D('',#363,#290,#291);
#257=AXIS2_PLACEMENT_3D('',#364,#292,#293);
#258=AXIS2_PLACEMENT_3D('',#366,#294,#295);
#259=AXIS2_PLACEMENT_3D('',#367,#296,#297);
#260=AXIS2_PLACEMENT_3D('',#372,#299,#300);
#261=AXIS2_PLACEMENT_3D('',#375,#302,#303);
#262=AXIS2_PLACEMENT_3D('',#378,#304,#305);
#263=AXIS2_PLACEMENT_3D('',#380,#306,#307);
#264=AXIS2_PLACEMENT_3D('',#382,#308,#309);
#265=AXIS2_PLACEMENT_3D('',#383,#310,#311);
#266=AXIS2_PLACEMENT_3D('',#386,#313,#314);
#267=AXIS2_PLACEMENT_3D('',#389,#316,#317);
#268=AXIS2_PLACEMENT_3D('',#392,#319,#320);
#269=AXIS2_PLACEMENT_3D('',#395,#322,#323);
#270=AXIS2_PLACEMENT_3D('',#396,#324,#325);
#271=AXIS2_PLACEMENT_3D('',#397,#326,#327);
#272=AXIS2_PLACEMENT_3D('',#402,#330,#331);
#273=AXIS2_PLACEMENT_3D('',#403,#332,#333);
#274=AXIS2_PLACEMENT_3D('',#410,#335,#336);
#275=AXIS2_PLACEMENT_3D('',#411,#337,#338);
#276=AXIS2_PLACEMENT_3D('',#414,#340,#341);
#277=AXIS2_PLACEMENT_3D('',#419,#342,#343);
#278=AXIS2_PLACEMENT_3D('',#420,#344,#345);
#279=AXIS2_PLACEMENT_3D('',#422,#346,#347);
#280=AXIS2_PLACEMENT_3D('',#423,#348,#349);
#281=AXIS2_PLACEMENT_3D('',#424,#350,#351);
#282=AXIS2_PLACEMENT_3D('',#425,#352,#353);
#283=AXIS2_PLACEMENT_3D('',#426,#354,#355);
#284=AXIS2_PLACEMENT_3D('',#428,#356,#357);
#285=AXIS2_PLACEMENT_3D('',#429,#358,#359);
#286=DIRECTION('',(0.,0.,1.));
#287=DIRECTION('',(1.,0.,0.));
#288=DIRECTION('',(0.,0.,-1.));
#289=DIRECTION('',(1.,0.,0.));
#290=DIRECTION('',(0.,0.,1.));
#291=DIRECTION('',(1.,0.,0.));
#292=DIRECTION('',(0.,0.,1.));
#293=DIRECTION('',(1.,0.,0.));
#294=DIRECTION('',(0.,0.,-1.));
#295=DIRECTION('',(-1.,0.,0.));
#296=DIRECTION('',(-0.0471389036412833,0.022737107981472,0.998629534754574));
#297=DIRECTION('',(0.899463863688979,-0.433849865278105,0.0523359562429436));
#298=DIRECTION('',(0.,0.,-1.));
#299=DIRECTION('',(0.,0.,-1.));
#300=DIRECTION('',(1.,0.,0.));
#301=DIRECTION('',(0.,0.,1.));
#302=DIRECTION('',(0.,0.,1.));
#303=DIRECTION('',(1.,0.,0.));
#304=DIRECTION('',(0.558061704261374,0.674769559748983,-0.482962913144534));
#305=DIRECTION('',(0.307800988671429,0.372171636272762,0.875640807938361));
#306=DIRECTION('',(-0.0483870007597211,0.0199436825421505,-0.998629534754574));
#307=DIRECTION('',(-0.923278975405448,0.380548132643433,0.0523359562429438));
#308=DIRECTION('',(-0.079481461115652,-0.872026101596659,-0.482962913144534));
#309=DIRECTION('',(-0.0438382926576687,-0.480969208546571,0.875640807938361));
#310=DIRECTION('',(0.,0.,1.));
#311=DIRECTION('',(1.,0.,0.));
#312=DIRECTION('',(-0.99675671353238,0.0634004695004802,0.0495624302798667));
#313=DIRECTION('',(-0.079481461115652,-0.872026101596659,-0.482962913144534));
#314=DIRECTION('',(-0.0438382926576686,-0.480969208546571,0.875640807938361));
#315=DIRECTION('',(-0.99587193023791,0.0907694803566613,0.));
#316=DIRECTION('',(0.079481461115652,0.872026101596659,0.482962913144534));
#317=DIRECTION('',(3.46944695195361E-17,-0.484495690692787,0.874793647496436));
#318=DIRECTION('',(0.770600860114872,-0.63731806375641,0.));
#319=DIRECTION('',(0.558061704261374,0.674769559748983,-0.482962913144534));
#320=DIRECTION('',(0.307800988671429,0.372171636272762,0.875640807938361));
#321=DIRECTION('',(0.751943535106674,-0.657361761525593,-0.0495624302798667));
#322=DIRECTION('',(-0.558061704261374,-0.674769559748983,0.482962913144534));
#323=DIRECTION('',(0.770600860114873,-0.637318063756409,-4.37150315946155E-16));
#324=DIRECTION('',(-0.0483870007597211,0.0199436825421505,-0.998629534754574));
#325=DIRECTION('',(-0.923278975405448,0.380548132643432,0.0523359562429438));
#326=DIRECTION('',(-0.0483870007597211,0.0199436825421505,-0.998629534754574));
#327=DIRECTION('',(-0.998828196705023,1.73472347597681E-18,0.0483966266075583));
#328=DIRECTION('',(0.98245039772551,-0.186524036008736,0.));
#329=DIRECTION('',(0.757564984384049,-0.652759752462723,0.));
#330=DIRECTION('',(0.,0.,1.));
#331=DIRECTION('',(1.,0.,0.));
#332=DIRECTION('',(0.,0.,1.));
#333=DIRECTION('',(1.,0.,0.));
#334=DIRECTION('',(0.756596181868126,-0.651924978808299,0.0505572901604954));
#335=DIRECTION('',(-0.652759752462724,-0.757564984384049,-2.39403336070464E-16));
#336=DIRECTION('',(0.757564984384049,-0.652759752462724,0.));
#337=DIRECTION('',(-0.0471389036412833,0.022737107981472,0.998629534754574));
#338=DIRECTION('',(0.899463863688979,-0.433849865278105,0.0523359562429436));
#339=DIRECTION('',(0.981194003308258,-0.186285502075555,0.0505572901604954));
#340=DIRECTION('',(-0.0471389036412833,0.022737107981472,0.998629534754574));
#341=DIRECTION('',(0.998887768675264,0.,0.0471510932105687));
#342=DIRECTION('',(0.186524036008736,0.98245039772551,5.50693795321079E-15));
#343=DIRECTION('',(-0.98245039772551,0.186524036008736,0.));
#344=DIRECTION('',(0.,0.,1.));
#345=DIRECTION('',(1.,0.,0.));
#346=DIRECTION('',(0.,0.,-1.));
#347=DIRECTION('',(1.,0.,0.));
#348=DIRECTION('',(0.,0.,1.));
#349=DIRECTION('',(1.,0.,0.));
#350=DIRECTION('',(0.,0.,1.));
#351=DIRECTION('',(1.,0.,1.21240667138427E-15));
#352=DIRECTION('',(0.,0.,1.));
#353=DIRECTION('',(1.,0.,-8.75627040444193E-16));
#354=DIRECTION('',(0.,0.,1.));
#355=DIRECTION('',(-1.,0.,0.));
#356=DIRECTION('',(0.,0.,1.));
#357=DIRECTION('',(1.,0.,0.));
#358=DIRECTION('',(0.,0.,-1.));
#359=DIRECTION('',(-1.,0.,0.));
#360=CARTESIAN_POINT('',(0.,0.,0.));
#361=CARTESIAN_POINT('',(0.,0.,17.5));
#362=CARTESIAN_POINT('',(31.,0.,17.5));
#363=CARTESIAN_POINT('',(0.,0.,17.5));
#364=CARTESIAN_POINT('',(0.,0.,-3.));
#365=CARTESIAN_POINT('',(31.,0.,-3.));
#366=CARTESIAN_POINT('',(0.,0.,17.5));
#367=CARTESIAN_POINT('',(0.,0.,5.88405966522539));
#368=CARTESIAN_POINT('',(-31.21639678748,15.828347090161,4.05014879696692));
#369=CARTESIAN_POINT('',(-31.7033084445671,14.8290334704809,4.04991749997522));
#370=CARTESIAN_POINT('',(-31.703308444567,14.829033470481,0.532781083308135));
#371=CARTESIAN_POINT('',(-31.703308444567,14.8290334704809,-3.));
#372=CARTESIAN_POINT('',(0.,0.,-3.));
#373=CARTESIAN_POINT('',(-31.21639678748,15.828347090161,-3.));
#374=CARTESIAN_POINT('',(-31.21639678748,15.828347090161,0.532914507116153));
#375=CARTESIAN_POINT('',(0.,0.,22.6));
#376=CARTESIAN_POINT('',(-32.6943495011159,12.4931785666773,22.6));
#377=CARTESIAN_POINT('',(-31.7969382470066,14.6271910535156,22.6));
#378=CARTESIAN_POINT('',(0.,0.,42.923398616883));
#379=CARTESIAN_POINT('',(-33.8980774766485,8.71322806927104,15.9279555618046));
#380=CARTESIAN_POINT('',(0.,0.,14.1114659708048));
#381=CARTESIAN_POINT('',(-29.9238120891966,18.1539381416389,15.9239297869539));
#382=CARTESIAN_POINT('',(0.,0.,43.7776618917519));
#383=CARTESIAN_POINT('',(0.,0.,-10.));
#384=CARTESIAN_POINT('',(-32.9397519014464,18.3457723148989,16.0738934688068));
#385=CARTESIAN_POINT('',(-30.6983219905448,18.2032022105051,15.9624412837569));
#386=CARTESIAN_POINT('',(-0.0934729607207246,-1.02553300351872,45.6447222602987));
#387=CARTESIAN_POINT('',(-32.6343936188114,14.7035215400095,22.6));
#388=CARTESIAN_POINT('',(-32.5462732831172,14.6954897471283,22.6));
#389=CARTESIAN_POINT('',(-32.4403777815699,15.8573159150767,20.4848076211353));
#390=CARTESIAN_POINT('',(-33.2608805235781,12.961722624933,22.6));
#391=CARTESIAN_POINT('',(-33.3392605031886,13.0265460366733,22.6));
#392=CARTESIAN_POINT('',(0.65605616568787,0.793257675112702,44.7897654321928));
#393=CARTESIAN_POINT('',(-34.4780358830822,9.22023752126496,15.9661820332643));
#394=CARTESIAN_POINT('',(-36.1121954098822,10.6488474301176,16.0738934688068));
#395=CARTESIAN_POINT('',(-34.0044026385166,12.062707182143,20.4848076211353));
#396=CARTESIAN_POINT('',(-0.0271435851762671,0.0111877784799988,14.1130046016238));
#397=CARTESIAN_POINT('',(-33.2223902100433,13.9600115486099,16.));
#398=CARTESIAN_POINT('',(7.99920611009807,8.38303224891669,-3.));
#399=CARTESIAN_POINT('',(-31.6649321170913,15.9135041832471,-3.));
#400=CARTESIAN_POINT('',(-32.4503300861486,15.4727084975673,-3.));
#401=CARTESIAN_POINT('',(-32.0484013830514,15.1263845700501,-3.));
#402=CARTESIAN_POINT('',(0.,0.,-3.));
#403=CARTESIAN_POINT('',(0.,-33.75,-3.));
#404=CARTESIAN_POINT('',(-32.1350938396871,15.2010835697404,4.021064724834));
#405=CARTESIAN_POINT('',(-32.106199781325,15.1761868562269,1.680709742825));
#406=CARTESIAN_POINT('',(-32.0773023072629,15.151287199558,-0.659645165708832));
#407=CARTESIAN_POINT('',(-32.0484013830514,15.1263845700501,-3.));
#408=CARTESIAN_POINT('',(-32.1350938396871,15.2010835697404,4.021064724834));
#409=CARTESIAN_POINT('',(-32.5090014093803,15.5232629440093,3.99607946328072));
#410=CARTESIAN_POINT('',(-32.4503300861486,15.4727084975673,0.500000000000027));
#411=CARTESIAN_POINT('',(0.0263825481938344,-0.0127254306055657,5.88559475289659));
#412=CARTESIAN_POINT('',(-31.7776093173614,15.9348966181316,4.02123159545606));
#413=CARTESIAN_POINT('',(-32.3632857164574,16.0460907567948,3.99105386144075));
#414=CARTESIAN_POINT('',(-32.3199965089273,15.7429179693641,4.00000000000006));
#415=CARTESIAN_POINT('',(-31.6649321170913,15.9135041832471,-3.));
#416=CARTESIAN_POINT('',(-31.7024959302342,15.9206358960049,-0.659589547102209));
#417=CARTESIAN_POINT('',(-31.7400549810707,15.9277667046105,1.68082098499112));
#418=CARTESIAN_POINT('',(-31.7776093173614,15.9348966181316,4.02123159545606));
#419=CARTESIAN_POINT('',(-32.189662931706,16.0131274411609,0.500000000000029));
#420=CARTESIAN_POINT('',(0.,0.,22.6));
#421=CARTESIAN_POINT('',(31.4,0.,22.6));
#422=CARTESIAN_POINT('',(0.,0.,22.6));
#423=CARTESIAN_POINT('',(0.,0.,22.6));
#424=CARTESIAN_POINT('',(0.,0.,19.9874341461505));
#425=CARTESIAN_POINT('',(0.,0.,22.9874341461505));
#426=CARTESIAN_POINT('',(0.,0.,34.5));
#427=CARTESIAN_POINT('',(-31.4,0.,34.5));
#428=CARTESIAN_POINT('',(0.,0.,0.));
#429=CARTESIAN_POINT('',(0.,-31.4,34.5));
#430=MECHANICAL_DESIGN_GEOMETRIC_PRESENTATION_REPRESENTATION('',(#32),#431);
#431=(
GEOMETRIC_REPRESENTATION_CONTEXT(3)
GLOBAL_UNCERTAINTY_ASSIGNED_CONTEXT((#432))
GLOBAL_UNIT_ASSIGNED_CONTEXT((#438,#434,#433))
REPRESENTATION_CONTEXT('PC7BHV3_AuerSignal_910772313',
'TOP_LEVEL_ASSEMBLY_PART')
);
#432=UNCERTAINTY_MEASURE_WITH_UNIT(LENGTH_MEASURE(2.E-5),#438,
'DISTANCE_ACCURACY_VALUE','Maximum Tolerance applied to model');
#433=(
NAMED_UNIT(*)
SI_UNIT($,.STERADIAN.)
SOLID_ANGLE_UNIT()
);
#434=(
CONVERSION_BASED_UNIT('DEGREE',#436)
NAMED_UNIT(#435)
PLANE_ANGLE_UNIT()
);
#435=DIMENSIONAL_EXPONENTS(0.,0.,0.,0.,0.,0.,0.);
#436=PLANE_ANGLE_MEASURE_WITH_UNIT(PLANE_ANGLE_MEASURE(0.0174532925),#437);
#437=(
NAMED_UNIT(*)
PLANE_ANGLE_UNIT()
SI_UNIT($,.RADIAN.)
);
#438=(
LENGTH_UNIT()
NAMED_UNIT(*)
SI_UNIT(.MILLI.,.METRE.)
);
ENDSEC;
END-ISO-10303-21;
