ISO-10303-21;
HEADER;
/* Generated by software containing ST-Developer
 * from STEP Tools, Inc. (www.steptools.com) 
 */
/* OPTION: using custom schema-name function */

FILE_DESCRIPTION(
/* description */ (''),
/* implementation_level */ '2;1');

FILE_NAME(
/* name */ 'PC7BHV7_AuerSignal_910773313.stp',
/* time_stamp */ '2021-05-20T09:03:01+02:00',
/* author */ (''),
/* organization */ (''),
/* preprocessor_version */ 'ST-DEVELOPER v16',
/* originating_system */ 'SIEMENS PLM Software NX 10.0',
/* authorisation */ '');

FILE_SCHEMA (('AUTOMOTIVE_DESIGN { 1 0 10303 214 3 1 1 1 }'));
ENDSEC;

DATA;
#10=PROPERTY_DEFINITION_REPRESENTATION(#14,#12);
#11=PROPERTY_DEFINITION_REPRESENTATION(#15,#13);
#12=REPRESENTATION('',(#16),#431);
#13=REPRESENTATION('',(#17),#431);
#14=PROPERTY_DEFINITION('pmi validation property','',#21);
#15=PROPERTY_DEFINITION('pmi validation property','',#21);
#16=VALUE_REPRESENTATION_ITEM('number of annotations',COUNT_MEASURE(0.));
#17=VALUE_REPRESENTATION_ITEM('number of views',COUNT_MEASURE(0.));
#18=SHAPE_REPRESENTATION_RELATIONSHIP('None',
'relationship between P.Ge5A4074D5e7ng-None and P.Ge5A4074D5e7ng-None',
#30,#19);
#19=ADVANCED_BREP_SHAPE_REPRESENTATION('P.Ge5A4074D5e7ng-None',(#40),#431);
#20=SHAPE_DEFINITION_REPRESENTATION(#21,#30);
#21=PRODUCT_DEFINITION_SHAPE('','',#22);
#22=PRODUCT_DEFINITION(' ','',#24,#23);
#23=PRODUCT_DEFINITION_CONTEXT('part definition',#29,'design');
#24=PRODUCT_DEFINITION_FORMATION_WITH_SPECIFIED_SOURCE(' ',' ',#26,
 .NOT_KNOWN.);
#25=PRODUCT_RELATED_PRODUCT_CATEGORY('part','',(#26));
#26=PRODUCT('P.Ge5A4074D5e7ng','PC7ASI20_AuerSignal_910775200',' ',(#27));
#27=PRODUCT_CONTEXT(' ',#29,'mechanical');
#28=APPLICATION_PROTOCOL_DEFINITION('international standard',
'automotive_design',2010,#29);
#29=APPLICATION_CONTEXT(
'core data for automotive mechanical design processes');
#30=SHAPE_REPRESENTATION('P.Ge5A4074D5e7ng-None',(#254),#431);
#31=PRESENTATION_LAYER_ASSIGNMENT('1','Layer 1',(#40));
#32=STYLED_ITEM('',(#33),#40);
#33=PRESENTATION_STYLE_ASSIGNMENT((#34));
#34=SURFACE_STYLE_USAGE(.BOTH.,#35);
#35=SURFACE_SIDE_STYLE('',(#36));
#36=SURFACE_STYLE_FILL_AREA(#37);
#37=FILL_AREA_STYLE('',(#38));
#38=FILL_AREA_STYLE_COLOUR('',#39);
#39=COLOUR_RGB('Dark Gray',0.2,0.2,0.2);
#40=MANIFOLD_SOLID_BREP('',#41);
#41=CLOSED_SHELL('',(#67,#68,#69,#70,#71,#72,#73,#74,#75,#76,#77,#78,#79,
#80,#81));
#42=CYLINDRICAL_SURFACE('',#267,31.);
#43=CYLINDRICAL_SURFACE('',#276,31.4);
#44=CYLINDRICAL_SURFACE('',#285,35.);
#45=CONICAL_SURFACE('',#264,35.7999013059853,0.9);
#46=CONICAL_SURFACE('',#274,35.7999013059853,0.9);
#47=ELLIPSE('',#260,35.6271977467272,35.5783598528793);
#48=ELLIPSE('',#261,35.0480321099272,35.);
#49=ELLIPSE('',#270,74.8625400540686,36.1411623905608);
#50=ELLIPSE('',#271,35.7094291580136,35.6604785410443);
#51=ELLIPSE('',#272,74.8347310137927,36.127737104165);
#52=ELLIPSE('',#277,72.4693326287058,35.);
#53=ELLIPSE('',#279,35.0480321099272,35.);
#54=ELLIPSE('',#281,72.4693326287059,35.);
#55=FACE_OUTER_BOUND('',#124,.T.);
#56=FACE_OUTER_BOUND('',#125,.T.);
#57=FACE_OUTER_BOUND('',#126,.T.);
#58=FACE_OUTER_BOUND('',#127,.T.);
#59=FACE_OUTER_BOUND('',#128,.T.);
#60=FACE_OUTER_BOUND('',#131,.T.);
#61=FACE_OUTER_BOUND('',#132,.T.);
#62=FACE_OUTER_BOUND('',#135,.T.);
#63=FACE_OUTER_BOUND('',#136,.T.);
#64=FACE_OUTER_BOUND('',#137,.T.);
#65=B_SPLINE_CURVE_WITH_KNOTS('',3,(#372,#373,#374,#375),.UNSPECIFIED.,
 .F.,.F.,(4,4),(0.,1.),.UNSPECIFIED.);
#66=B_SPLINE_CURVE_WITH_KNOTS('',3,(#387,#388,#389,#390),.UNSPECIFIED.,
 .F.,.F.,(4,4),(0.,1.),.UNSPECIFIED.);
#67=ADVANCED_FACE('',(#112,#113),#82,.F.);
#68=ADVANCED_FACE('',(#55),#83,.T.);
#69=ADVANCED_FACE('',(#56),#84,.T.);
#70=ADVANCED_FACE('',(#57),#85,.T.);
#71=ADVANCED_FACE('',(#58),#45,.T.);
#72=ADVANCED_FACE('',(#59),#86,.F.);
#73=ADVANCED_FACE('',(#114,#115),#42,.F.);
#74=ADVANCED_FACE('',(#60),#87,.F.);
#75=ADVANCED_FACE('',(#61),#46,.T.);
#76=ADVANCED_FACE('',(#116,#117),#43,.T.);
#77=ADVANCED_FACE('',(#62),#88,.T.);
#78=ADVANCED_FACE('',(#63),#89,.T.);
#79=ADVANCED_FACE('',(#64),#90,.T.);
#80=ADVANCED_FACE('',(#118,#119),#91,.T.);
#81=ADVANCED_FACE('',(#120,#121),#44,.T.);
#82=PLANE('',#258);
#83=PLANE('',#259);
#84=PLANE('',#262);
#85=PLANE('',#263);
#86=PLANE('',#266);
#87=PLANE('',#269);
#88=PLANE('',#278);
#89=PLANE('',#280);
#90=PLANE('',#282);
#91=PLANE('',#284);
#92=LINE('',#363,#102);
#93=LINE('',#368,#103);
#94=LINE('',#377,#104);
#95=LINE('',#379,#105);
#96=LINE('',#385,#106);
#97=LINE('',#391,#107);
#98=LINE('',#413,#108);
#99=LINE('',#415,#109);
#100=LINE('',#421,#110);
#101=LINE('',#423,#111);
#102=VECTOR('',#290,1.);
#103=VECTOR('',#293,1.);
#104=VECTOR('',#298,1.);
#105=VECTOR('',#299,1.);
#106=VECTOR('',#306,1.);
#107=VECTOR('',#309,1.);
#108=VECTOR('',#338,1.);
#109=VECTOR('',#339,1.);
#110=VECTOR('',#346,1.);
#111=VECTOR('',#349,1.);
#112=FACE_BOUND('',#122,.T.);
#113=FACE_BOUND('',#123,.T.);
#114=FACE_BOUND('',#129,.T.);
#115=FACE_BOUND('',#130,.T.);
#116=FACE_BOUND('',#133,.T.);
#117=FACE_BOUND('',#134,.T.);
#118=FACE_BOUND('',#138,.T.);
#119=FACE_BOUND('',#139,.T.);
#120=FACE_BOUND('',#140,.T.);
#121=FACE_BOUND('',#141,.T.);
#122=EDGE_LOOP('',(#142));
#123=EDGE_LOOP('',(#143,#144,#145,#146));
#124=EDGE_LOOP('',(#147,#148,#149,#150));
#125=EDGE_LOOP('',(#151,#152,#153,#154));
#126=EDGE_LOOP('',(#155,#156,#157,#158));
#127=EDGE_LOOP('',(#159,#160,#161,#162));
#128=EDGE_LOOP('',(#163));
#129=EDGE_LOOP('',(#164));
#130=EDGE_LOOP('',(#165));
#131=EDGE_LOOP('',(#166));
#132=EDGE_LOOP('',(#167,#168,#169,#170));
#133=EDGE_LOOP('',(#171));
#134=EDGE_LOOP('',(#172));
#135=EDGE_LOOP('',(#173,#174,#175,#176));
#136=EDGE_LOOP('',(#177,#178,#179,#180));
#137=EDGE_LOOP('',(#181,#182,#183,#184));
#138=EDGE_LOOP('',(#185));
#139=EDGE_LOOP('',(#186,#187,#188,#189));
#140=EDGE_LOOP('',(#190,#191,#192,#193));
#141=EDGE_LOOP('',(#194,#195,#196,#197));
#142=ORIENTED_EDGE('',*,*,#218,.T.);
#143=ORIENTED_EDGE('',*,*,#219,.T.);
#144=ORIENTED_EDGE('',*,*,#220,.T.);
#145=ORIENTED_EDGE('',*,*,#221,.F.);
#146=ORIENTED_EDGE('',*,*,#222,.F.);
#147=ORIENTED_EDGE('',*,*,#223,.T.);
#148=ORIENTED_EDGE('',*,*,#221,.T.);
#149=ORIENTED_EDGE('',*,*,#224,.F.);
#150=ORIENTED_EDGE('',*,*,#225,.F.);
#151=ORIENTED_EDGE('',*,*,#226,.T.);
#152=ORIENTED_EDGE('',*,*,#225,.T.);
#153=ORIENTED_EDGE('',*,*,#227,.F.);
#154=ORIENTED_EDGE('',*,*,#228,.F.);
#155=ORIENTED_EDGE('',*,*,#229,.T.);
#156=ORIENTED_EDGE('',*,*,#228,.T.);
#157=ORIENTED_EDGE('',*,*,#230,.F.);
#158=ORIENTED_EDGE('',*,*,#219,.F.);
#159=ORIENTED_EDGE('',*,*,#229,.F.);
#160=ORIENTED_EDGE('',*,*,#222,.T.);
#161=ORIENTED_EDGE('',*,*,#223,.F.);
#162=ORIENTED_EDGE('',*,*,#226,.F.);
#163=ORIENTED_EDGE('',*,*,#231,.T.);
#164=ORIENTED_EDGE('',*,*,#218,.F.);
#165=ORIENTED_EDGE('',*,*,#231,.F.);
#166=ORIENTED_EDGE('',*,*,#232,.T.);
#167=ORIENTED_EDGE('',*,*,#233,.T.);
#168=ORIENTED_EDGE('',*,*,#234,.F.);
#169=ORIENTED_EDGE('',*,*,#235,.T.);
#170=ORIENTED_EDGE('',*,*,#236,.T.);
#171=ORIENTED_EDGE('',*,*,#232,.F.);
#172=ORIENTED_EDGE('',*,*,#237,.T.);
#173=ORIENTED_EDGE('',*,*,#238,.T.);
#174=ORIENTED_EDGE('',*,*,#233,.F.);
#175=ORIENTED_EDGE('',*,*,#239,.F.);
#176=ORIENTED_EDGE('',*,*,#240,.T.);
#177=ORIENTED_EDGE('',*,*,#234,.T.);
#178=ORIENTED_EDGE('',*,*,#238,.F.);
#179=ORIENTED_EDGE('',*,*,#241,.F.);
#180=ORIENTED_EDGE('',*,*,#242,.F.);
#181=ORIENTED_EDGE('',*,*,#243,.F.);
#182=ORIENTED_EDGE('',*,*,#235,.F.);
#183=ORIENTED_EDGE('',*,*,#242,.T.);
#184=ORIENTED_EDGE('',*,*,#244,.T.);
#185=ORIENTED_EDGE('',*,*,#237,.F.);
#186=ORIENTED_EDGE('',*,*,#236,.F.);
#187=ORIENTED_EDGE('',*,*,#243,.T.);
#188=ORIENTED_EDGE('',*,*,#245,.T.);
#189=ORIENTED_EDGE('',*,*,#239,.T.);
#190=ORIENTED_EDGE('',*,*,#245,.F.);
#191=ORIENTED_EDGE('',*,*,#244,.F.);
#192=ORIENTED_EDGE('',*,*,#241,.T.);
#193=ORIENTED_EDGE('',*,*,#240,.F.);
#194=ORIENTED_EDGE('',*,*,#227,.T.);
#195=ORIENTED_EDGE('',*,*,#224,.T.);
#196=ORIENTED_EDGE('',*,*,#220,.F.);
#197=ORIENTED_EDGE('',*,*,#230,.T.);
#198=VERTEX_POINT('',#362);
#199=VERTEX_POINT('',#364);
#200=VERTEX_POINT('',#365);
#201=VERTEX_POINT('',#367);
#202=VERTEX_POINT('',#369);
#203=VERTEX_POINT('',#376);
#204=VERTEX_POINT('',#378);
#205=VERTEX_POINT('',#382);
#206=VERTEX_POINT('',#384);
#207=VERTEX_POINT('',#395);
#208=VERTEX_POINT('',#399);
#209=VERTEX_POINT('',#402);
#210=VERTEX_POINT('',#403);
#211=VERTEX_POINT('',#405);
#212=VERTEX_POINT('',#407);
#213=VERTEX_POINT('',#411);
#214=VERTEX_POINT('',#414);
#215=VERTEX_POINT('',#416);
#216=VERTEX_POINT('',#420);
#217=VERTEX_POINT('',#424);
#218=EDGE_CURVE('',#198,#198,#246,.T.);
#219=EDGE_CURVE('',#199,#200,#92,.T.);
#220=EDGE_CURVE('',#200,#201,#247,.T.);
#221=EDGE_CURVE('',#202,#201,#93,.T.);
#222=EDGE_CURVE('',#199,#202,#248,.T.);
#223=EDGE_CURVE('',#203,#202,#65,.T.);
#224=EDGE_CURVE('',#204,#201,#94,.T.);
#225=EDGE_CURVE('',#203,#204,#95,.T.);
#226=EDGE_CURVE('',#205,#203,#47,.T.);
#227=EDGE_CURVE('',#206,#204,#48,.T.);
#228=EDGE_CURVE('',#205,#206,#96,.T.);
#229=EDGE_CURVE('',#199,#205,#66,.T.);
#230=EDGE_CURVE('',#200,#206,#97,.T.);
#231=EDGE_CURVE('',#207,#207,#249,.T.);
#232=EDGE_CURVE('',#208,#208,#250,.T.);
#233=EDGE_CURVE('',#209,#210,#49,.T.);
#234=EDGE_CURVE('',#211,#210,#50,.T.);
#235=EDGE_CURVE('',#211,#212,#51,.T.);
#236=EDGE_CURVE('',#212,#209,#251,.T.);
#237=EDGE_CURVE('',#213,#213,#252,.T.);
#238=EDGE_CURVE('',#214,#210,#98,.T.);
#239=EDGE_CURVE('',#215,#209,#99,.T.);
#240=EDGE_CURVE('',#215,#214,#52,.T.);
#241=EDGE_CURVE('',#216,#214,#53,.T.);
#242=EDGE_CURVE('',#211,#216,#100,.T.);
#243=EDGE_CURVE('',#212,#217,#101,.T.);
#244=EDGE_CURVE('',#216,#217,#54,.T.);
#245=EDGE_CURVE('',#217,#215,#253,.T.);
#246=CIRCLE('',#255,31.);
#247=CIRCLE('',#256,35.);
#248=CIRCLE('',#257,35.4387858337475);
#249=CIRCLE('',#265,31.);
#250=CIRCLE('',#268,31.4);
#251=CIRCLE('',#273,35.7938150040623);
#252=CIRCLE('',#275,31.4);
#253=CIRCLE('',#283,35.);
#254=AXIS2_PLACEMENT_3D('',#360,#286,#287);
#255=AXIS2_PLACEMENT_3D('',#361,#288,#289);
#256=AXIS2_PLACEMENT_3D('',#366,#291,#292);
#257=AXIS2_PLACEMENT_3D('',#370,#294,#295);
#258=AXIS2_PLACEMENT_3D('',#371,#296,#297);
#259=AXIS2_PLACEMENT_3D('',#380,#300,#301);
#260=AXIS2_PLACEMENT_3D('',#381,#302,#303);
#261=AXIS2_PLACEMENT_3D('',#383,#304,#305);
#262=AXIS2_PLACEMENT_3D('',#386,#307,#308);
#263=AXIS2_PLACEMENT_3D('',#392,#310,#311);
#264=AXIS2_PLACEMENT_3D('',#393,#312,#313);
#265=AXIS2_PLACEMENT_3D('',#394,#314,#315);
#266=AXIS2_PLACEMENT_3D('',#396,#316,#317);
#267=AXIS2_PLACEMENT_3D('',#397,#318,#319);
#268=AXIS2_PLACEMENT_3D('',#398,#320,#321);
#269=AXIS2_PLACEMENT_3D('',#400,#322,#323);
#270=AXIS2_PLACEMENT_3D('',#401,#324,#325);
#271=AXIS2_PLACEMENT_3D('',#404,#326,#327);
#272=AXIS2_PLACEMENT_3D('',#406,#328,#329);
#273=AXIS2_PLACEMENT_3D('',#408,#330,#331);
#274=AXIS2_PLACEMENT_3D('',#409,#332,#333);
#275=AXIS2_PLACEMENT_3D('',#410,#334,#335);
#276=AXIS2_PLACEMENT_3D('',#412,#336,#337);
#277=AXIS2_PLACEMENT_3D('',#417,#340,#341);
#278=AXIS2_PLACEMENT_3D('',#418,#342,#343);
#279=AXIS2_PLACEMENT_3D('',#419,#344,#345);
#280=AXIS2_PLACEMENT_3D('',#422,#347,#348);
#281=AXIS2_PLACEMENT_3D('',#425,#350,#351);
#282=AXIS2_PLACEMENT_3D('',#426,#352,#353);
#283=AXIS2_PLACEMENT_3D('',#427,#354,#355);
#284=AXIS2_PLACEMENT_3D('',#428,#356,#357);
#285=AXIS2_PLACEMENT_3D('',#429,#358,#359);
#286=DIRECTION('',(0.,0.,1.));
#287=DIRECTION('',(1.,0.,0.));
#288=DIRECTION('',(0.,0.,1.));
#289=DIRECTION('',(1.,0.,0.));
#290=DIRECTION('',(0.98245039772551,-0.186524036008736,0.));
#291=DIRECTION('',(0.,0.,-1.));
#292=DIRECTION('',(1.,0.,0.));
#293=DIRECTION('',(0.757564984384049,-0.652759752462723,0.));
#294=DIRECTION('',(0.,0.,1.));
#295=DIRECTION('',(1.,0.,0.));
#296=DIRECTION('',(0.,0.,1.));
#297=DIRECTION('',(1.,0.,0.));
#298=DIRECTION('',(0.,0.,-1.));
#299=DIRECTION('',(0.756596181868126,-0.651924978808299,0.0505572901604954));
#300=DIRECTION('',(-0.652759752462724,-0.757564984384049,-2.39403336070464E-16));
#301=DIRECTION('',(0.757564984384049,-0.652759752462724,0.));
#302=DIRECTION('',(-0.0471389036412833,0.022737107981472,0.998629534754574));
#303=DIRECTION('',(0.899463863688979,-0.433849865278105,0.0523359562429436));
#304=DIRECTION('',(-0.0471389036412833,0.022737107981472,0.998629534754574));
#305=DIRECTION('',(0.899463863688979,-0.433849865278105,0.0523359562429436));
#306=DIRECTION('',(0.981194003308258,-0.186285502075555,0.0505572901604954));
#307=DIRECTION('',(-0.0471389036412833,0.022737107981472,0.998629534754574));
#308=DIRECTION('',(0.998887768675264,0.,0.0471510932105687));
#309=DIRECTION('',(0.,0.,1.));
#310=DIRECTION('',(0.186524036008736,0.98245039772551,5.50693795321079E-15));
#311=DIRECTION('',(-0.98245039772551,0.186524036008736,0.));
#312=DIRECTION('',(0.,0.,1.));
#313=DIRECTION('',(1.,0.,2.02067778564044E-16));
#314=DIRECTION('',(0.,0.,-1.));
#315=DIRECTION('',(1.,0.,0.));
#316=DIRECTION('',(0.,0.,1.));
#317=DIRECTION('',(1.,0.,0.));
#318=DIRECTION('',(0.,0.,-1.));
#319=DIRECTION('',(-1.,0.,0.));
#320=DIRECTION('',(0.,0.,1.));
#321=DIRECTION('',(-1.,0.,0.));
#322=DIRECTION('',(0.,0.,-1.));
#323=DIRECTION('',(-1.,0.,0.));
#324=DIRECTION('',(-0.079481461115652,-0.872026101596659,-0.482962913144534));
#325=DIRECTION('',(-0.0438382926576686,-0.480969208546571,0.875640807938361));
#326=DIRECTION('',(-0.0483870007597211,0.0199436825421505,-0.998629534754574));
#327=DIRECTION('',(-0.923278975405448,0.380548132643432,0.0523359562429438));
#328=DIRECTION('',(0.558061704261374,0.674769559748983,-0.482962913144534));
#329=DIRECTION('',(0.307800988671429,0.372171636272762,0.875640807938361));
#330=DIRECTION('',(0.,0.,-1.));
#331=DIRECTION('',(1.,0.,0.));
#332=DIRECTION('',(0.,0.,1.));
#333=DIRECTION('',(1.,0.,-8.75627040444193E-16));
#334=DIRECTION('',(0.,0.,1.));
#335=DIRECTION('',(1.,0.,0.));
#336=DIRECTION('',(0.,0.,1.));
#337=DIRECTION('',(1.,0.,0.));
#338=DIRECTION('',(-0.99675671353238,0.0634004695004802,0.0495624302798667));
#339=DIRECTION('',(-0.99587193023791,0.0907694803566613,0.));
#340=DIRECTION('',(-0.079481461115652,-0.872026101596659,-0.482962913144534));
#341=DIRECTION('',(-0.0438382926576687,-0.480969208546571,0.875640807938361));
#342=DIRECTION('',(0.079481461115652,0.872026101596659,0.482962913144534));
#343=DIRECTION('',(3.46944695195361E-17,-0.484495690692787,0.874793647496436));
#344=DIRECTION('',(-0.0483870007597211,0.0199436825421505,-0.998629534754574));
#345=DIRECTION('',(-0.923278975405448,0.380548132643433,0.0523359562429438));
#346=DIRECTION('',(0.751943535106674,-0.657361761525593,-0.0495624302798667));
#347=DIRECTION('',(-0.0483870007597211,0.0199436825421505,-0.998629534754574));
#348=DIRECTION('',(-0.998828196705023,1.73472347597681E-18,0.0483966266075583));
#349=DIRECTION('',(0.770600860114872,-0.63731806375641,0.));
#350=DIRECTION('',(0.558061704261374,0.674769559748983,-0.482962913144534));
#351=DIRECTION('',(0.307800988671429,0.372171636272762,0.875640807938361));
#352=DIRECTION('',(-0.558061704261374,-0.674769559748983,0.482962913144534));
#353=DIRECTION('',(0.770600860114873,-0.637318063756409,-4.37150315946155E-16));
#354=DIRECTION('',(0.,0.,1.));
#355=DIRECTION('',(1.,0.,0.));
#356=DIRECTION('',(0.,0.,1.));
#357=DIRECTION('',(1.,0.,0.));
#358=DIRECTION('',(0.,0.,1.));
#359=DIRECTION('',(1.,0.,0.));
#360=CARTESIAN_POINT('',(0.,0.,0.));
#361=CARTESIAN_POINT('',(0.,0.,-37.8));
#362=CARTESIAN_POINT('',(31.,0.,-37.8));
#363=CARTESIAN_POINT('',(7.99920611009807,8.38303224891669,-37.8));
#364=CARTESIAN_POINT('',(-31.6649321170913,15.9135041832471,-37.8));
#365=CARTESIAN_POINT('',(-31.21639678748,15.828347090161,-37.8));
#366=CARTESIAN_POINT('',(0.,0.,-37.8));
#367=CARTESIAN_POINT('',(-31.703308444567,14.8290334704809,-37.8));
#368=CARTESIAN_POINT('',(-32.4503300861486,15.4727084975673,-37.8));
#369=CARTESIAN_POINT('',(-32.0484013830514,15.1263845700501,-37.8));
#370=CARTESIAN_POINT('',(0.,0.,-37.8));
#371=CARTESIAN_POINT('',(0.,-33.75,-37.8));
#372=CARTESIAN_POINT('',(-32.1350938396871,15.2010835697404,-30.778935275166));
#373=CARTESIAN_POINT('',(-32.106199781325,15.1761868562269,-33.119290257175));
#374=CARTESIAN_POINT('',(-32.0773023072629,15.151287199558,-35.4596451657088));
#375=CARTESIAN_POINT('',(-32.0484013830514,15.1263845700501,-37.8));
#376=CARTESIAN_POINT('',(-32.1350938396871,15.2010835697404,-30.778935275166));
#377=CARTESIAN_POINT('',(-31.703308444567,14.8290334704809,-34.25283972266));
#378=CARTESIAN_POINT('',(-31.7033084445671,14.8290334704809,-30.7500825000248));
#379=CARTESIAN_POINT('',(-32.5090014093803,15.5232629440093,-30.8039205367193));
#380=CARTESIAN_POINT('',(-32.4503300861486,15.4727084975673,-34.3));
#381=CARTESIAN_POINT('',(0.0263825481938344,-0.0127254306055657,-28.9144052471034));
#382=CARTESIAN_POINT('',(-31.7776093173614,15.9348966181316,-30.7787684045439));
#383=CARTESIAN_POINT('',(0.,0.,-28.9159403347746));
#384=CARTESIAN_POINT('',(-31.21639678748,15.828347090161,-30.749851203033));
#385=CARTESIAN_POINT('',(-32.3632857164574,16.0460907567948,-30.8089461385592));
#386=CARTESIAN_POINT('',(-32.3199965089273,15.7429179693641,-30.7999999999999));
#387=CARTESIAN_POINT('',(-31.6649321170913,15.9135041832471,-37.8));
#388=CARTESIAN_POINT('',(-31.7024959302342,15.9206358960049,-35.4595895471022));
#389=CARTESIAN_POINT('',(-31.7400549810707,15.9277667046105,-33.1191790150089));
#390=CARTESIAN_POINT('',(-31.7776093173614,15.9348966181316,-30.7787684045439));
#391=CARTESIAN_POINT('',(-31.21639678748,15.828347090161,-34.2526725598228));
#392=CARTESIAN_POINT('',(-32.189662931706,16.0131274411609,-34.3));
#393=CARTESIAN_POINT('',(0.,0.,-14.8125658538495));
#394=CARTESIAN_POINT('',(0.,0.,-17.3));
#395=CARTESIAN_POINT('',(31.,0.,-17.3));
#396=CARTESIAN_POINT('',(0.,0.,-17.3));
#397=CARTESIAN_POINT('',(0.,0.,-17.3));
#398=CARTESIAN_POINT('',(0.,0.,34.5));
#399=CARTESIAN_POINT('',(-31.4,0.,34.5));
#400=CARTESIAN_POINT('',(0.,-31.4,34.5));
#401=CARTESIAN_POINT('',(-0.0934729607207246,-1.02553300351872,45.6447222602987));
#402=CARTESIAN_POINT('',(-32.6343936188114,14.7035215400095,22.6));
#403=CARTESIAN_POINT('',(-30.6983219905448,18.2032022105051,15.9624412837569));
#404=CARTESIAN_POINT('',(-0.0271435851762671,0.0111877784799988,14.1130046016238));
#405=CARTESIAN_POINT('',(-34.4780358830822,9.22023752126496,15.9661820332643));
#406=CARTESIAN_POINT('',(0.65605616568787,0.793257675112702,44.7897654321928));
#407=CARTESIAN_POINT('',(-33.3392605031886,13.0265460366733,22.6));
#408=CARTESIAN_POINT('',(0.,0.,22.6));
#409=CARTESIAN_POINT('',(0.,0.,22.9874341461505));
#410=CARTESIAN_POINT('',(0.,0.,22.6));
#411=CARTESIAN_POINT('',(31.4,0.,22.6));
#412=CARTESIAN_POINT('',(0.,0.,0.));
#413=CARTESIAN_POINT('',(-32.9397519014464,18.3457723148989,16.0738934688068));
#414=CARTESIAN_POINT('',(-29.9238120891966,18.1539381416389,15.9239297869539));
#415=CARTESIAN_POINT('',(-32.5462732831172,14.6954897471283,22.6));
#416=CARTESIAN_POINT('',(-31.7969382470066,14.6271910535156,22.6));
#417=CARTESIAN_POINT('',(0.,0.,43.7776618917519));
#418=CARTESIAN_POINT('',(-32.4403777815699,15.8573159150767,20.4848076211353));
#419=CARTESIAN_POINT('',(0.,0.,14.1114659708048));
#420=CARTESIAN_POINT('',(-33.8980774766485,8.71322806927104,15.9279555618046));
#421=CARTESIAN_POINT('',(-36.1121954098822,10.6488474301176,16.0738934688068));
#422=CARTESIAN_POINT('',(-33.2223902100433,13.9600115486099,16.));
#423=CARTESIAN_POINT('',(-33.2608805235781,12.961722624933,22.6));
#424=CARTESIAN_POINT('',(-32.6943495011159,12.4931785666773,22.6));
#425=CARTESIAN_POINT('',(0.,0.,42.923398616883));
#426=CARTESIAN_POINT('',(-34.0044026385166,12.062707182143,20.4848076211353));
#427=CARTESIAN_POINT('',(0.,0.,22.6));
#428=CARTESIAN_POINT('',(0.,0.,22.6));
#429=CARTESIAN_POINT('',(0.,0.,-15.));
#430=MECHANICAL_DESIGN_GEOMETRIC_PRESENTATION_REPRESENTATION('',(#32),#431);
#431=(
GEOMETRIC_REPRESENTATION_CONTEXT(3)
GLOBAL_UNCERTAINTY_ASSIGNED_CONTEXT((#432))
GLOBAL_UNIT_ASSIGNED_CONTEXT((#438,#434,#433))
REPRESENTATION_CONTEXT('PC7BHV7_AuerSignal_910773313',
'TOP_LEVEL_ASSEMBLY_PART')
);
#432=UNCERTAINTY_MEASURE_WITH_UNIT(LENGTH_MEASURE(2.E-5),#438,
'DISTANCE_ACCURACY_VALUE','Maximum Tolerance applied to model');
#433=(
NAMED_UNIT(*)
SI_UNIT($,.STERADIAN.)
SOLID_ANGLE_UNIT()
);
#434=(
CONVERSION_BASED_UNIT('DEGREE',#436)
NAMED_UNIT(#435)
PLANE_ANGLE_UNIT()
);
#435=DIMENSIONAL_EXPONENTS(0.,0.,0.,0.,0.,0.,0.);
#436=PLANE_ANGLE_MEASURE_WITH_UNIT(PLANE_ANGLE_MEASURE(0.0174532925),#437);
#437=(
NAMED_UNIT(*)
PLANE_ANGLE_UNIT()
SI_UNIT($,.RADIAN.)
);
#438=(
LENGTH_UNIT()
NAMED_UNIT(*)
SI_UNIT(.MILLI.,.METRE.)
);
ENDSEC;
END-ISO-10303-21;
