ISO-10303-21;
HEADER;
/* Generated by software containing ST-Developer
 * from STEP Tools, Inc. (www.steptools.com) 
 */
/* OPTION: using custom schema-name function */

FILE_DESCRIPTION(
/* description */ (''),
/* implementation_level */ '2;1');

FILE_NAME(
/* name */ 'CS1.stp',
/* time_stamp */ '2013-11-13T11:45:49+01:00',
/* author */ (''),
/* organization */ (''),
/* preprocessor_version */ 'ST-DEVELOPER v11',
/* originating_system */ 'SIEMENS PLM Software NX 7.5',
/* authorisation */ '');

FILE_SCHEMA (('AUTOMOTIVE_DESIGN { 1 0 10303 214 1 1 1 1 }'));
ENDSEC;

DATA;
#10=SHAPE_REPRESENTATION_RELATIONSHIP('None',
'relationship between m.ne750A6rlr-None and m.ne750A6rlr-None',#22,#11);
#11=ADVANCED_BREP_SHAPE_REPRESENTATION('m.ne750A6rlr-None',(#32),#229);
#12=SHAPE_DEFINITION_REPRESENTATION(#13,#22);
#13=PRODUCT_DEFINITION_SHAPE('','',#14);
#14=PRODUCT_DEFINITION(' ','',#16,#15);
#15=PRODUCT_DEFINITION_CONTEXT('part definition',#21,'design');
#16=PRODUCT_DEFINITION_FORMATION_WITH_SPECIFIED_SOURCE(' ',' ',#18,.NOT_KNOWN.);
#17=PRODUCT_RELATED_PRODUCT_CATEGORY('part','',(#18));
#18=PRODUCT('m.ne750A6rlr','m.ne750A6rlr',' ',(#19));
#19=PRODUCT_CONTEXT(' ',#21,'mechanical');
#20=APPLICATION_PROTOCOL_DEFINITION('international standard',
'automotive_design',2001,#21);
#21=APPLICATION_CONTEXT(
'core data for automotive mechanical design processes');
#22=SHAPE_REPRESENTATION('m.ne750A6rlr-None',(#124),#229);
#23=PRESENTATION_LAYER_ASSIGNMENT('1','Layer 1',(#32));
#24=STYLED_ITEM('',(#25),#32);
#25=PRESENTATION_STYLE_ASSIGNMENT((#26));
#26=SURFACE_STYLE_USAGE(.BOTH.,#27);
#27=SURFACE_SIDE_STYLE('',(#28));
#28=SURFACE_STYLE_FILL_AREA(#29);
#29=FILL_AREA_STYLE('',(#30));
#30=FILL_AREA_STYLE_COLOUR('',#31);
#31=COLOUR_RGB('Silver Gray',0.6,0.6,0.6);
#32=MANIFOLD_SOLID_BREP('',#33);
#33=CLOSED_SHELL('',(#42,#43,#44,#45,#46,#47,#48,#49,#50));
#34=(
BOUNDED_SURFACE()
B_SPLINE_SURFACE(3,3,((#200,#201,#202,#203,#204,#205,#206),(#207,#208,#209,
#210,#211,#212,#213),(#214,#215,#216,#217,#218,#219,#220),(#221,#222,#223,
#224,#225,#226,#227)),.UNSPECIFIED.,.F.,.T.,.F.)
B_SPLINE_SURFACE_WITH_KNOTS((4,4),(1,3,3,3,1),(0.,1.),(-0.5,0.,0.5,1.,1.5),
 .UNSPECIFIED.)
GEOMETRIC_REPRESENTATION_ITEM()
RATIONAL_B_SPLINE_SURFACE(((1.,0.333333333333333,0.333333333333333,1.,0.333333333333333,
0.333333333333333,1.),(0.998756532281245,0.332918844093748,0.332918844093748,
0.998756532281245,0.332918844093748,0.332918844093748,0.998756532281245),
(0.998756532281245,0.332918844093748,0.332918844093748,0.998756532281245,
0.332918844093748,0.332918844093748,0.998756532281245),(1.,0.333333333333333,
0.333333333333333,1.,0.333333333333333,0.333333333333333,1.)))
REPRESENTATION_ITEM('')
SURFACE()
);
#35=TOROIDAL_SURFACE('',#140,28.5,3.);
#36=CONICAL_SURFACE('',#136,44.4036888286784,3.);
#37=CONICAL_SURFACE('',#139,1.5,83.);
#38=FACE_OUTER_BOUND('',#72,.T.);
#39=FACE_OUTER_BOUND('',#75,.T.);
#40=CYLINDRICAL_SURFACE('',#130,46.5);
#41=CYLINDRICAL_SURFACE('',#133,31.5);
#42=ADVANCED_FACE('',(#54,#55),#51,.T.);
#43=ADVANCED_FACE('',(#56,#57),#40,.T.);
#44=ADVANCED_FACE('',(#38),#52,.F.);
#45=ADVANCED_FACE('',(#58,#59),#41,.T.);
#46=ADVANCED_FACE('',(#39),#53,.T.);
#47=ADVANCED_FACE('',(#60,#61),#36,.T.);
#48=ADVANCED_FACE('',(#62,#63),#37,.T.);
#49=ADVANCED_FACE('',(#64,#65),#35,.T.);
#50=ADVANCED_FACE('',(#66,#67),#34,.T.);
#51=PLANE('',#127);
#52=PLANE('',#131);
#53=PLANE('',#135);
#54=FACE_BOUND('',#68,.T.);
#55=FACE_BOUND('',#69,.T.);
#56=FACE_BOUND('',#70,.T.);
#57=FACE_BOUND('',#71,.T.);
#58=FACE_BOUND('',#73,.T.);
#59=FACE_BOUND('',#74,.T.);
#60=FACE_BOUND('',#76,.T.);
#61=FACE_BOUND('',#77,.T.);
#62=FACE_BOUND('',#78,.T.);
#63=FACE_BOUND('',#79,.T.);
#64=FACE_BOUND('',#80,.T.);
#65=FACE_BOUND('',#81,.T.);
#66=FACE_BOUND('',#82,.T.);
#67=FACE_BOUND('',#83,.T.);
#68=EDGE_LOOP('',(#84));
#69=EDGE_LOOP('',(#85));
#70=EDGE_LOOP('',(#86));
#71=EDGE_LOOP('',(#87));
#72=EDGE_LOOP('',(#88));
#73=EDGE_LOOP('',(#89));
#74=EDGE_LOOP('',(#90));
#75=EDGE_LOOP('',(#91));
#76=EDGE_LOOP('',(#92));
#77=EDGE_LOOP('',(#93));
#78=EDGE_LOOP('',(#94));
#79=EDGE_LOOP('',(#95));
#80=EDGE_LOOP('',(#96));
#81=EDGE_LOOP('',(#97));
#82=EDGE_LOOP('',(#98));
#83=EDGE_LOOP('',(#99));
#84=ORIENTED_EDGE('',*,*,#108,.T.);
#85=ORIENTED_EDGE('',*,*,#109,.T.);
#86=ORIENTED_EDGE('',*,*,#110,.T.);
#87=ORIENTED_EDGE('',*,*,#111,.T.);
#88=ORIENTED_EDGE('',*,*,#111,.F.);
#89=ORIENTED_EDGE('',*,*,#112,.T.);
#90=ORIENTED_EDGE('',*,*,#109,.F.);
#91=ORIENTED_EDGE('',*,*,#113,.T.);
#92=ORIENTED_EDGE('',*,*,#110,.F.);
#93=ORIENTED_EDGE('',*,*,#108,.F.);
#94=ORIENTED_EDGE('',*,*,#114,.T.);
#95=ORIENTED_EDGE('',*,*,#115,.T.);
#96=ORIENTED_EDGE('',*,*,#115,.F.);
#97=ORIENTED_EDGE('',*,*,#112,.F.);
#98=ORIENTED_EDGE('',*,*,#114,.F.);
#99=ORIENTED_EDGE('',*,*,#113,.F.);
#100=VERTEX_POINT('',#177);
#101=VERTEX_POINT('',#179);
#102=VERTEX_POINT('',#182);
#103=VERTEX_POINT('',#184);
#104=VERTEX_POINT('',#188);
#105=VERTEX_POINT('',#191);
#106=VERTEX_POINT('',#195);
#107=VERTEX_POINT('',#197);
#108=EDGE_CURVE('',#100,#100,#116,.T.);
#109=EDGE_CURVE('',#101,#101,#117,.T.);
#110=EDGE_CURVE('',#102,#102,#118,.T.);
#111=EDGE_CURVE('',#103,#103,#119,.T.);
#112=EDGE_CURVE('',#104,#104,#120,.T.);
#113=EDGE_CURVE('',#105,#105,#121,.T.);
#114=EDGE_CURVE('',#106,#106,#122,.T.);
#115=EDGE_CURVE('',#107,#107,#123,.T.);
#116=CIRCLE('',#125,44.4036888286784);
#117=CIRCLE('',#126,31.5);
#118=CIRCLE('',#128,46.5);
#119=CIRCLE('',#129,46.5);
#120=CIRCLE('',#132,31.5);
#121=CIRCLE('',#134,0.276747596990295);
#122=CIRCLE('',#137,2.71413446509324);
#123=CIRCLE('',#138,28.8656080302154);
#124=AXIS2_PLACEMENT_3D('',#175,#141,#142);
#125=AXIS2_PLACEMENT_3D('',#176,#143,#144);
#126=AXIS2_PLACEMENT_3D('',#178,#145,#146);
#127=AXIS2_PLACEMENT_3D('',#180,#147,#148);
#128=AXIS2_PLACEMENT_3D('',#181,#149,#150);
#129=AXIS2_PLACEMENT_3D('',#183,#151,#152);
#130=AXIS2_PLACEMENT_3D('',#185,#153,#154);
#131=AXIS2_PLACEMENT_3D('',#186,#155,#156);
#132=AXIS2_PLACEMENT_3D('',#187,#157,#158);
#133=AXIS2_PLACEMENT_3D('',#189,#159,#160);
#134=AXIS2_PLACEMENT_3D('',#190,#161,#162);
#135=AXIS2_PLACEMENT_3D('',#192,#163,#164);
#136=AXIS2_PLACEMENT_3D('',#193,#165,#166);
#137=AXIS2_PLACEMENT_3D('',#194,#167,#168);
#138=AXIS2_PLACEMENT_3D('',#196,#169,#170);
#139=AXIS2_PLACEMENT_3D('',#198,#171,#172);
#140=AXIS2_PLACEMENT_3D('',#199,#173,#174);
#141=DIRECTION('',(0.,0.,1.));
#142=DIRECTION('',(1.,0.,0.));
#143=DIRECTION('',(0.,0.,1.));
#144=DIRECTION('',(1.,0.,0.));
#145=DIRECTION('',(0.,0.,-1.));
#146=DIRECTION('',(1.,0.,0.));
#147=DIRECTION('',(0.,0.,1.));
#148=DIRECTION('',(1.,0.,0.));
#149=DIRECTION('',(0.,0.,-1.));
#150=DIRECTION('',(1.,0.,0.));
#151=DIRECTION('',(0.,0.,1.));
#152=DIRECTION('',(1.,0.,0.));
#153=DIRECTION('',(0.,0.,-1.));
#154=DIRECTION('',(-1.,0.,0.));
#155=DIRECTION('',(0.,0.,1.));
#156=DIRECTION('',(1.,0.,0.));
#157=DIRECTION('',(0.,0.,-1.));
#158=DIRECTION('',(1.,0.,0.));
#159=DIRECTION('',(0.,0.,-1.));
#160=DIRECTION('',(-1.,0.,0.));
#161=DIRECTION('',(0.,0.,1.));
#162=DIRECTION('',(1.,0.,0.));
#163=DIRECTION('',(0.,0.,1.));
#164=DIRECTION('',(1.,0.,0.));
#165=DIRECTION('',(0.,0.,-1.));
#166=DIRECTION('',(-1.,0.,-2.8669718739932E-016));
#167=DIRECTION('',(0.,0.,-1.));
#168=DIRECTION('',(1.,0.,0.));
#169=DIRECTION('',(0.,0.,1.));
#170=DIRECTION('',(-1.,0.,0.));
#171=DIRECTION('',(0.,0.,-1.));
#172=DIRECTION('',(-1.,0.,-1.70366430677543E-018));
#173=DIRECTION('',(0.,0.,1.));
#174=DIRECTION('',(1.,0.,0.));
#175=CARTESIAN_POINT('',(0.,0.,0.));
#176=CARTESIAN_POINT('',(0.,0.,91.));
#177=CARTESIAN_POINT('',(44.4036888286784,0.,91.));
#178=CARTESIAN_POINT('',(0.,0.,91.));
#179=CARTESIAN_POINT('',(31.5,0.,91.));
#180=CARTESIAN_POINT('',(0.,0.,91.));
#181=CARTESIAN_POINT('',(0.,0.,51.));
#182=CARTESIAN_POINT('',(46.5,0.,51.));
#183=CARTESIAN_POINT('',(0.,0.,0.));
#184=CARTESIAN_POINT('',(46.5,0.,0.));
#185=CARTESIAN_POINT('',(0.,0.,91.));
#186=CARTESIAN_POINT('',(0.,0.,0.));
#187=CARTESIAN_POINT('',(0.,0.,100.662287379245));
#188=CARTESIAN_POINT('',(31.5,0.,100.662287379245));
#189=CARTESIAN_POINT('',(0.,0.,107.));
#190=CARTESIAN_POINT('',(0.,0.,107.));
#191=CARTESIAN_POINT('',(0.276747596990295,0.,107.));
#192=CARTESIAN_POINT('',(0.,0.,107.));
#193=CARTESIAN_POINT('',(0.,0.,91.));
#194=CARTESIAN_POINT('',(0.,0.,106.850923032826));
#195=CARTESIAN_POINT('',(2.71413446509324,0.,106.850923032826));
#196=CARTESIAN_POINT('',(0.,0.,103.639925834169));
#197=CARTESIAN_POINT('',(-28.8656080302154,0.,103.639925834169));
#198=CARTESIAN_POINT('',(0.,0.,107.));
#199=CARTESIAN_POINT('',(0.,0.,100.662287379245));
#200=CARTESIAN_POINT('',(0.276747596990297,0.,107.));
#201=CARTESIAN_POINT('',(0.276747596990297,0.553495193980594,107.));
#202=CARTESIAN_POINT('',(-0.276747596990297,0.553495193980594,107.));
#203=CARTESIAN_POINT('',(-0.276747596990297,0.,107.));
#204=CARTESIAN_POINT('',(-0.276747596990297,-0.553495193980594,107.));
#205=CARTESIAN_POINT('',(0.276747596990297,-0.553495193980594,107.));
#206=CARTESIAN_POINT('',(0.276747596990297,0.,107.));
#207=CARTESIAN_POINT('',(1.0917415427843,0.,107.));
#208=CARTESIAN_POINT('',(1.0917415427843,2.1834830855686,107.));
#209=CARTESIAN_POINT('',(-1.0917415427843,2.1834830855686,107.));
#210=CARTESIAN_POINT('',(-1.0917415427843,0.,107.));
#211=CARTESIAN_POINT('',(-1.0917415427843,-2.1834830855686,107.));
#212=CARTESIAN_POINT('',(1.0917415427843,-2.1834830855686,107.));
#213=CARTESIAN_POINT('',(1.0917415427843,0.,107.));
#214=CARTESIAN_POINT('',(1.90521536058443,0.,106.95024580988));
#215=CARTESIAN_POINT('',(1.90521536058443,3.81043072116887,106.95024580988));
#216=CARTESIAN_POINT('',(-1.90521536058443,3.81043072116887,106.95024580988));
#217=CARTESIAN_POINT('',(-1.90521536058443,0.,106.95024580988));
#218=CARTESIAN_POINT('',(-1.90521536058443,-3.81043072116887,106.95024580988));
#219=CARTESIAN_POINT('',(1.90521536058443,-3.81043072116887,106.95024580988));
#220=CARTESIAN_POINT('',(1.90521536058443,0.,106.95024580988));
#221=CARTESIAN_POINT('',(2.71413446509325,0.,106.850923032826));
#222=CARTESIAN_POINT('',(2.71413446509325,5.42826893018649,106.850923032826));
#223=CARTESIAN_POINT('',(-2.71413446509325,5.42826893018649,106.850923032826));
#224=CARTESIAN_POINT('',(-2.71413446509325,0.,106.850923032826));
#225=CARTESIAN_POINT('',(-2.71413446509325,-5.42826893018649,106.850923032826));
#226=CARTESIAN_POINT('',(2.71413446509325,-5.42826893018649,106.850923032826));
#227=CARTESIAN_POINT('',(2.71413446509325,0.,106.850923032826));
#228=MECHANICAL_DESIGN_GEOMETRIC_PRESENTATION_REPRESENTATION('',(#24),#229);
#229=(
GEOMETRIC_REPRESENTATION_CONTEXT(3)
GLOBAL_UNCERTAINTY_ASSIGNED_CONTEXT((#230))
GLOBAL_UNIT_ASSIGNED_CONTEXT((#236,#232,#231))
REPRESENTATION_CONTEXT('CS1','TOP_LEVEL_ASSEMBLY_PART')
);
#230=UNCERTAINTY_MEASURE_WITH_UNIT(LENGTH_MEASURE(0.001),#236,
'DISTANCE_ACCURACY_VALUE','Maximum Tolerance applied to model');
#231=(
NAMED_UNIT(*)
SI_UNIT($,.STERADIAN.)
SOLID_ANGLE_UNIT()
);
#232=(
CONVERSION_BASED_UNIT('DEGREE',#234)
NAMED_UNIT(#233)
PLANE_ANGLE_UNIT()
);
#233=DIMENSIONAL_EXPONENTS(0.,0.,0.,0.,0.,0.,0.);
#234=PLANE_ANGLE_MEASURE_WITH_UNIT(PLANE_ANGLE_MEASURE(0.0174532925),#235);
#235=(
NAMED_UNIT(*)
PLANE_ANGLE_UNIT()
SI_UNIT($,.RADIAN.)
);
#236=(
LENGTH_UNIT()
NAMED_UNIT(*)
SI_UNIT(.MILLI.,.METRE.)
);
ENDSEC;
END-ISO-10303-21;
