  0
SECTION
  2
HEADER
  9
$ACADVER
  1
AC1018
  9
$ACADMAINTVER
 70
   104
  9
$DWGCODEPAGE
  3
ANSI_1252
  9
$LASTSAVEDBY
  1
cgardiner
  9
$INSBASE
 10
0.0
 20
0.0
 30
0.0
  9
$EXTMIN
 10
2.273117107657149
 20
2.328537015626835
 30
-0.0015258207003583
  9
$EXTMAX
 10
11.632247958137
 20
7.574584982561166
 30
0.0000000349246037
  9
$LIMMIN
 10
0.0
 20
0.0
  9
$LIMMAX
 10
17.0
 20
11.0
  9
$ORTHOMODE
 70
     1
  9
$REGENMODE
 70
     0
  9
$FILLMODE
 70
     1
  9
$QTEXTMODE
 70
     0
  9
$MIRRTEXT
 70
     0
  9
$LTSCALE
 40
0.4
  9
$ATTMODE
 70
     1
  9
$TEXTSIZE
 40
0.1
  9
$TRACEWID
 40
0.05
  9
$TEXTSTYLE
  7
STANDARD
  9
$CLAYER
  8
3
  9
$CELTYPE
  6
ByLayer
  9
$CECOLOR
 62
   256
  9
$CELTSCALE
 40
1.0
  9
$DISPSILH
 70
     0
  9
$DIMSCALE
 40
0.5
  9
$DIMASZ
 40
0.18
  9
$DIMEXO
 40
0.0625
  9
$DIMDLI
 40
0.38
  9
$DIMRND
 40
0.0
  9
$DIMDLE
 40
0.0
  9
$DIMEXE
 40
0.18
  9
$DIMTP
 40
0.0
  9
$DIMTM
 40
0.0
  9
$DIMTXT
 40
0.18
  9
$DIMCEN
 40
0.09
  9
$DIMTSZ
 40
0.0
  9
$DIMTOL
 70
     0
  9
$DIMLIM
 70
     0
  9
$DIMTIH
 70
     1
  9
$DIMTOH
 70
     1
  9
$DIMSE1
 70
     0
  9
$DIMSE2
 70
     0
  9
$DIMTAD
 70
     0
  9
$DIMZIN
 70
     0
  9
$DIMBLK
  1

  9
$DIMASO
 70
     1
  9
$DIMSHO
 70
     1
  9
$DIMPOST
  1

  9
$DIMAPOST
  1

  9
$DIMALT
 70
     0
  9
$DIMALTD
 70
     2
  9
$DIMALTF
 40
25.4
  9
$DIMLFAC
 40
1.0
  9
$DIMTOFL
 70
     0
  9
$DIMTVP
 40
0.0
  9
$DIMTIX
 70
     0
  9
$DIMSOXD
 70
     0
  9
$DIMSAH
 70
     0
  9
$DIMBLK1
  1

  9
$DIMBLK2
  1

  9
$DIMSTYLE
  2
Standard
  9
$DIMCLRD
 70
     1
  9
$DIMCLRE
 70
     1
  9
$DIMCLRT
 70
     1
  9
$DIMTFAC
 40
1.0
  9
$DIMGAP
 40
0.09
  9
$DIMJUST
 70
     0
  9
$DIMSD1
 70
     0
  9
$DIMSD2
 70
     0
  9
$DIMTOLJ
 70
     1
  9
$DIMTZIN
 70
     0
  9
$DIMALTZ
 70
     0
  9
$DIMALTTZ
 70
     0
  9
$DIMUPT
 70
     0
  9
$DIMDEC
 70
     4
  9
$DIMTDEC
 70
     4
  9
$DIMALTU
 70
     2
  9
$DIMALTTD
 70
     2
  9
$DIMTXSTY
  7
STANDARD
  9
$DIMAUNIT
 70
     0
  9
$DIMADEC
 70
     0
  9
$DIMALTRND
 40
0.0
  9
$DIMAZIN
 70
     0
  9
$DIMDSEP
 70
    46
  9
$DIMATFIT
 70
     3
  9
$DIMFRAC
 70
     0
  9
$DIMLDRBLK
  1

  9
$DIMLUNIT
 70
     2
  9
$DIMLWD
 70
    -2
  9
$DIMLWE
 70
    -2
  9
$DIMTMOVE
 70
     2
  9
$LUNITS
 70
     2
  9
$LUPREC
 70
     4
  9
$SKETCHINC
 40
0.1
  9
$FILLETRAD
 40
0.0
  9
$AUNITS
 70
     0
  9
$AUPREC
 70
     0
  9
$MENU
  1
acad
  9
$ELEVATION
 40
0.0
  9
$PELEVATION
 40
0.0
  9
$THICKNESS
 40
0.0
  9
$LIMCHECK
 70
     0
  9
$CHAMFERA
 40
0.0
  9
$CHAMFERB
 40
0.0
  9
$CHAMFERC
 40
0.0
  9
$CHAMFERD
 40
0.0
  9
$SKPOLY
 70
     0
  9
$TDCREATE
 40
2449602.534641204
  9
$TDUCREATE
 40
2449602.742974537
  9
$TDUPDATE
 40
2457974.563657407
  9
$TDUUPDATE
 40
2457974.771990741
  9
$TDINDWG
 40
0.0847835648
  9
$TDUSRTIMER
 40
0.0847835648
  9
$USRTIMER
 70
     1
  9
$ANGBASE
 50
0.0
  9
$ANGDIR
 70
     0
  9
$PDMODE
 70
     0
  9
$PDSIZE
 40
0.0
  9
$PLINEWID
 40
0.0
  9
$SPLFRAME
 70
     0
  9
$SPLINETYPE
 70
     6
  9
$SPLINESEGS
 70
     8
  9
$HANDSEED
  5
601
  9
$SURFTAB1
 70
     6
  9
$SURFTAB2
 70
     6
  9
$SURFTYPE
 70
     6
  9
$SURFU
 70
     6
  9
$SURFV
 70
     6
  9
$UCSBASE
  2

  9
$UCSNAME
  2

  9
$UCSORG
 10
0.0
 20
0.0
 30
0.0
  9
$UCSXDIR
 10
1.0
 20
0.0
 30
0.0
  9
$UCSYDIR
 10
0.0
 20
1.0
 30
0.0
  9
$UCSORTHOREF
  2

  9
$UCSORTHOVIEW
 70
     0
  9
$UCSORGTOP
 10
0.0
 20
0.0
 30
0.0
  9
$UCSORGBOTTOM
 10
0.0
 20
0.0
 30
0.0
  9
$UCSORGLEFT
 10
0.0
 20
0.0
 30
0.0
  9
$UCSORGRIGHT
 10
0.0
 20
0.0
 30
0.0
  9
$UCSORGFRONT
 10
0.0
 20
0.0
 30
0.0
  9
$UCSORGBACK
 10
0.0
 20
0.0
 30
0.0
  9
$PUCSBASE
  2

  9
$PUCSNAME
  2

  9
$PUCSORG
 10
0.0
 20
0.0
 30
0.0
  9
$PUCSXDIR
 10
1.0
 20
0.0
 30
0.0
  9
$PUCSYDIR
 10
0.0
 20
1.0
 30
0.0
  9
$PUCSORTHOREF
  2

  9
$PUCSORTHOVIEW
 70
     0
  9
$PUCSORGTOP
 10
0.0
 20
0.0
 30
0.0
  9
$PUCSORGBOTTOM
 10
0.0
 20
0.0
 30
0.0
  9
$PUCSORGLEFT
 10
0.0
 20
0.0
 30
0.0
  9
$PUCSORGRIGHT
 10
0.0
 20
0.0
 30
0.0
  9
$PUCSORGFRONT
 10
0.0
 20
0.0
 30
0.0
  9
$PUCSORGBACK
 10
0.0
 20
0.0
 30
0.0
  9
$USERI1
 70
     0
  9
$USERI2
 70
     0
  9
$USERI3
 70
     0
  9
$USERI4
 70
     0
  9
$USERI5
 70
     0
  9
$USERR1
 40
0.0
  9
$USERR2
 40
0.0
  9
$USERR3
 40
0.0
  9
$USERR4
 40
0.0
  9
$USERR5
 40
0.0
  9
$WORLDVIEW
 70
     1
  9
$SHADEDGE
 70
     3
  9
$SHADEDIF
 70
    70
  9
$TILEMODE
 70
     1
  9
$MAXACTVP
 70
     4
  9
$PINSBASE
 10
0.0
 20
0.0
 30
0.0
  9
$PLIMCHECK
 70
     0
  9
$PEXTMIN
 10
1.000000000000000E+20
 20
1.000000000000000E+20
 30
1.000000000000000E+20
  9
$PEXTMAX
 10
-1.000000000000000E+20
 20
-1.000000000000000E+20
 30
-1.000000000000000E+20
  9
$PLIMMIN
 10
0.0
 20
0.0
  9
$PLIMMAX
 10
12.0
 20
9.0
  9
$UNITMODE
 70
     0
  9
$VISRETAIN
 70
     0
  9
$PLINEGEN
 70
     0
  9
$PSLTSCALE
 70
     0
  9
$TREEDEPTH
 70
  3020
  9
$CMLSTYLE
  2
Standard
  9
$CMLJUST
 70
     0
  9
$CMLSCALE
 40
1.0
  9
$PROXYGRAPHICS
 70
     1
  9
$MEASUREMENT
 70
     0
  9
$CELWEIGHT
370
    -1
  9
$ENDCAPS
280
     0
  9
$JOINSTYLE
280
     0
  9
$LWDISPLAY
290
     0
  9
$INSUNITS
 70
     0
  9
$HYPERLINKBASE
  1

  9
$STYLESHEET
  1

  9
$XEDIT
290
     1
  9
$CEPSNTYPE
380
     0
  9
$PSTYLEMODE
290
     1
  9
$FINGERPRINTGUID
  2
{89D7A757-27A8-D746-B05B-AB059EB529CA}
  9
$VERSIONGUID
  2
{7AFC8A1E-E6EB-AF46-AE6A-7F5185B7AFCB}
  9
$EXTNAMES
290
     1
  9
$PSVPSCALE
 40
0.0
  9
$OLESTARTUP
290
     0
  9
$SORTENTS
280
   127
  9
$INDEXCTL
280
     0
  9
$HIDETEXT
280
     1
  9
$XCLIPFRAME
290
     0
  9
$HALOGAP
280
     0
  9
$OBSCOLOR
 70
   257
  9
$OBSLTYPE
280
     0
  9
$INTERSECTIONDISPLAY
280
     0
  9
$INTERSECTIONCOLOR
 70
   257
  9
$DIMASSOC
280
     2
  9
$PROJECTNAME
  1

  0
ENDSEC
  0
SECTION
  2
CLASSES
  0
CLASS
  1
ACDBDICTIONARYWDFLT
  2
AcDbDictionaryWithDefault
  3
ObjectDBX Classes
 90
        0
 91
        1
280
     0
281
     0
  0
CLASS
  1
MATERIAL
  2
AcDbMaterial
  3
ObjectDBX Classes
 90
     1153
 91
        3
280
     0
281
     0
  0
CLASS
  1
VISUALSTYLE
  2
AcDbVisualStyle
  3
ObjectDBX Classes
 90
     4095
 91
       24
280
     0
281
     0
  0
CLASS
  1
SCALE
  2
AcDbScale
  3
ObjectDBX Classes
 90
     1153
 91
       17
280
     0
281
     0
  0
CLASS
  1
TABLESTYLE
  2
AcDbTableStyle
  3
ObjectDBX Classes
 90
     4095
 91
        1
280
     0
281
     0
  0
CLASS
  1
MLEADERSTYLE
  2
AcDbMLeaderStyle
  3
ACDB_MLEADERSTYLE_CLASS
 90
     4095
 91
        1
280
     0
281
     0
  0
CLASS
  1
ACDBSECTIONVIEWSTYLE
  2
AcDbSectionViewStyle
  3
ObjectDBX Classes
 90
     1025
 91
        1
280
     0
281
     0
  0
CLASS
  1
ACDBDETAILVIEWSTYLE
  2
AcDbDetailViewStyle
  3
ObjectDBX Classes
 90
     1025
 91
        1
280
     0
281
     0
  0
CLASS
  1
DICTIONARYVAR
  2
AcDbDictionaryVar
  3
ObjectDBX Classes
 90
        0
 91
       25
280
     0
281
     0
  0
CLASS
  1
CELLSTYLEMAP
  2
AcDbCellStyleMap
  3
ObjectDBX Classes
 90
     1152
 91
        2
280
     0
281
     0
  0
ENDSEC
  0
SECTION
  2
TABLES
  0
TABLE
  2
VPORT
  5
8
330
0
100
AcDbSymbolTable
 70
     2
  0
VPORT
  5
78
330
8
100
AcDbSymbolTableRecord
100
AcDbViewportTableRecord
  2
*ACTIVE
 70
     0
 10
0.0
 20
0.0
 11
1.0
 21
1.0
 12
6.952682532897078
 22
4.951560999094001
 13
0.0
 23
0.0
 14
0.015625
 24
0.015625
 15
1.0
 25
1.0
 16
0.0
 26
0.0
 36
1.0
 17
0.0
 27
0.0
 37
0.0
 40
5.290718111112457
 41
1.81418439716312
 42
50.0
 43
0.0
 44
0.0
 50
0.0
 51
0.0
 71
     0
 72
   500
 73
     1
 74
     0
 75
     1
 76
     0
 77
     0
 78
     0
281
     0
 65
     1
110
0.0
120
0.0
130
0.0
111
1.0
121
0.0
131
0.0
112
0.0
122
1.0
132
0.0
 79
     0
146
0.0
1001
ACAD_NAV_VCDISPLAY
1070
     3
  0
ENDTAB
  0
TABLE
  2
LTYPE
  5
5
330
0
100
AcDbSymbolTable
 70
     2
  0
LTYPE
  5
5A
330
5
100
AcDbSymbolTableRecord
100
AcDbLinetypeTableRecord
  2
ByBlock
 70
     0
  3

 72
    65
 73
     0
 40
0.0
  0
LTYPE
  5
5B
330
5
100
AcDbSymbolTableRecord
100
AcDbLinetypeTableRecord
  2
ByLayer
 70
     0
  3

 72
    65
 73
     0
 40
0.0
  0
LTYPE
  5
5C
330
5
100
AcDbSymbolTableRecord
100
AcDbLinetypeTableRecord
  2
CONTINUOUS
 70
     0
  3
Solid line
 72
    65
 73
     0
 40
0.0
  0
LTYPE
  5
76
330
5
100
AcDbSymbolTableRecord
100
AcDbLinetypeTableRecord
  2
HIDDEN
 70
     0
  3
__ __ __ __ __ __ __ __ __ __ __ __ __ __ __ __
 72
    65
 73
     2
 40
0.375
 49
0.25
 74
     0
 49
-0.125
 74
     0
  0
ENDTAB
  0
TABLE
  2
LAYER
  5
2
330
0
100
AcDbSymbolTable
 70
     7
  0
LAYER
  5
54
330
2
100
AcDbSymbolTableRecord
100
AcDbLayerTableRecord
  2
0
 70
     0
 62
     7
  6
CONTINUOUS
370
    -3
390
F
  0
LAYER
  5
79
330
2
100
AcDbSymbolTableRecord
100
AcDbLayerTableRecord
  2
2
 70
     0
 62
     2
  6
CONTINUOUS
370
    -3
390
F
  0
LAYER
  5
7A
330
2
100
AcDbSymbolTableRecord
100
AcDbLayerTableRecord
  2
3
 70
     0
 62
     3
  6
CONTINUOUS
370
    -3
390
F
  0
LAYER
  5
7B
330
2
100
AcDbSymbolTableRecord
100
AcDbLayerTableRecord
  2
4
 70
     0
 62
     4
  6
CONTINUOUS
370
    -3
390
F
  0
LAYER
  5
7C
330
2
100
AcDbSymbolTableRecord
100
AcDbLayerTableRecord
  2
DEFPOINTS
 70
     0
 62
     7
  6
CONTINUOUS
290
     0
370
    -3
390
F
  0
LAYER
  5
7D
330
2
100
AcDbSymbolTableRecord
100
AcDbLayerTableRecord
  2
1
 70
     0
 62
     1
  6
CONTINUOUS
370
    -3
390
F
  0
LAYER
  5
7E
330
2
100
AcDbSymbolTableRecord
100
AcDbLayerTableRecord
  2
5
 70
     0
 62
     5
  6
HIDDEN
370
    -3
390
F
  0
ENDTAB
  0
TABLE
  2
STYLE
  5
3
330
0
100
AcDbSymbolTable
 70
     2
  0
STYLE
  5
55
330
3
100
AcDbSymbolTableRecord
100
AcDbTextStyleTableRecord
  2
STANDARD
 70
     0
 40
0.0
 41
1.0
 50
0.0
 71
     0
 42
0.1
  3
SIMPLEX
  4

  0
STYLE
  5
59
330
3
100
AcDbSymbolTableRecord
100
AcDbTextStyleTableRecord
  2
Annotative
 70
     0
 40
0.0
 41
1.0
 50
0.0
 71
     0
 42
0.1
  3
txt
  4

1001
AcadAnnotative
1000
AnnotativeData
1002
{
1070
     1
1070
     1
1002
}
  0
ENDTAB
  0
TABLE
  2
VIEW
  5
6
330
0
100
AcDbSymbolTable
 70
     0
  0
ENDTAB
  0
TABLE
  2
UCS
  5
7
330
0
100
AcDbSymbolTable
 70
     0
  0
ENDTAB
  0
TABLE
  2
APPID
  5
9
330
0
100
AcDbSymbolTable
 70
     4
  0
APPID
  5
56
330
9
100
AcDbSymbolTableRecord
100
AcDbRegAppTableRecord
  2
ACAD
 70
     0
  0
APPID
  5
5D
330
9
100
AcDbSymbolTableRecord
100
AcDbRegAppTableRecord
  2
AcadAnnotative
 70
     0
  0
APPID
  5
566
330
9
100
AcDbSymbolTableRecord
100
AcDbRegAppTableRecord
  2
ACAD_NAV_VCDISPLAY
 70
     0
  0
APPID
  5
5FA
330
9
100
AcDbSymbolTableRecord
100
AcDbRegAppTableRecord
  2
ACAD_MLEADERVER
 70
     0
  0
ENDTAB
  0
TABLE
  2
DIMSTYLE
  5
A
330
0
100
AcDbSymbolTable
 70
     2
100
AcDbDimStyleTable
 71
     0
  0
DIMSTYLE
105
57
330
A
100
AcDbSymbolTableRecord
100
AcDbDimStyleTableRecord
  2
Standard
 70
     0
340
55
  0
DIMSTYLE
105
58
330
A
100
AcDbSymbolTableRecord
100
AcDbDimStyleTableRecord
  2
Annotative
 70
     0
340
55
1001
AcadAnnotative
1000
AnnotativeData
1002
{
1070
     1
1070
     1
1002
}
  0
ENDTAB
  0
TABLE
  2
BLOCK_RECORD
  5
1
330
0
100
AcDbSymbolTable
 70
     3
  0
BLOCK_RECORD
  5
6F
330
1
100
AcDbSymbolTableRecord
100
AcDbBlockTableRecord
  2
*Model_Space
340
72
  0
BLOCK_RECORD
  5
6B
330
1
100
AcDbSymbolTableRecord
100
AcDbBlockTableRecord
  2
*Paper_Space
340
6E
  0
BLOCK_RECORD
  5
73
330
1
100
AcDbSymbolTableRecord
100
AcDbBlockTableRecord
  2
*X0
340
0
  0
BLOCK_RECORD
  5
74
330
1
100
AcDbSymbolTableRecord
100
AcDbBlockTableRecord
  2
*X1
340
0
102
{BLKREFS
331
524
102
}
  0
BLOCK_RECORD
  5
75
330
1
100
AcDbSymbolTableRecord
100
AcDbBlockTableRecord
  2
BB
340
0
  0
ENDTAB
  0
ENDSEC
  0
SECTION
  2
BLOCKS
  0
BLOCK
  5
81
330
6F
100
AcDbEntity
  8
0
100
AcDbBlockBegin
  2
*Model_Space
 70
     0
 10
0.0
 20
0.0
 30
0.0
  3
*Model_Space
  1

  0
ENDBLK
  5
82
330
6F
100
AcDbEntity
  8
0
100
AcDbBlockEnd
  0
BLOCK
  5
7F
330
6B
100
AcDbEntity
 67
     1
  8
0
100
AcDbBlockBegin
  2
*Paper_Space
 70
     0
 10
0.0
 20
0.0
 30
0.0
  3
*Paper_Space
  1

  0
ENDBLK
  5
80
330
6B
100
AcDbEntity
 67
     1
  8
0
100
AcDbBlockEnd
  0
BLOCK
  5
83
330
73
100
AcDbEntity
  8
0
100
AcDbBlockBegin
  2
*X0
 70
     1
 10
0.0
 20
0.0
 30
0.0
  3
*X0
  1

  0
LINE
  5
84
330
73
100
AcDbEntity
  8
0
 62
     0
100
AcDbLine
 10
3.511235177213584
 20
1.102652703796907
 30
0.0
 11
3.651860177213584
 21
1.243277703796907
 31
0.0
  0
LINE
  5
85
330
73
100
AcDbEntity
  8
0
 62
     0
100
AcDbLine
 10
3.831595543440707
 20
1.423013070024029
 30
0.0
 11
4.150471373691871
 21
1.741888900275194
 31
0.0
  0
LINE
  5
86
330
73
100
AcDbEntity
  8
0
 62
     0
100
AcDbLine
 10
3.489138090301505
 20
1.102652703796907
 30
0.0
 11
3.629763090301505
 21
1.243277703796907
 31
0.0
  0
LINE
  5
87
330
73
100
AcDbEntity
  8
0
 62
     0
100
AcDbLine
 10
3.834747034686855
 20
1.448261648182257
 30
0.0
 11
4.153237530455356
 21
1.766752143950759
 31
0.0
  0
LINE
  5
88
330
73
100
AcDbEntity
  8
0
 62
     0
100
AcDbLine
 10
3.467041003389425
 20
1.102652703796907
 30
0.0
 11
3.607666003389425
 21
1.243277703796907
 31
0.0
  0
LINE
  5
89
330
73
100
AcDbEntity
  8
0
 62
     0
100
AcDbLine
 10
3.837898525933003
 20
1.473510226340485
 30
0.0
 11
4.155979218075933
 21
1.791590918483415
 31
0.0
  0
LINE
  5
8A
330
73
100
AcDbEntity
  8
0
 62
     0
100
AcDbLine
 10
3.444943916477345
 20
1.102652703796907
 30
0.0
 11
3.591735901373921
 21
1.249444688693483
 31
0.0
  0
LINE
  5
8B
330
73
100
AcDbEntity
  8
0
 62
     0
100
AcDbLine
 10
3.841050017179152
 20
1.498758804498713
 30
0.0
 11
4.15628230178784
 21
1.813991089107402
 31
0.0
  0
LINE
  5
8C
330
73
100
AcDbEntity
  8
0
 62
     0
100
AcDbLine
 10
3.422847062901882
 20
1.102652937133523
 30
0.0
 11
3.584289684532741
 21
1.264095558764382
 31
0.0
  0
LINE
  5
8D
330
73
100
AcDbEntity
  8
0
 62
     0
100
AcDbLine
 10
3.8442015084253
 20
1.524007382656941
 30
0.0
 11
4.153622123441651
 21
1.833427997673291
 31
0.0
  0
LINE
  5
8E
330
73
100
AcDbEntity
  8
0
 62
     0
100
AcDbLine
 10
3.402297398513271
 20
1.104200359656992
 30
0.0
 11
3.586691948301931
 21
1.288594909445651
 31
0.0
  0
LINE
  5
8F
330
73
100
AcDbEntity
  8
0
 62
     0
100
AcDbLine
 10
3.847352999671449
 20
1.549255960815169
 30
0.0
 11
4.148836157411974
 21
1.850739118555695
 31
0.0
  0
LINE
  5
90
330
73
100
AcDbEntity
  8
0
 62
     0
100
AcDbLine
 10
3.384154157650051
 20
1.108154205705851
 30
0.0
 11
3.589843439548079
 21
1.31384348760388
 31
0.0
  0
LINE
  5
91
330
73
100
AcDbEntity
  8
0
 62
     0
100
AcDbLine
 10
3.850504490917598
 20
1.574504538973398
 30
0.0
 11
4.142350140496056
 21
1.866350188551855
 31
0.0
  0
LINE
  5
92
330
73
100
AcDbEntity
  8
0
 62
     0
100
AcDbLine
 10
3.367860634694478
 20
1.113957769662357
 30
0.0
 11
3.592994930794228
 21
1.339092065762108
 31
0.0
  0
LINE
  5
93
330
73
100
AcDbEntity
  8
0
 62
     0
100
AcDbLine
 10
3.853655982163746
 20
1.599753117131626
 30
0.0
 11
4.134403950129811
 21
1.88050108509769
 31
0.0
  0
LINE
  5
94
330
73
100
AcDbEntity
  8
0
 62
     0
100
AcDbLine
 10
3.353113107575755
 20
1.121307329455715
 30
0.0
 11
3.596146422040376
 21
1.364340643920336
 31
0.0
  0
LINE
  5
95
330
73
100
AcDbEntity
  8
0
 62
     0
100
AcDbLine
 10
3.856807473409895
 20
1.625001695289854
 30
0.0
 11
4.125135084629781
 21
1.893329306509741
 31
0.0
  0
LINE
  5
96
330
73
100
AcDbEntity
  8
0
 62
     0
100
AcDbLine
 10
3.339736909832506
 20
1.130028218624545
 30
0.0
 11
3.599297913286525
 21
1.389589222078564
 31
0.0
  0
LINE
  5
97
330
73
100
AcDbEntity
  8
0
 62
     0
100
AcDbLine
 10
3.859958964656043
 20
1.650250273448082
 30
0.0
 11
4.114614589569844
 21
1.904905898361884
 31
0.0
  0
LINE
  5
98
330
73
100
AcDbEntity
  8
0
 62
     0
100
AcDbLine
 10
3.327635619084862
 20
1.140024014788981
 30
0.0
 11
3.602449404532674
 21
1.414837800236792
 31
0.0
  0
LINE
  5
99
330
73
100
AcDbEntity
  8
0
 62
     0
100
AcDbLine
 10
3.863110455902191
 20
1.67549885160631
 30
0.0
 11
4.102862549611542
 21
1.915250945315661
 31
0.0
  0
LINE
  5
9A
330
73
100
AcDbEntity
  8
0
 62
     0
100
AcDbLine
 10
3.316768629105649
 20
1.151254111721847
 30
0.0
 11
3.605600895778822
 21
1.44008637839502
 31
0.0
  0
LINE
  5
9B
330
73
100
AcDbEntity
  8
0
 62
     0
100
AcDbLine
 10
3.86626194714834
 20
1.700747429764538
 30
0.0
 11
4.08985210886063
 21
1.924337591476828
 31
0.0
  0
LINE
  5
9C
330
73
100
AcDbEntity
  8
0
 62
     0
100
AcDbLine
 10
3.307142816696299
 20
1.163725386224577
 30
0.0
 11
3.60875238702497
 21
1.465334956553248
 31
0.0
  0
LINE
  5
9D
330
73
100
AcDbEntity
  8
0
 62
     0
100
AcDbLine
 10
3.869413438394488
 20
1.725996007922766
 30
0.0
 11
4.07550405997951
 21
1.932086629507788
 31
0.0
  0
LINE
  5
9E
330
73
100
AcDbEntity
  8
0
 62
     0
100
AcDbLine
 10
3.298813908023072
 20
1.17749356446343
 30
0.0
 11
3.611903878271119
 21
1.490583534711477
 31
0.0
  0
LINE
  5
9F
330
73
100
AcDbEntity
  8
0
 62
     0
100
AcDbLine
 10
3.872564929640637
 20
1.751244586080994
 30
0.0
 11
4.059669228179818
 21
1.938348884620176
 31
0.0
  0
LINE
  5
A0
330
73
100
AcDbEntity
  8
0
 62
     0
100
AcDbLine
 10
3.291898229790497
 20
1.192674973142934
 30
0.0
 11
3.615055369517267
 21
1.515832112869705
 31
0.0
  0
LINE
  5
A1
330
73
100
AcDbEntity
  8
0
 62
     0
100
AcDbLine
 10
3.875716420886785
 20
1.776493164239222
 30
0.0
 11
4.042088151068514
 21
1.942864894420951
 31
0.0
  0
LINE
  5
A2
330
73
100
AcDbEntity
  8
0
 62
     0
100
AcDbLine
 10
3.286601307428324
 20
1.20947513769284
 30
0.0
 11
3.618206860763416
 21
1.541080691027933
 31
0.0
  0
LINE
  5
A3
330
73
100
AcDbEntity
  8
0
 62
     0
100
AcDbLine
 10
3.871860677629859
 20
1.794734507894375
 30
0.0
 11
4.022296098663763
 21
1.94516992892828
 31
0.0
  0
LINE
  5
A4
330
73
100
AcDbEntity
  8
0
 62
     0
100
AcDbLine
 10
3.283283072964443
 20
1.228253990141039
 30
0.0
 11
3.621358352009564
 21
1.566329269186161
 31
0.0
  0
LINE
  5
A5
330
73
100
AcDbEntity
  8
0
 62
     0
100
AcDbLine
 10
3.858883623588233
 20
1.803854540764829
 30
0.0
 11
4.000341582823404
 21
1.9453125
 31
0.0
  0
LINE
  5
A6
330
73
100
AcDbEntity
  8
0
 62
     0
100
AcDbLine
 10
3.282624630425784
 20
1.24969263451446
 30
0.0
 11
3.624509843255713
 21
1.591577847344389
 31
0.0
  0
LINE
  5
A7
330
73
100
AcDbEntity
  8
0
 62
     0
100
AcDbLine
 10
3.837619495911324
 20
1.8046875
 30
0.0
 11
3.978244495911324
 21
1.9453125
 31
0.0
  0
LINE
  5
A8
330
73
100
AcDbEntity
  8
0
 62
     0
100
AcDbLine
 10
3.285052865323831
 20
1.274217956324587
 30
0.0
 11
3.627661334501862
 21
1.616826425502617
 31
0.0
  0
LINE
  5
A9
330
73
100
AcDbEntity
  8
0
 62
     0
100
AcDbLine
 10
3.815522408999244
 20
1.8046875
 30
0.0
 11
3.956147408999244
 21
1.9453125
 31
0.0
  0
LINE
  5
AA
330
73
100
AcDbEntity
  8
0
 62
     0
100
AcDbLine
 10
3.287819022087316
 20
1.299081200000151
 30
0.0
 11
3.63081282574801
 21
1.642075003660845
 31
0.0
  0
LINE
  5
AB
330
73
100
AcDbEntity
  8
0
 62
     0
100
AcDbLine
 10
3.793425322087164
 20
1.8046875
 30
0.0
 11
3.934050322087164
 21
1.9453125
 31
0.0
  0
LINE
  5
AC
330
73
100
AcDbEntity
  8
0
 62
     0
100
AcDbLine
 10
3.290585178850801
 20
1.323944443675716
 30
0.0
 11
3.633964316994159
 21
1.667323581819073
 31
0.0
  0
LINE
  5
AD
330
73
100
AcDbEntity
  8
0
 62
     0
100
AcDbLine
 10
3.771328235175085
 20
1.8046875
 30
0.0
 11
3.911953235175085
 21
1.9453125
 31
0.0
  0
LINE
  5
AE
330
73
100
AcDbEntity
  8
0
 62
     0
100
AcDbLine
 10
3.066706212495533
 20
1.122162564232527
 30
0.0
 11
3.116361478051478
 21
1.171817829788472
 31
0.0
  0
LINE
  5
AF
330
73
100
AcDbEntity
  8
0
 62
     0
100
AcDbLine
 10
3.749231148263005
 20
1.8046875
 30
0.0
 11
3.889856148263005
 21
1.9453125
 31
0.0
  0
LINE
  5
B0
330
73
100
AcDbEntity
  8
0
 62
     0
100
AcDbLine
 10
3.293351335614286
 20
1.348807687351281
 30
0.0
 11
3.637115808240307
 21
1.692572159977301
 31
0.0
  0
LINE
  5
B1
330
73
100
AcDbEntity
  8
0
 62
     0
100
AcDbLine
 10
3.029279692331155
 20
1.106833130980229
 30
0.0
 11
3.131690911303776
 21
1.20924434995285
 31
0.0
  0
LINE
  5
B2
330
73
100
AcDbEntity
  8
0
 62
     0
100
AcDbLine
 10
3.727134061350926
 20
1.8046875
 30
0.0
 11
3.867759061350925
 21
1.9453125
 31
0.0
  0
LINE
  5
B3
330
73
100
AcDbEntity
  8
0
 62
     0
100
AcDbLine
 10
3.296117492377771
 20
1.373670931026845
 30
0.0
 11
3.640267299486456
 21
1.71782073813553
 31
0.0
  0
LINE
  5
B4
330
73
100
AcDbEntity
  8
0
 62
     0
100
AcDbLine
 10
3.003228927167743
 20
1.102879452728896
 30
0.0
 11
3.135876685019714
 21
1.235527210580868
 31
0.0
  0
LINE
  5
B5
330
73
100
AcDbEntity
  8
0
 62
     0
100
AcDbLine
 10
3.705036974438846
 20
1.8046875
 30
0.0
 11
3.845661974438846
 21
1.9453125
 31
0.0
  0
LINE
  5
B6
330
73
100
AcDbEntity
  8
0
 62
     0
100
AcDbLine
 10
3.298883649141256
 20
1.39853417470241
 30
0.0
 11
3.643418790732604
 21
1.743069316293758
 31
0.0
  0
LINE
  5
B7
330
73
100
AcDbEntity
  8
0
 62
     0
100
AcDbLine
 10
2.980905091323674
 20
1.102652703796907
 30
0.0
 11
3.1386428417832
 21
1.260390454256433
 31
0.0
  0
LINE
  5
B8
330
73
100
AcDbEntity
  8
0
 62
     0
100
AcDbLine
 10
3.682939887526766
 20
1.8046875
 30
0.0
 11
3.823564887526766
 21
1.9453125
 31
0.0
  0
LINE
  5
B9
330
73
100
AcDbEntity
  8
0
 62
     0
100
AcDbLine
 10
3.301649805904741
 20
1.423397418377975
 30
0.0
 11
3.646570281978752
 21
1.768317894451986
 31
0.0
  0
LINE
  5
BA
330
73
100
AcDbEntity
  8
0
 62
     0
100
AcDbLine
 10
2.958808004411594
 20
1.102652703796907
 30
0.0
 11
3.141408998546685
 21
1.285253697931998
 31
0.0
  0
LINE
  5
BB
330
73
100
AcDbEntity
  8
0
 62
     0
100
AcDbLine
 10
3.304415962668227
 20
1.44826066205354
 30
0.0
 11
3.801467800614687
 21
1.9453125
 31
0.0
  0
LINE
  5
BC
330
73
100
AcDbEntity
  8
0
 62
     0
100
AcDbLine
 10
2.936710917499515
 20
1.102652703796907
 30
0.0
 11
3.14417515531017
 21
1.310116941607563
 31
0.0
  0
LINE
  5
BD
330
73
100
AcDbEntity
  8
0
 62
     0
100
AcDbLine
 10
3.307182119431712
 20
1.473123905729104
 30
0.0
 11
3.779370713702607
 21
1.9453125
 31
0.0
  0
LINE
  5
BE
330
73
100
AcDbEntity
  8
0
 62
     0
100
AcDbLine
 10
2.914613830587435
 20
1.102652703796907
 30
0.0
 11
3.146941312073655
 21
1.334980185283128
 31
0.0
  0
LINE
  5
BF
330
73
100
AcDbEntity
  8
0
 62
     0
100
AcDbLine
 10
3.309948276195197
 20
1.497987149404669
 30
0.0
 11
3.757273626790528
 21
1.9453125
 31
0.0
  0
LINE
  5
C0
330
73
100
AcDbEntity
  8
0
 62
     0
100
AcDbLine
 10
2.892516743675355
 20
1.102652703796907
 30
0.0
 11
3.149707468837141
 21
1.359843428958692
 31
0.0
  0
LINE
  5
C1
330
73
100
AcDbEntity
  8
0
 62
     0
100
AcDbLine
 10
3.312714432958682
 20
1.522850393080234
 30
0.0
 11
3.735176539878448
 21
1.9453125
 31
0.0
  0
LINE
  5
C2
330
73
100
AcDbEntity
  8
0
 62
     0
100
AcDbLine
 10
2.870419656763276
 20
1.102652703796907
 30
0.0
 11
3.151455518863128
 21
1.383688565896759
 31
0.0
  0
LINE
  5
C3
330
73
100
AcDbEntity
  8
0
 62
     0
100
AcDbLine
 10
3.315480589722167
 20
1.547713636755799
 30
0.0
 11
3.713079452966368
 21
1.9453125
 31
0.0
  0
LINE
  5
C4
330
73
100
AcDbEntity
  8
0
 62
     0
100
AcDbLine
 10
2.848322569851196
 20
1.102652703796907
 30
0.0
 11
3.149898486223318
 21
1.404228620169029
 31
0.0
  0
LINE
  5
C5
330
73
100
AcDbEntity
  8
0
 62
     0
100
AcDbLine
 10
3.318246746485652
 20
1.572576880431363
 30
0.0
 11
3.690982366054289
 21
1.9453125
 31
0.0
  0
LINE
  5
C6
330
73
100
AcDbEntity
  8
0
 62
     0
100
AcDbLine
 10
2.826225482939117
 20
1.102652703796907
 30
0.0
 11
3.145937626878426
 21
1.422364847736217
 31
0.0
  0
LINE
  5
C7
330
73
100
AcDbEntity
  8
0
 62
     0
100
AcDbLine
 10
3.321012903249137
 20
1.597440124106928
 30
0.0
 11
3.668885279142209
 21
1.9453125
 31
0.0
  0
LINE
  5
C8
330
73
100
AcDbEntity
  8
0
 62
     0
100
AcDbLine
 10
2.804128396027037
 20
1.102652703796907
 30
0.0
 11
3.140128401460774
 21
1.438652709230644
 31
0.0
  0
LINE
  5
C9
330
73
100
AcDbEntity
  8
0
 62
     0
100
AcDbLine
 10
3.323779060012622
 20
1.622303367782493
 30
0.0
 11
3.646788192230129
 21
1.9453125
 31
0.0
  0
LINE
  5
CA
330
73
100
AcDbEntity
  8
0
 62
     0
100
AcDbLine
 10
2.782031309114957
 20
1.102652703796907
 30
0.0
 11
3.132773949476133
 21
1.453395344158082
 31
0.0
  0
LINE
  5
CB
330
73
100
AcDbEntity
  8
0
 62
     0
100
AcDbLine
 10
3.326545216776108
 20
1.647166611458057
 30
0.0
 11
3.62469110531805
 21
1.9453125
 31
0.0
  0
LINE
  5
CC
330
73
100
AcDbEntity
  8
0
 62
     0
100
AcDbLine
 10
2.759934222202878
 20
1.102652703796907
 30
0.0
 11
3.124048609191604
 21
1.466767090785634
 31
0.0
  0
LINE
  5
CD
330
73
100
AcDbEntity
  8
0
 62
     0
100
AcDbLine
 10
3.329311373539593
 20
1.672029855133622
 30
0.0
 11
3.60259401840597
 21
1.9453125
 31
0.0
  0
LINE
  5
CE
330
73
100
AcDbEntity
  8
0
 62
     0
100
AcDbLine
 10
2.737837135290798
 20
1.102652703796907
 30
0.0
 11
3.114048586126402
 21
1.478864154632511
 31
0.0
  0
LINE
  5
CF
330
73
100
AcDbEntity
  8
0
 62
     0
100
AcDbLine
 10
3.332077530303078
 20
1.696893098809187
 30
0.0
 11
3.580496931493891
 21
1.9453125
 31
0.0
  0
LINE
  5
D0
330
73
100
AcDbEntity
  8
0
 62
     0
100
AcDbLine
 10
2.715740048378719
 20
1.102652703796907
 30
0.0
 11
3.102814317427338
 21
1.489726972845526
 31
0.0
  0
LINE
  5
D1
330
73
100
AcDbEntity
  8
0
 62
     0
100
AcDbLine
 10
3.334843687066563
 20
1.721756342484752
 30
0.0
 11
3.558399844581811
 21
1.9453125
 31
0.0
  0
LINE
  5
D2
330
73
100
AcDbEntity
  8
0
 62
     0
100
AcDbLine
 10
2.693642961466639
 20
1.102652703796907
 30
0.0
 11
2.834703095869278
 21
1.243712838199547
 31
0.0
  0
LINE
  5
D3
330
73
100
AcDbEntity
  8
0
 62
     0
100
AcDbLine
 10
3.337609843830048
 20
1.746619586160316
 30
0.0
 11
3.536302757669731
 21
1.9453125
 31
0.0
  0
LINE
  5
D4
330
73
100
AcDbEntity
  8
0
 62
     0
100
AcDbLine
 10
2.853210176917815
 20
1.262219919248083
 30
0.0
 11
3.090338768093922
 21
1.49934851042419
 31
0.0
  0
LINE
  5
D5
330
73
100
AcDbEntity
  8
0
 62
     0
100
AcDbLine
 10
2.671545874554559
 20
1.102652703796907
 30
0.0
 11
2.812170874554559
 21
1.243277703796907
 31
0.0
  0
LINE
  5
D6
330
73
100
AcDbEntity
  8
0
 62
     0
100
AcDbLine
 10
3.340376000593533
 20
1.771482829835881
 30
0.0
 11
3.514205670757652
 21
1.9453125
 31
0.0
  0
LINE
  5
D7
330
73
100
AcDbEntity
  8
0
 62
     0
100
AcDbLine
 10
2.856425549911622
 20
1.28753237915397
 30
0.0
 11
3.076566033145061
 21
1.507672862387409
 31
0.0
  0
LINE
  5
D8
330
73
100
AcDbEntity
  8
0
 62
     0
100
AcDbLine
 10
3.110770838176251
 20
1.541877667418599
 30
0.0
 11
3.164851272966953
 21
1.595958102209301
 31
0.0
  0
LINE
  5
D9
330
73
100
AcDbEntity
  8
0
 62
     0
100
AcDbLine
 10
2.64944878764248
 20
1.102652703796907
 30
0.0
 11
2.790073787642479
 21
1.243277703796907
 31
0.0
  0
LINE
  5
DA
330
73
100
AcDbEntity
  8
0
 62
     0
100
AcDbLine
 10
3.343142157357018
 20
1.796346073511446
 30
0.0
 11
3.492108583845572
 21
1.9453125
 31
0.0
  0
LINE
  5
DB
330
73
100
AcDbEntity
  8
0
 62
     0
100
AcDbLine
 10
2.859577041157771
 20
1.312780957312198
 30
0.0
 11
3.061379544500067
 21
1.514583460654495
 31
0.0
  0
LINE
  5
DC
330
73
100
AcDbEntity
  8
0
 62
     0
100
AcDbLine
 10
3.074574706650143
 20
1.52777862280457
 30
0.0
 11
3.178950317580981
 21
1.632154233735408
 31
0.0
  0
LINE
  5
DD
330
73
100
AcDbEntity
  8
0
 62
     0
100
AcDbLine
 10
2.6273517007304
 20
1.102652703796907
 30
0.0
 11
2.7679767007304
 21
1.243277703796907
 31
0.0
  0
LINE
  5
DE
330
73
100
AcDbEntity
  8
0
 62
     0
100
AcDbLine
 10
3.345912202476302
 20
1.821213205542808
 30
0.0
 11
3.469037102665487
 21
1.944338105731995
 31
0.0
  0
LINE
  5
DF
330
73
100
AcDbEntity
  8
0
 62
     0
100
AcDbLine
 10
2.862728532403919
 20
1.338029535470426
 30
0.0
 11
3.044573393773276
 21
1.519874396839783
 31
0.0
  0
LINE
  5
E0
330
73
100
AcDbEntity
  8
0
 62
     0
100
AcDbLine
 10
3.048842299794412
 20
1.524143302860919
 30
0.0
 11
3.182901349998962
 21
1.658202353065468
 31
0.0
  0
LINE
  5
E1
330
73
100
AcDbEntity
  8
0
 62
     0
100
AcDbLine
 10
2.605254613818321
 20
1.102652703796907
 30
0.0
 11
2.74587961381832
 21
1.243277703796907
 31
0.0
  0
LINE
  5
E2
330
73
100
AcDbEntity
  8
0
 62
     0
100
AcDbLine
 10
3.352354075043058
 20
1.849752165021645
 30
0.0
 11
3.440498143186651
 21
1.937896233165238
 31
0.0
  0
LINE
  5
E3
330
73
100
AcDbEntity
  8
0
 62
     0
100
AcDbLine
 10
2.865880023650068
 20
1.363278113628654
 30
0.0
 11
3.025786933856435
 21
1.523185023835021
 31
0.0
  0
LINE
  5
E4
330
73
100
AcDbEntity
  8
0
 62
     0
100
AcDbLine
 10
3.026584511919867
 20
1.523982601898453
 30
0.0
 11
3.185667506762447
 21
1.683065596741033
 31
0.0
  0
LINE
  5
E5
330
73
100
AcDbEntity
  8
0
 62
     0
100
AcDbLine
 10
2.583157526906241
 20
1.102652703796907
 30
0.0
 11
2.72378252690624
 21
1.243277703796907
 31
0.0
  0
LINE
  5
E6
330
73
100
AcDbEntity
  8
0
 62
     0
100
AcDbLine
 10
2.869031514896216
 20
1.388526691786883
 30
0.0
 11
3.188433663525932
 21
1.707928840416598
 31
0.0
  0
LINE
  5
E7
330
73
100
AcDbEntity
  8
0
 62
     0
100
AcDbLine
 10
2.561060439994161
 20
1.102652703796907
 30
0.0
 11
2.701685439994161
 21
1.243277703796907
 31
0.0
  0
LINE
  5
E8
330
73
100
AcDbEntity
  8
0
 62
     0
100
AcDbLine
 10
2.872183006142365
 20
1.413775269945111
 30
0.0
 11
3.191199820289417
 21
1.732792084092163
 31
0.0
  0
LINE
  5
E9
330
73
100
AcDbEntity
  8
0
 62
     0
100
AcDbLine
 10
2.538963353082082
 20
1.102652703796907
 30
0.0
 11
2.679588353082081
 21
1.243277703796907
 31
0.0
  0
LINE
  5
EA
330
73
100
AcDbEntity
  8
0
 62
     0
100
AcDbLine
 10
2.873288415045637
 20
1.436977765760463
 30
0.0
 11
3.193965977052902
 21
1.757655327767727
 31
0.0
  0
LINE
  5
EB
330
73
100
AcDbEntity
  8
0
 62
     0
100
AcDbLine
 10
2.516866266170002
 20
1.102652703796907
 30
0.0
 11
2.657491266170002
 21
1.243277703796907
 31
0.0
  0
LINE
  5
EC
330
73
100
AcDbEntity
  8
0
 62
     0
100
AcDbLine
 10
2.864164954623619
 20
1.449951392250524
 30
0.0
 11
3.196732133816387
 21
1.782518571443292
 31
0.0
  0
LINE
  5
ED
330
73
100
AcDbEntity
  8
0
 62
     0
100
AcDbLine
 10
2.494769179257922
 20
1.102652703796907
 30
0.0
 11
2.638200358370786
 21
1.246083882909771
 31
0.0
  0
LINE
  5
EE
330
73
100
AcDbEntity
  8
0
 62
     0
100
AcDbLine
 10
2.846331679257922
 20
1.454215203796907
 30
0.0
 11
3.198322707038962
 21
1.806206231577947
 31
0.0
  0
LINE
  5
EF
330
73
100
AcDbEntity
  8
0
 62
     0
100
AcDbLine
 10
2.472672092345843
 20
1.102652703796907
 30
0.0
 11
2.627696215932504
 21
1.257676827383569
 31
0.0
  0
LINE
  5
F0
330
73
100
AcDbEntity
  8
0
 62
     0
100
AcDbLine
 10
2.824234592345843
 20
1.454215203796907
 30
0.0
 11
3.196614034702044
 21
1.826594646153109
 31
0.0
  0
LINE
  5
F1
330
73
100
AcDbEntity
  8
0
 62
     0
100
AcDbLine
 10
2.450575005433763
 20
1.102652703796907
 30
0.0
 11
2.62727941100359
 21
1.279357109366734
 31
0.0
  0
LINE
  5
F2
330
73
100
AcDbEntity
  8
0
 62
     0
100
AcDbLine
 10
2.802137505433763
 20
1.454215203796907
 30
0.0
 11
3.192542110265409
 21
1.844619808628553
 31
0.0
  0
LINE
  5
F3
330
73
100
AcDbEntity
  8
0
 62
     0
100
AcDbLine
 10
2.428477918521684
 20
1.102652703796907
 30
0.0
 11
2.630430902249738
 21
1.304605687524962
 31
0.0
  0
LINE
  5
F4
330
73
100
AcDbEntity
  8
0
 62
     0
100
AcDbLine
 10
2.780040418521684
 20
1.454215203796907
 30
0.0
 11
3.186643021860648
 21
1.860817807135871
 31
0.0
  0
LINE
  5
F5
330
73
100
AcDbEntity
  8
0
 62
     0
100
AcDbLine
 10
2.406380831609604
 20
1.102652703796907
 30
0.0
 11
2.633582393495887
 21
1.32985426568319
 31
0.0
  0
LINE
  5
F6
330
73
100
AcDbEntity
  8
0
 62
     0
100
AcDbLine
 10
2.757943331609604
 20
1.454215203796907
 30
0.0
 11
3.179210788351606
 21
1.875482660538909
 31
0.0
  0
LINE
  5
F7
330
73
100
AcDbEntity
  8
0
 62
     0
100
AcDbLine
 10
2.384283744697524
 20
1.102652703796907
 30
0.0
 11
2.636733884742036
 21
1.355102843841418
 31
0.0
  0
LINE
  5
F8
330
73
100
AcDbEntity
  8
0
 62
     0
100
AcDbLine
 10
2.897394936111553
 20
1.615763895210936
 30
0.0
 11
3.170414585495267
 21
1.88878354459465
 31
0.0
  0
LINE
  5
F9
330
73
100
AcDbEntity
  8
0
 62
     0
100
AcDbLine
 10
2.735846244697524
 20
1.454215203796907
 30
0.0
 11
2.875427449183112
 21
1.593796408282495
 31
0.0
  0
LINE
  5
FA
330
73
100
AcDbEntity
  8
0
 62
     0
100
AcDbLine
 10
2.364333294798619
 20
1.104799340810082
 30
0.0
 11
2.639885375988184
 21
1.380351421999646
 31
0.0
  0
LINE
  5
FB
330
73
100
AcDbEntity
  8
0
 62
     0
100
AcDbLine
 10
2.900546427357702
 20
1.641012473369164
 30
0.0
 11
3.160347192007932
 21
1.900813238019394
 31
0.0
  0
LINE
  5
FC
330
73
100
AcDbEntity
  8
0
 62
     0
100
AcDbLine
 10
2.713749157785445
 20
1.454215203796907
 30
0.0
 11
2.853283953988537
 21
1.593749999999999
 31
0.0
  0
LINE
  5
FD
330
73
100
AcDbEntity
  8
0
 62
     0
100
AcDbLine
 10
2.361328650335642
 20
1.123891783259184
 30
0.0
 11
2.365581564418618
 21
1.12814469734216
 31
0.0
  0
LINE
  5
FE
330
73
100
AcDbEntity
  8
0
 62
     0
100
AcDbLine
 10
2.90369791860385
 20
1.666261051527392
 30
0.0
 11
3.149046359855808
 21
1.91160949277935
 31
0.0
  0
LINE
  5
FF
330
73
100
AcDbEntity
  8
0
 62
     0
100
AcDbLine
 10
2.382232110097509
 20
1.144795243021051
 30
0.0
 11
2.643036867234332
 21
1.405600000157874
 31
0.0
  0
LINE
  5
100
330
73
100
AcDbEntity
  8
0
 62
     0
100
AcDbLine
 10
2.691652070873365
 20
1.454215203796907
 30
0.0
 11
2.831186867076457
 21
1.593749999999999
 31
0.0
  0
LINE
  5
101
330
73
100
AcDbEntity
  8
0
 62
     0
100
AcDbLine
 10
2.385527307110962
 20
1.170187526946584
 30
0.0
 11
2.646188358480481
 21
1.430848578316102
 31
0.0
  0
LINE
  5
102
330
73
100
AcDbEntity
  8
0
 62
     0
100
AcDbLine
 10
2.906849409849999
 20
1.691509629685621
 30
0.0
 11
3.1365025279874
 21
1.921162747823021
 31
0.0
  0
LINE
  5
103
330
73
100
AcDbEntity
  8
0
 62
     0
100
AcDbLine
 10
2.66955370151914
 20
1.454213921354762
 30
0.0
 11
2.809089780164378
 21
1.593749999999999
 31
0.0
  0
LINE
  5
104
330
73
100
AcDbEntity
  8
0
 62
     0
100
AcDbLine
 10
2.388678798357111
 20
1.195436105104812
 30
0.0
 11
2.786992693252298
 21
1.593749999999999
 31
0.0
  0
LINE
  5
105
330
73
100
AcDbEntity
  8
0
 62
     0
100
AcDbLine
 10
2.910000901096148
 20
1.716758207843849
 30
0.0
 11
3.122656920903475
 21
1.929414227651176
 31
0.0
  0
LINE
  5
106
330
73
100
AcDbEntity
  8
0
 62
     0
100
AcDbLine
 10
2.391830289603259
 20
1.22068468326304
 30
0.0
 11
2.764895606340219
 21
1.593749999999999
 31
0.0
  0
LINE
  5
107
330
73
100
AcDbEntity
  8
0
 62
     0
100
AcDbLine
 10
2.913152392342296
 20
1.742006786002077
 30
0.0
 11
3.107389076888511
 21
1.936243470548291
 31
0.0
  0
LINE
  5
108
330
73
100
AcDbEntity
  8
0
 62
     0
100
AcDbLine
 10
2.394981780849408
 20
1.245933261421268
 30
0.0
 11
2.742798519428139
 21
1.593749999999999
 31
0.0
  0
LINE
  5
109
330
73
100
AcDbEntity
  8
0
 62
     0
100
AcDbLine
 10
2.916303883588445
 20
1.767255364160305
 30
0.0
 11
3.090486881929346
 21
1.941438362501206
 31
0.0
  0
LINE
  5
10A
330
73
100
AcDbEntity
  8
0
 62
     0
100
AcDbLine
 10
2.398133272095556
 20
1.271181839579496
 30
0.0
 11
2.720701432516059
 21
1.593749999999999
 31
0.0
  0
LINE
  5
10B
330
73
100
AcDbEntity
  8
0
 62
     0
100
AcDbLine
 10
2.916391318365285
 20
1.789439885849225
 30
0.0
 11
3.071578042550221
 21
1.944626610034161
 31
0.0
  0
LINE
  5
10C
330
73
100
AcDbEntity
  8
0
 62
     0
100
AcDbLine
 10
2.401284763341705
 20
1.296430417737724
 30
0.0
 11
2.69860434560398
 21
1.593749999999999
 31
0.0
  0
LINE
  5
10D
330
73
100
AcDbEntity
  8
0
 62
     0
100
AcDbLine
 10
2.906309135812601
 20
1.801454790208621
 30
0.0
 11
3.05016684560398
 21
1.9453125
 31
0.0
  0
LINE
  5
10E
330
73
100
AcDbEntity
  8
0
 62
     0
100
AcDbLine
 10
2.185409962488808
 20
1.102652703796907
 30
0.0
 11
2.205663894202083
 21
1.122906635510182
 31
0.0
  0
LINE
  5
10F
330
73
100
AcDbEntity
  8
0
 62
     0
100
AcDbLine
 10
2.8874447586919
 20
1.804687499999999
 30
0.0
 11
3.0280697586919
 21
1.9453125
 31
0.0
  0
LINE
  5
110
330
73
100
AcDbEntity
  8
0
 62
     0
100
AcDbLine
 10
2.404436254587853
 20
1.321678995895953
 30
0.0
 11
2.680293493262605
 21
1.597536234570704
 31
0.0
  0
LINE
  5
111
330
73
100
AcDbEntity
  8
0
 62
     0
100
AcDbLine
 10
2.163312875576728
 20
1.102652703796907
 30
0.0
 11
2.194387643641958
 21
1.133727471862137
 31
0.0
  0
LINE
  5
112
330
73
100
AcDbEntity
  8
0
 62
     0
100
AcDbLine
 10
2.86534767177982
 20
1.804687499999999
 30
0.0
 11
3.005972671779821
 21
1.9453125
 31
0.0
  0
LINE
  5
113
330
73
100
AcDbEntity
  8
0
 62
     0
100
AcDbLine
 10
2.407587745834002
 20
1.346927574054181
 30
0.0
 11
2.670734319422747
 21
1.610074147642925
 31
0.0
  0
LINE
  5
114
330
73
100
AcDbEntity
  8
0
 62
     0
100
AcDbLine
 10
2.141215788664649
 20
1.102652703796907
 30
0.0
 11
2.183987681472059
 21
1.145424596604317
 31
0.0
  0
LINE
  5
115
330
73
100
AcDbEntity
  8
0
 62
     0
100
AcDbLine
 10
2.843250584867741
 20
1.804687499999999
 30
0.0
 11
2.983875584867741
 21
1.9453125
 31
0.0
  0
LINE
  5
116
330
73
100
AcDbEntity
  8
0
 62
     0
100
AcDbLine
 10
2.410739237080151
 20
1.372176152212409
 30
0.0
 11
2.67140028844967
 21
1.632837203581928
 31
0.0
  0
LINE
  5
117
330
73
100
AcDbEntity
  8
0
 62
     0
100
AcDbLine
 10
2.119118701752569
 20
1.102652703796907
 30
0.0
 11
2.186259357731028
 21
1.169793359775366
 31
0.0
  0
LINE
  5
118
330
73
100
AcDbEntity
  8
0
 62
     0
100
AcDbLine
 10
2.821153497955661
 20
1.804687499999999
 30
0.0
 11
2.961778497955662
 21
1.9453125
 31
0.0
  0
LINE
  5
119
330
73
100
AcDbEntity
  8
0
 62
     0
100
AcDbLine
 10
2.413890728326299
 20
1.397424730370637
 30
0.0
 11
2.674551779695818
 21
1.658085781740156
 31
0.0
  0
LINE
  5
11A
330
73
100
AcDbEntity
  8
0
 62
     0
100
AcDbLine
 10
2.097021614840489
 20
1.102652703796907
 30
0.0
 11
2.189410848977176
 21
1.195041937933594
 31
0.0
  0
LINE
  5
11B
330
73
100
AcDbEntity
  8
0
 62
     0
100
AcDbLine
 10
2.799056411043582
 20
1.804687499999999
 30
0.0
 11
2.939681411043582
 21
1.9453125
 31
0.0
  0
LINE
  5
11C
330
73
100
AcDbEntity
  8
0
 62
     0
100
AcDbLine
 10
2.417042219572448
 20
1.422673308528865
 30
0.0
 11
2.677703270941967
 21
1.683334359898384
 31
0.0
  0
LINE
  5
11D
330
73
100
AcDbEntity
  8
0
 62
     0
100
AcDbLine
 10
2.07492452792841
 20
1.102652703796907
 30
0.0
 11
2.192562340223325
 21
1.220290516091822
 31
0.0
  0
LINE
  5
11E
330
73
100
AcDbEntity
  8
0
 62
     0
100
AcDbLine
 10
2.776959324131502
 20
1.804687499999999
 30
0.0
 11
2.917584324131502
 21
1.9453125
 31
0.0
  0
LINE
  5
11F
330
73
100
AcDbEntity
  8
0
 62
     0
100
AcDbLine
 10
2.420193710818596
 20
1.447921886687093
 30
0.0
 11
2.680854762188115
 21
1.708582938056612
 31
0.0
  0
LINE
  5
120
330
73
100
AcDbEntity
  8
0
 62
     0
100
AcDbLine
 10
2.05282744101633
 20
1.102652703796907
 30
0.0
 11
2.195713831469473
 21
1.24553909425005
 31
0.0
  0
LINE
  5
121
330
73
100
AcDbEntity
  8
0
 62
     0
100
AcDbLine
 10
2.754862237219422
 20
1.804687499999999
 30
0.0
 11
2.895487237219423
 21
1.9453125
 31
0.0
  0
LINE
  5
122
330
73
100
AcDbEntity
  8
0
 62
     0
100
AcDbLine
 10
2.423345202064745
 20
1.473170464845322
 30
0.0
 11
2.684006253434263
 21
1.73383151621484
 31
0.0
  0
LINE
  5
123
330
73
100
AcDbEntity
  8
0
 62
     0
100
AcDbLine
 10
2.03073035410425
 20
1.102652703796907
 30
0.0
 11
2.198865322715622
 21
1.270787672408278
 31
0.0
  0
LINE
  5
124
330
73
100
AcDbEntity
  8
0
 62
     0
100
AcDbLine
 10
2.732765150307343
 20
1.804687499999999
 30
0.0
 11
2.873390150307343
 21
1.9453125
 31
0.0
  0
LINE
  5
125
330
73
100
AcDbEntity
  8
0
 62
     0
100
AcDbLine
 10
2.426496693310893
 20
1.49841904300355
 30
0.0
 11
2.687157744680412
 21
1.759080094373068
 31
0.0
  0
LINE
  5
126
330
73
100
AcDbEntity
  8
0
 62
     0
100
AcDbLine
 10
2.008633267192171
 20
1.102652703796907
 30
0.0
 11
2.20201681396177
 21
1.296036250566507
 31
0.0
  0
LINE
  5
127
330
73
100
AcDbEntity
  8
0
 62
     0
100
AcDbLine
 10
2.710464878295114
 20
1.80448431489985
 30
0.0
 11
2.851293063395264
 21
1.9453125
 31
0.0
  0
LINE
  5
128
330
73
100
AcDbEntity
  8
0
 62
     0
100
AcDbLine
 10
2.429648184557042
 20
1.523667621161778
 30
0.0
 11
2.690310014220282
 21
1.784329450825018
 31
0.0
  0
LINE
  5
129
330
73
100
AcDbEntity
  8
0
 62
     0
100
AcDbLine
 10
1.986536180280091
 20
1.102652703796907
 30
0.0
 11
2.205168305207919
 21
1.321284828724735
 31
0.0
  0
LINE
  5
12A
330
73
100
AcDbEntity
  8
0
 62
     0
100
AcDbLine
 10
2.43279967580319
 20
1.548916199320006
 30
0.0
 11
2.829195976483184
 21
1.9453125
 31
0.0
  0
LINE
  5
12B
330
73
100
AcDbEntity
  8
0
 62
     0
100
AcDbLine
 10
1.964439093368012
 20
1.102652703796907
 30
0.0
 11
2.208319796454067
 21
1.346533406882963
 31
0.0
  0
LINE
  5
12C
330
73
100
AcDbEntity
  8
0
 62
     0
100
AcDbLine
 10
2.435951167049339
 20
1.574164777478234
 30
0.0
 11
2.807098889571104
 21
1.9453125
 31
0.0
  0
LINE
  5
12D
330
73
100
AcDbEntity
  8
0
 62
     0
100
AcDbLine
 10
1.942342006455932
 20
1.102652703796907
 30
0.0
 11
2.211471287700216
 21
1.371781985041191
 31
0.0
  0
LINE
  5
12E
330
73
100
AcDbEntity
  8
0
 62
     0
100
AcDbLine
 10
2.439102658295488
 20
1.599413355636462
 30
0.0
 11
2.785001802659025
 21
1.9453125
 31
0.0
  0
LINE
  5
12F
330
73
100
AcDbEntity
  8
0
 62
     0
100
AcDbLine
 10
1.920244919543852
 20
1.102652703796907
 30
0.0
 11
2.214622778946365
 21
1.397030563199419
 31
0.0
  0
LINE
  5
130
330
73
100
AcDbEntity
  8
0
 62
     0
100
AcDbLine
 10
2.442254149541636
 20
1.624661933794691
 30
0.0
 11
2.762904715746945
 21
1.9453125
 31
0.0
  0
LINE
  5
131
330
73
100
AcDbEntity
  8
0
 62
     0
100
AcDbLine
 10
1.898147832631773
 20
1.102652703796907
 30
0.0
 11
2.217774270192513
 21
1.422279141357647
 31
0.0
  0
LINE
  5
132
330
73
100
AcDbEntity
  8
0
 62
     0
100
AcDbLine
 10
2.445405640787785
 20
1.649910511952919
 30
0.0
 11
2.740807628834866
 21
1.9453125
 31
0.0
  0
LINE
  5
133
330
73
100
AcDbEntity
  8
0
 62
     0
100
AcDbLine
 10
1.88103476817488
 20
1.107636726252094
 30
0.0
 11
2.220925761438662
 21
1.447527719515876
 31
0.0
  0
LINE
  5
134
330
73
100
AcDbEntity
  8
0
 62
     0
100
AcDbLine
 10
2.448557132033933
 20
1.675159090111147
 30
0.0
 11
2.718710541922786
 21
1.9453125
 31
0.0
  0
LINE
  5
135
330
73
100
AcDbEntity
  8
0
 62
     0
100
AcDbLine
 10
1.90271531772678
 20
1.151414362716073
 30
0.0
 11
2.224077252684811
 21
1.472776297674104
 31
0.0
  0
LINE
  5
136
330
73
100
AcDbEntity
  8
0
 62
     0
100
AcDbLine
 10
2.451708623280082
 20
1.700407668269375
 30
0.0
 11
2.696613455010706
 21
1.9453125
 31
0.0
  0
LINE
  5
137
330
73
100
AcDbEntity
  8
0
 62
     0
100
AcDbLine
 10
1.905866808972928
 20
1.176662940874301
 30
0.0
 11
2.227228743930959
 21
1.498024875832332
 31
0.0
  0
LINE
  5
138
330
73
100
AcDbEntity
  8
0
 62
     0
100
AcDbLine
 10
2.45486011452623
 20
1.725656246427603
 30
0.0
 11
2.674516368098627
 21
1.9453125
 31
0.0
  0
LINE
  5
139
330
73
100
AcDbEntity
  8
0
 62
     0
100
AcDbLine
 10
1.909018300219077
 20
1.20191151903253
 30
0.0
 11
2.230380235177108
 21
1.52327345399056
 31
0.0
  0
LINE
  5
13A
330
73
100
AcDbEntity
  8
0
 62
     0
100
AcDbLine
 10
2.458011605772379
 20
1.750904824585831
 30
0.0
 11
2.652419281186547
 21
1.9453125
 31
0.0
  0
LINE
  5
13B
330
73
100
AcDbEntity
  8
0
 62
     0
100
AcDbLine
 10
1.912169791465226
 20
1.227160097190758
 30
0.0
 11
2.233531726423256
 21
1.548522032148788
 31
0.0
  0
LINE
  5
13C
330
73
100
AcDbEntity
  8
0
 62
     0
100
AcDbLine
 10
2.461163097018527
 20
1.77615340274406
 30
0.0
 11
2.630322194274468
 21
1.9453125
 31
0.0
  0
LINE
  5
13D
330
73
100
AcDbEntity
  8
0
 62
     0
100
AcDbLine
 10
1.915321282711374
 20
1.252408675348986
 30
0.0
 11
2.236683217669405
 21
1.573770610307016
 31
0.0
  0
LINE
  5
13E
330
73
100
AcDbEntity
  8
0
 62
     0
100
AcDbLine
 10
2.464314588264676
 20
1.801401980902288
 30
0.0
 11
2.608225107362388
 21
1.9453125
 31
0.0
  0
LINE
  5
13F
330
73
100
AcDbEntity
  8
0
 62
     0
100
AcDbLine
 10
1.918472773957523
 20
1.277657253507214
 30
0.0
 11
2.239834708915553
 21
1.599019188465245
 31
0.0
  0
LINE
  5
140
330
73
100
AcDbEntity
  8
0
 62
     0
100
AcDbLine
 10
2.467466079510824
 20
1.826650559060516
 30
0.0
 11
2.586128020450308
 21
1.9453125
 31
0.0
  0
LINE
  5
141
330
73
100
AcDbEntity
  8
0
 62
     0
100
AcDbLine
 10
1.921624265203671
 20
1.302905831665442
 30
0.0
 11
2.242986200161702
 21
1.624267766623473
 31
0.0
  0
LINE
  5
142
330
73
100
AcDbEntity
  8
0
 62
     0
100
AcDbLine
 10
2.470617570756973
 20
1.851899137218744
 30
0.0
 11
2.564030933538229
 21
1.9453125
 31
0.0
  0
LINE
  5
143
330
73
100
AcDbEntity
  8
0
 62
     0
100
AcDbLine
 10
1.92477575644982
 20
1.32815440982367
 30
0.0
 11
2.246137691407851
 21
1.649516344781701
 31
0.0
  0
LINE
  5
144
330
73
100
AcDbEntity
  8
0
 62
     0
100
AcDbLine
 10
2.473769062003122
 20
1.877147715376972
 30
0.0
 11
2.541933846626149
 21
1.9453125
 31
0.0
  0
LINE
  5
145
330
73
100
AcDbEntity
  8
0
 62
     0
100
AcDbLine
 10
1.927927247695969
 20
1.353402987981899
 30
0.0
 11
2.249289182653999
 21
1.674764922939929
 31
0.0
  0
LINE
  5
146
330
73
100
AcDbEntity
  8
0
 62
     0
100
AcDbLine
 10
2.476337468628832
 20
1.901813208914762
 30
0.0
 11
2.51983675971407
 21
1.9453125
 31
0.0
  0
LINE
  5
147
330
73
100
AcDbEntity
  8
0
 62
     0
100
AcDbLine
 10
1.931078738942117
 20
1.378651566140127
 30
0.0
 11
2.252440673900148
 21
1.700013501098157
 31
0.0
  0
LINE
  5
148
330
73
100
AcDbEntity
  8
0
 62
     0
100
AcDbLine
 10
2.466248606221062
 20
1.913821433419072
 30
0.0
 11
2.49773967280199
 21
1.9453125
 31
0.0
  0
LINE
  5
149
330
73
100
AcDbEntity
  8
0
 62
     0
100
AcDbLine
 10
1.934230230188266
 20
1.403900144298355
 30
0.0
 11
2.255592165146296
 21
1.725262079256386
 31
0.0
  0
LINE
  5
14A
330
73
100
AcDbEntity
  8
0
 62
     0
100
AcDbLine
 10
2.454816745932601
 20
1.92448666004269
 30
0.0
 11
2.47564258588991
 21
1.9453125
 31
0.0
  0
LINE
  5
14B
330
73
100
AcDbEntity
  8
0
 62
     0
100
AcDbLine
 10
1.937381721434414
 20
1.429148722456583
 30
0.0
 11
2.258743656392445
 21
1.750510657414614
 31
0.0
  0
LINE
  5
14C
330
73
100
AcDbEntity
  8
0
 62
     0
100
AcDbLine
 10
1.940533212680563
 20
1.454397300614811
 30
0.0
 11
2.261895147638593
 21
1.775759235572842
 31
0.0
  0
LINE
  5
14D
330
73
100
AcDbEntity
  8
0
 62
     0
100
AcDbLine
 10
1.943684703926711
 20
1.479645878773039
 30
0.0
 11
2.265046638884742
 21
1.80100781373107
 31
0.0
  0
LINE
  5
14E
330
73
100
AcDbEntity
  8
0
 62
     0
100
AcDbLine
 10
1.94683619517286
 20
1.504894456931268
 30
0.0
 11
2.26819813013089
 21
1.826256391889298
 31
0.0
  0
LINE
  5
14F
330
73
100
AcDbEntity
  8
0
 62
     0
100
AcDbLine
 10
1.949987686419008
 20
1.530143035089496
 30
0.0
 11
2.271349621377039
 21
1.851504970047526
 31
0.0
  0
LINE
  5
150
330
73
100
AcDbEntity
  8
0
 62
     0
100
AcDbLine
 10
1.953139177665157
 20
1.555391613247724
 30
0.0
 11
2.274501112623187
 21
1.876753548205754
 31
0.0
  0
LINE
  5
151
330
73
100
AcDbEntity
  8
0
 62
     0
100
AcDbLine
 10
1.956290668911305
 20
1.580640191405952
 30
0.0
 11
2.277595854563611
 21
1.901945377058258
 31
0.0
  0
LINE
  5
152
330
73
100
AcDbEntity
  8
0
 62
     0
100
AcDbLine
 10
1.959442160157454
 20
1.60588876956418
 30
0.0
 11
2.296335701195241
 21
1.942782310601968
 31
0.0
  0
LINE
  5
153
330
73
100
AcDbEntity
  8
0
 62
     0
100
AcDbLine
 10
1.962593651403603
 20
1.631137347722408
 30
0.0
 11
2.276768803681194
 21
1.9453125
 31
0.0
  0
LINE
  5
154
330
73
100
AcDbEntity
  8
0
 62
     0
100
AcDbLine
 10
1.965745142649751
 20
1.656385925880637
 30
0.0
 11
2.254671716769114
 21
1.9453125
 31
0.0
  0
LINE
  5
155
330
73
100
AcDbEntity
  8
0
 62
     0
100
AcDbLine
 10
1.9688966338959
 20
1.681634504038865
 30
0.0
 11
2.232574629857035
 21
1.9453125
 31
0.0
  0
LINE
  5
156
330
73
100
AcDbEntity
  8
0
 62
     0
100
AcDbLine
 10
1.972048125142048
 20
1.706883082197093
 30
0.0
 11
2.210477542944955
 21
1.9453125
 31
0.0
  0
LINE
  5
157
330
73
100
AcDbEntity
  8
0
 62
     0
100
AcDbLine
 10
1.975199616388197
 20
1.732131660355321
 30
0.0
 11
2.188380456032875
 21
1.9453125
 31
0.0
  0
LINE
  5
158
330
73
100
AcDbEntity
  8
0
 62
     0
100
AcDbLine
 10
1.978351107634345
 20
1.757380238513549
 30
0.0
 11
2.166283369120796
 21
1.9453125
 31
0.0
  0
LINE
  5
159
330
73
100
AcDbEntity
  8
0
 62
     0
100
AcDbLine
 10
1.981502598880494
 20
1.782628816671777
 30
0.0
 11
2.144186282208716
 21
1.9453125
 31
0.0
  0
LINE
  5
15A
330
73
100
AcDbEntity
  8
0
 62
     0
100
AcDbLine
 10
1.984654090126642
 20
1.807877394830006
 30
0.0
 11
2.122089195296636
 21
1.9453125
 31
0.0
  0
LINE
  5
15B
330
73
100
AcDbEntity
  8
0
 62
     0
100
AcDbLine
 10
1.987805581372791
 20
1.833125972988234
 30
0.0
 11
2.099992108384557
 21
1.9453125
 31
0.0
  0
LINE
  5
15C
330
73
100
AcDbEntity
  8
0
 62
     0
100
AcDbLine
 10
1.99095707261894
 20
1.858374551146462
 30
0.0
 11
2.077895021472477
 21
1.9453125
 31
0.0
  0
LINE
  5
15D
330
73
100
AcDbEntity
  8
0
 62
     0
100
AcDbLine
 10
1.994108563865088
 20
1.88362312930469
 30
0.0
 11
2.055797934560398
 21
1.9453125
 31
0.0
  0
LINE
  5
15E
330
73
100
AcDbEntity
  8
0
 62
     0
100
AcDbLine
 10
1.994240572939696
 20
1.905852225291378
 30
0.0
 11
2.033700847648318
 21
1.9453125
 31
0.0
  0
LINE
  5
15F
330
73
100
AcDbEntity
  8
0
 62
     0
100
AcDbLine
 10
1.982744888090062
 20
1.916453627353823
 30
0.0
 11
2.011603760736238
 21
1.9453125
 31
0.0
  0
LINE
  5
160
330
73
100
AcDbEntity
  8
0
 62
     0
100
AcDbLine
 10
1.972816256953061
 20
1.928622083128902
 30
0.0
 11
1.989506673824159
 21
1.9453125
 31
0.0
  0
LINE
  5
161
330
73
100
AcDbEntity
  8
0
 62
     0
100
AcDbLine
 10
3.533332264125664
 20
1.102652703796907
 30
0.0
 11
3.673957264125664
 21
1.243277703796907
 31
0.0
  0
LINE
  5
162
330
73
100
AcDbEntity
  8
0
 62
     0
100
AcDbLine
 10
3.828444052194558
 20
1.397764491865801
 30
0.0
 11
4.147705216928386
 21
1.717025656599629
 31
0.0
  0
LINE
  5
163
330
73
100
AcDbEntity
  8
0
 62
     0
100
AcDbLine
 10
3.555429351037743
 20
1.102652703796907
 30
0.0
 11
3.696054351037743
 21
1.243277703796907
 31
0.0
  0
LINE
  5
164
330
73
100
AcDbEntity
  8
0
 62
     0
100
AcDbLine
 10
4.315924993889402
 20
1.863148346648565
 30
0.0
 11
4.385361449925972
 21
1.932584802685135
 31
0.0
  0
LINE
  5
165
330
73
100
AcDbEntity
  8
0
 62
     0
100
AcDbLine
 10
3.82529256094841
 20
1.372515913707573
 30
0.0
 11
4.144939060164901
 21
1.692162412924064
 31
0.0
  0
LINE
  5
166
330
73
100
AcDbEntity
  8
0
 62
     0
100
AcDbLine
 10
3.577526437949823
 20
1.102652703796907
 30
0.0
 11
3.718151437949823
 21
1.243277703796907
 31
0.0
  0
LINE
  5
167
330
73
100
AcDbEntity
  8
0
 62
     0
100
AcDbLine
 10
4.305635800868143
 20
1.830762066715226
 30
0.0
 11
4.417747729859311
 21
1.942873995706395
 31
0.0
  0
LINE
  5
168
330
73
100
AcDbEntity
  8
0
 62
     0
100
AcDbLine
 10
3.822141069702261
 20
1.347267335549345
 30
0.0
 11
4.142172903401416
 21
1.6672991692485
 31
0.0
  0
LINE
  5
169
330
73
100
AcDbEntity
  8
0
 62
     0
100
AcDbLine
 10
3.599623524861903
 20
1.102652703796907
 30
0.0
 11
3.740248524861903
 21
1.243277703796907
 31
0.0
  0
LINE
  5
16A
330
73
100
AcDbEntity
  8
0
 62
     0
100
AcDbLine
 10
4.302413710759472
 20
1.805442889694475
 30
0.0
 11
4.442274806224514
 21
1.945303985159517
 31
0.0
  0
LINE
  5
16B
330
73
100
AcDbEntity
  8
0
 62
     0
100
AcDbLine
 10
3.818989578456113
 20
1.322018757391117
 30
0.0
 11
4.139406746637931
 21
1.642435925572935
 31
0.0
  0
LINE
  5
16C
330
73
100
AcDbEntity
  8
0
 62
     0
100
AcDbLine
 10
3.621720611773982
 20
1.102652703796907
 30
0.0
 11
3.762345611773982
 21
1.243277703796907
 31
0.0
  0
LINE
  5
16D
330
73
100
AcDbEntity
  8
0
 62
     0
100
AcDbLine
 10
4.299647553995987
 20
1.780579646018911
 30
0.0
 11
4.464380407977075
 21
1.9453125
 31
0.0
  0
LINE
  5
16E
330
73
100
AcDbEntity
  8
0
 62
     0
100
AcDbLine
 10
3.815838087209964
 20
1.296770179232888
 30
0.0
 11
4.136640589874446
 21
1.61757268189737
 31
0.0
  0
LINE
  5
16F
330
73
100
AcDbEntity
  8
0
 62
     0
100
AcDbLine
 10
3.643817698686062
 20
1.102652703796907
 30
0.0
 11
3.784442698686062
 21
1.243277703796907
 31
0.0
  0
LINE
  5
170
330
73
100
AcDbEntity
  8
0
 62
     0
100
AcDbLine
 10
4.296881397232501
 20
1.755716402343346
 30
0.0
 11
4.486477494889155
 21
1.9453125
 31
0.0
  0
LINE
  5
171
330
73
100
AcDbEntity
  8
0
 62
     0
100
AcDbLine
 10
3.812686595963816
 20
1.27152160107466
 30
0.0
 11
4.13387443311096
 21
1.592709438221805
 31
0.0
  0
LINE
  5
172
330
73
100
AcDbEntity
  8
0
 62
     0
100
AcDbLine
 10
3.665914785598141
 20
1.102652703796907
 30
0.0
 11
4.131108276347475
 21
1.567846194546241
 31
0.0
  0
LINE
  5
173
330
73
100
AcDbEntity
  8
0
 62
     0
100
AcDbLine
 10
4.294115240469016
 20
1.730853158667781
 30
0.0
 11
4.508574581801235
 21
1.9453125
 31
0.0
  0
LINE
  5
174
330
73
100
AcDbEntity
  8
0
 62
     0
100
AcDbLine
 10
3.688011872510221
 20
1.102652703796907
 30
0.0
 11
4.12834211958399
 21
1.542982950870676
 31
0.0
  0
LINE
  5
175
330
73
100
AcDbEntity
  8
0
 62
     0
100
AcDbLine
 10
4.291349083705531
 20
1.705989914992217
 30
0.0
 11
4.530671668713313
 21
1.9453125
 31
0.0
  0
LINE
  5
176
330
73
100
AcDbEntity
  8
0
 62
     0
100
AcDbLine
 10
3.710108959422301
 20
1.102652703796907
 30
0.0
 11
4.125575962820505
 21
1.518119707195111
 31
0.0
  0
LINE
  5
177
330
73
100
AcDbEntity
  8
0
 62
     0
100
AcDbLine
 10
4.288582926942046
 20
1.681126671316652
 30
0.0
 11
4.552768755625393
 21
1.9453125
 31
0.0
  0
LINE
  5
178
330
73
100
AcDbEntity
  8
0
 62
     0
100
AcDbLine
 10
3.73220604633438
 20
1.102652703796907
 30
0.0
 11
4.12280980605702
 21
1.493256463519546
 31
0.0
  0
LINE
  5
179
330
73
100
AcDbEntity
  8
0
 62
     0
100
AcDbLine
 10
4.285816770178561
 20
1.656263427641087
 30
0.0
 11
4.574865842537473
 21
1.9453125
 31
0.0
  0
LINE
  5
17A
330
73
100
AcDbEntity
  8
0
 62
     0
100
AcDbLine
 10
3.75430313324646
 20
1.102652703796907
 30
0.0
 11
4.120043649293535
 21
1.468393219843982
 31
0.0
  0
LINE
  5
17B
330
73
100
AcDbEntity
  8
0
 62
     0
100
AcDbLine
 10
4.283050613415076
 20
1.631400183965522
 30
0.0
 11
4.596962929449553
 21
1.9453125
 31
0.0
  0
LINE
  5
17C
330
73
100
AcDbEntity
  8
0
 62
     0
100
AcDbLine
 10
3.776400220158539
 20
1.102652703796907
 30
0.0
 11
4.11727749253005
 21
1.443529976168417
 31
0.0
  0
LINE
  5
17D
330
73
100
AcDbEntity
  8
0
 62
     0
100
AcDbLine
 10
4.280284456651591
 20
1.606536940289958
 30
0.0
 11
4.619060016361632
 21
1.9453125
 31
0.0
  0
LINE
  5
17E
330
73
100
AcDbEntity
  8
0
 62
     0
100
AcDbLine
 10
3.798497307070619
 20
1.102652703796907
 30
0.0
 11
4.114511335766565
 21
1.418666732492853
 31
0.0
  0
LINE
  5
17F
330
73
100
AcDbEntity
  8
0
 62
     0
100
AcDbLine
 10
4.277518299888106
 20
1.581673696614393
 30
0.0
 11
4.641157103273712
 21
1.9453125
 31
0.0
  0
LINE
  5
180
330
73
100
AcDbEntity
  8
0
 62
     0
100
AcDbLine
 10
3.820594393982698
 20
1.102652703796907
 30
0.0
 11
4.111745179003079
 21
1.393803488817288
 31
0.0
  0
LINE
  5
181
330
73
100
AcDbEntity
  8
0
 62
     0
100
AcDbLine
 10
4.27475214312462
 20
1.556810452938829
 30
0.0
 11
4.663254190185791
 21
1.9453125
 31
0.0
  0
LINE
  5
182
330
73
100
AcDbEntity
  8
0
 62
     0
100
AcDbLine
 10
3.842691480894778
 20
1.102652703796907
 30
0.0
 11
4.108979022239594
 21
1.368940245141723
 31
0.0
  0
LINE
  5
183
330
73
100
AcDbEntity
  8
0
 62
     0
100
AcDbLine
 10
4.271985986361135
 20
1.531947209263264
 30
0.0
 11
4.685351277097871
 21
1.9453125
 31
0.0
  0
LINE
  5
184
330
73
100
AcDbEntity
  8
0
 62
     0
100
AcDbLine
 10
3.864788567806858
 20
1.102652703796907
 30
0.0
 11
4.106212865476109
 21
1.344077001466158
 31
0.0
  0
LINE
  5
185
330
73
100
AcDbEntity
  8
0
 62
     0
100
AcDbLine
 10
4.26921982959765
 20
1.507083965587699
 30
0.0
 11
4.70744836400995
 21
1.9453125
 31
0.0
  0
LINE
  5
186
330
73
100
AcDbEntity
  8
0
 62
     0
100
AcDbLine
 10
3.886885654718937
 20
1.102652703796907
 30
0.0
 11
4.103446708712624
 21
1.319213757790594
 31
0.0
  0
LINE
  5
187
330
73
100
AcDbEntity
  8
0
 62
     0
100
AcDbLine
 10
4.266453672834165
 20
1.482220721912134
 30
0.0
 11
4.72954545092203
 21
1.9453125
 31
0.0
  0
LINE
  5
188
330
73
100
AcDbEntity
  8
0
 62
     0
100
AcDbLine
 10
3.908982741631017
 20
1.102652703796907
 30
0.0
 11
4.100680551949139
 21
1.294350514115029
 31
0.0
  0
LINE
  5
189
330
73
100
AcDbEntity
  8
0
 62
     0
100
AcDbLine
 10
4.26368751607068
 20
1.45735747823657
 30
0.0
 11
4.75164253783411
 21
1.9453125
 31
0.0
  0
LINE
  5
18A
330
73
100
AcDbEntity
  8
0
 62
     0
100
AcDbLine
 10
3.931079828543096
 20
1.102652703796907
 30
0.0
 11
4.097914395185654
 21
1.269487270439464
 31
0.0
  0
LINE
  5
18B
330
73
100
AcDbEntity
  8
0
 62
     0
100
AcDbLine
 10
4.633114624746189
 20
1.8046875
 30
0.0
 11
4.773739624746189
 21
1.9453125
 31
0.0
  0
LINE
  5
18C
330
73
100
AcDbEntity
  8
0
 62
     0
100
AcDbLine
 10
4.260921359307195
 20
1.432494234561005
 30
0.0
 11
4.605982819277093
 21
1.777555694530903
 31
0.0
  0
LINE
  5
18D
330
73
100
AcDbEntity
  8
0
 62
     0
100
AcDbLine
 10
3.953176915455176
 20
1.102652703796907
 30
0.0
 11
4.095148238422169
 21
1.244624026763899
 31
0.0
  0
LINE
  5
18E
330
73
100
AcDbEntity
  8
0
 62
     0
100
AcDbLine
 10
4.655211711658269
 20
1.8046875
 30
0.0
 11
4.795836711658269
 21
1.9453125
 31
0.0
  0
LINE
  5
18F
330
73
100
AcDbEntity
  8
0
 62
     0
100
AcDbLine
 10
4.25815520254371
 20
1.40763099088544
 30
0.0
 11
4.602831328030944
 21
1.752307116372675
 31
0.0
  0
LINE
  5
190
330
73
100
AcDbEntity
  8
0
 62
     0
100
AcDbLine
 10
3.977301983870388
 20
1.104680685300039
 30
0.0
 11
4.092102845350209
 21
1.219481546779859
 31
0.0
  0
LINE
  5
191
330
73
100
AcDbEntity
  8
0
 62
     0
100
AcDbLine
 10
4.677308798570349
 20
1.8046875
 30
0.0
 11
4.817933798570348
 21
1.9453125
 31
0.0
  0
LINE
  5
192
330
73
100
AcDbEntity
  8
0
 62
     0
100
AcDbLine
 10
4.255389045780225
 20
1.382767747209876
 30
0.0
 11
4.599679836784796
 21
1.727058538214447
 31
0.0
  0
LINE
  5
193
330
73
100
AcDbEntity
  8
0
 62
     0
100
AcDbLine
 10
4.008622383086985
 20
1.113903997604556
 30
0.0
 11
4.082879533045691
 21
1.188161147563262
 31
0.0
  0
LINE
  5
194
330
73
100
AcDbEntity
  8
0
 62
     0
100
AcDbLine
 10
4.699405885482429
 20
1.8046875
 30
0.0
 11
4.840030885482428
 21
1.9453125
 31
0.0
  0
LINE
  5
195
330
73
100
AcDbEntity
  8
0
 62
     0
100
AcDbLine
 10
4.252622889016739
 20
1.357904503534311
 30
0.0
 11
4.596528345538647
 21
1.701809960056219
 31
0.0
  0
LINE
  5
196
330
73
100
AcDbEntity
  8
0
 62
     0
100
AcDbLine
 10
4.249856732253254
 20
1.333041259858746
 30
0.0
 11
4.593376854292499
 21
1.67656138189799
 31
0.0
  0
LINE
  5
197
330
73
100
AcDbEntity
  8
0
 62
     0
100
AcDbLine
 10
4.721502972394508
 20
1.8046875
 30
0.0
 11
4.862127972394508
 21
1.9453125
 31
0.0
  0
LINE
  5
198
330
73
100
AcDbEntity
  8
0
 62
     0
100
AcDbLine
 10
4.247090575489769
 20
1.308178016183181
 30
0.0
 11
4.59022536304635
 21
1.651312803739762
 31
0.0
  0
LINE
  5
199
330
73
100
AcDbEntity
  8
0
 62
     0
100
AcDbLine
 10
4.743600059306587
 20
1.8046875
 30
0.0
 11
4.884225059306587
 21
1.9453125
 31
0.0
  0
LINE
  5
19A
330
73
100
AcDbEntity
  8
0
 62
     0
100
AcDbLine
 10
4.244324418726284
 20
1.283314772507617
 30
0.0
 11
4.587073871800201
 21
1.626064225581534
 31
0.0
  0
LINE
  5
19B
330
73
100
AcDbEntity
  8
0
 62
     0
100
AcDbLine
 10
4.765697146218667
 20
1.8046875
 30
0.0
 11
4.906322146218667
 21
1.9453125
 31
0.0
  0
LINE
  5
19C
330
73
100
AcDbEntity
  8
0
 62
     0
100
AcDbLine
 10
4.241558834500144
 20
1.258452101369397
 30
0.0
 11
4.583922380554053
 21
1.600815647423306
 31
0.0
  0
LINE
  5
19D
330
73
100
AcDbEntity
  8
0
 62
     0
100
AcDbLine
 10
4.787794233130747
 20
1.8046875
 30
0.0
 11
4.928419233130746
 21
1.9453125
 31
0.0
  0
LINE
  5
19E
330
73
100
AcDbEntity
  8
0
 62
     0
100
AcDbLine
 10
4.240940088331563
 20
1.235736268288736
 30
0.0
 11
4.580770889307905
 21
1.575567069265078
 31
0.0
  0
LINE
  5
19F
330
73
100
AcDbEntity
  8
0
 62
     0
100
AcDbLine
 10
4.809891320042827
 20
1.8046875
 30
0.0
 11
4.950516320042826
 21
1.9453125
 31
0.0
  0
LINE
  5
1A0
330
73
100
AcDbEntity
  8
0
 62
     0
100
AcDbLine
 10
4.243390918051709
 20
1.216090011096803
 30
0.0
 11
4.577619398061757
 21
1.55031849110685
 31
0.0
  0
LINE
  5
1A1
330
73
100
AcDbEntity
  8
0
 62
     0
100
AcDbLine
 10
4.831988406954906
 20
1.8046875
 30
0.0
 11
4.972613406954906
 21
1.9453125
 31
0.0
  0
LINE
  5
1A2
330
73
100
AcDbEntity
  8
0
 62
     0
100
AcDbLine
 10
4.248017256987943
 20
1.198619263120957
 30
0.0
 11
4.574467906815608
 21
1.525069912948622
 31
0.0
  0
LINE
  5
1A3
330
73
100
AcDbEntity
  8
0
 62
     0
100
AcDbLine
 10
4.854085493866985
 20
1.8046875
 30
0.0
 11
4.994710493866985
 21
1.9453125
 31
0.0
  0
LINE
  5
1A4
330
73
100
AcDbEntity
  8
0
 62
     0
100
AcDbLine
 10
4.254370689460041
 20
1.182875608680975
 30
0.0
 11
4.57131641556946
 21
1.499821334790394
 31
0.0
  0
LINE
  5
1A5
330
73
100
AcDbEntity
  8
0
 62
     0
100
AcDbLine
 10
4.876182580779065
 20
1.8046875
 30
0.0
 11
5.016807580779065
 21
1.9453125
 31
0.0
  0
LINE
  5
1A6
330
73
100
AcDbEntity
  8
0
 62
     0
100
AcDbLine
 10
4.262199882696178
 20
1.168607715005033
 30
0.0
 11
4.568164924323311
 21
1.474572756632166
 31
0.0
  0
LINE
  5
1A7
330
73
100
AcDbEntity
  8
0
 62
     0
100
AcDbLine
 10
4.898279667691145
 20
1.8046875
 30
0.0
 11
5.038904667691145
 21
1.9453125
 31
0.0
  0
LINE
  5
1A8
330
73
100
AcDbEntity
  8
0
 62
     0
100
AcDbLine
 10
4.271360476758411
 20
1.155671222155186
 30
0.0
 11
4.565013433077163
 21
1.449324178473937
 31
0.0
  0
LINE
  5
1A9
330
73
100
AcDbEntity
  8
0
 62
     0
100
AcDbLine
 10
4.920376754603225
 20
1.8046875
 30
0.0
 11
5.061001754603224
 21
1.9453125
 31
0.0
  0
LINE
  5
1AA
330
73
100
AcDbEntity
  8
0
 62
     0
100
AcDbLine
 10
4.28177660706279
 20
1.143990265547485
 30
0.0
 11
4.561861941831014
 21
1.424075600315709
 31
0.0
  0
LINE
  5
1AB
330
73
100
AcDbEntity
  8
0
 62
     0
100
AcDbLine
 10
4.942473841515304
 20
1.8046875
 30
0.0
 11
5.083098841515304
 21
1.9453125
 31
0.0
  0
LINE
  5
1AC
330
73
100
AcDbEntity
  8
0
 62
     0
100
AcDbLine
 10
4.293424170033914
 20
1.133540741606531
 30
0.0
 11
4.558710450584865
 21
1.398827022157481
 31
0.0
  0
LINE
  5
1AD
330
73
100
AcDbEntity
  8
0
 62
     0
100
AcDbLine
 10
4.964570928427384
 20
1.8046875
 30
0.0
 11
5.089469285149538
 21
1.929585856722153
 31
0.0
  0
LINE
  5
1AE
330
73
100
AcDbEntity
  8
0
 62
     0
100
AcDbLine
 10
4.306325980621713
 20
1.12434546528225
 30
0.0
 11
4.555558959338717
 21
1.373578443999253
 31
0.0
  0
LINE
  5
1AF
330
73
100
AcDbEntity
  8
0
 62
     0
100
AcDbLine
 10
4.986668015339463
 20
1.8046875
 30
0.0
 11
5.086317793903389
 21
1.904337278563925
 31
0.0
  0
LINE
  5
1B0
330
73
100
AcDbEntity
  8
0
 62
     0
100
AcDbLine
 10
4.320556350216705
 20
1.116478747965162
 30
0.0
 11
4.552407468092568
 21
1.348329865841025
 31
0.0
  0
LINE
  5
1B1
330
73
100
AcDbEntity
  8
0
 62
     0
100
AcDbLine
 10
5.008765102251543
 20
1.8046875
 30
0.0
 11
5.08316630265724
 21
1.879088700405697
 31
0.0
  0
LINE
  5
1B2
330
73
100
AcDbEntity
  8
0
 62
     0
100
AcDbLine
 10
4.336257416893971
 20
1.110082727730348
 30
0.0
 11
4.54925597684642
 21
1.323081287682797
 31
0.0
  0
LINE
  5
1B3
330
73
100
AcDbEntity
  8
0
 62
     0
100
AcDbLine
 10
5.030862189163623
 20
1.8046875
 30
0.0
 11
5.080014811411092
 21
1.853840122247469
 31
0.0
  0
LINE
  5
1B4
330
73
100
AcDbEntity
  8
0
 62
     0
100
AcDbLine
 10
4.353676787222931
 20
1.105405011147228
 30
0.0
 11
4.546104485600271
 21
1.297832709524569
 31
0.0
  0
LINE
  5
1B5
330
73
100
AcDbEntity
  8
0
 62
     0
100
AcDbLine
 10
5.052959276075702
 20
1.8046875
 30
0.0
 11
5.076863320164943
 21
1.82859154408924
 31
0.0
  0
LINE
  5
1B6
330
73
100
AcDbEntity
  8
0
 62
     0
100
AcDbLine
 10
4.373255460044116
 20
1.102886597056334
 30
0.0
 11
4.542952994354123
 21
1.272584131366341
 31
0.0
  0
LINE
  5
1B7
330
73
100
AcDbEntity
  8
0
 62
     0
100
AcDbLine
 10
4.395118653696768
 20
1.102652703796907
 30
0.0
 11
4.546275527596528
 21
1.253809577696667
 31
0.0
  0
LINE
  5
1B8
330
73
100
AcDbEntity
  8
0
 62
     0
100
AcDbLine
 10
4.417215740608848
 20
1.102652703796907
 30
0.0
 11
4.558893695275699
 21
1.244330658463758
 31
0.0
  0
LINE
  5
1B9
330
73
100
AcDbEntity
  8
0
 62
     0
100
AcDbLine
 10
4.439312827520927
 20
1.102652703796907
 30
0.0
 11
4.579937827520928
 21
1.243277703796907
 31
0.0
  0
LINE
  5
1BA
330
73
100
AcDbEntity
  8
0
 62
     0
100
AcDbLine
 10
4.461409914433007
 20
1.102652703796907
 30
0.0
 11
4.602034914433008
 21
1.243277703796907
 31
0.0
  0
LINE
  5
1BB
330
73
100
AcDbEntity
  8
0
 62
     0
100
AcDbLine
 10
5.232971961967578
 20
1.874214751331478
 30
0.0
 11
5.2856795336093
 21
1.926922322973199
 31
0.0
  0
LINE
  5
1BC
330
73
100
AcDbEntity
  8
0
 62
     0
100
AcDbLine
 10
4.483507001345087
 20
1.102652703796907
 30
0.0
 11
4.624132001345087
 21
1.243277703796907
 31
0.0
  0
LINE
  5
1BD
330
73
100
AcDbEntity
  8
0
 62
     0
100
AcDbLine
 10
5.218498060408311
 20
1.837643762860131
 30
0.0
 11
5.322250522080647
 21
1.941396224532467
 31
0.0
  0
LINE
  5
1BE
330
73
100
AcDbEntity
  8
0
 62
     0
100
AcDbLine
 10
4.505604088257166
 20
1.102652703796907
 30
0.0
 11
4.646229088257167
 21
1.243277703796907
 31
0.0
  0
LINE
  5
1BF
330
73
100
AcDbEntity
  8
0
 62
     0
100
AcDbLine
 10
5.21447467307304
 20
1.81152328861278
 30
0.0
 11
5.348083347745672
 21
1.945131963285412
 31
0.0
  0
LINE
  5
1C0
330
73
100
AcDbEntity
  8
0
 62
     0
100
AcDbLine
 10
4.527701175169246
 20
1.102652703796907
 30
0.0
 11
4.668326175169246
 21
1.243277703796907
 31
0.0
  0
LINE
  5
1C1
330
73
100
AcDbEntity
  8
0
 62
     0
100
AcDbLine
 10
5.211708516309554
 20
1.786660044937216
 30
0.0
 11
5.370360971372339
 21
1.9453125
 31
0.0
  0
LINE
  5
1C2
330
73
100
AcDbEntity
  8
0
 62
     0
100
AcDbLine
 10
4.549798262081325
 20
1.102652703796907
 30
0.0
 11
4.690423262081326
 21
1.243277703796907
 31
0.0
  0
LINE
  5
1C3
330
73
100
AcDbEntity
  8
0
 62
     0
100
AcDbLine
 10
5.208942359546069
 20
1.761796801261651
 30
0.0
 11
5.392458058284419
 21
1.9453125
 31
0.0
  0
LINE
  5
1C4
330
73
100
AcDbEntity
  8
0
 62
     0
100
AcDbLine
 10
4.571895348993405
 20
1.102652703796907
 30
0.0
 11
4.712520348993406
 21
1.243277703796907
 31
0.0
  0
LINE
  5
1C5
330
73
100
AcDbEntity
  8
0
 62
     0
100
AcDbLine
 10
5.206176202782584
 20
1.736933557586086
 30
0.0
 11
5.414555145196498
 21
1.9453125
 31
0.0
  0
LINE
  5
1C6
330
73
100
AcDbEntity
  8
0
 62
     0
100
AcDbLine
 10
4.593992435905485
 20
1.102652703796907
 30
0.0
 11
4.734617435905486
 21
1.243277703796907
 31
0.0
  0
LINE
  5
1C7
330
73
100
AcDbEntity
  8
0
 62
     0
100
AcDbLine
 10
5.203410046019099
 20
1.712070313910521
 30
0.0
 11
5.436652232108578
 21
1.9453125
 31
0.0
  0
LINE
  5
1C8
330
73
100
AcDbEntity
  8
0
 62
     0
100
AcDbLine
 10
4.616089522817564
 20
1.102652703796907
 30
0.0
 11
4.756714522817565
 21
1.243277703796907
 31
0.0
  0
LINE
  5
1C9
330
73
100
AcDbEntity
  8
0
 62
     0
100
AcDbLine
 10
5.200643889255614
 20
1.687207070234957
 30
0.0
 11
5.458749319020657
 21
1.9453125
 31
0.0
  0
LINE
  5
1CA
330
73
100
AcDbEntity
  8
0
 62
     0
100
AcDbLine
 10
4.638186609729644
 20
1.102652703796907
 30
0.0
 11
4.778811609729644
 21
1.243277703796907
 31
0.0
  0
LINE
  5
1CB
330
73
100
AcDbEntity
  8
0
 62
     0
100
AcDbLine
 10
5.197877732492129
 20
1.662343826559392
 30
0.0
 11
5.480846405932737
 21
1.9453125
 31
0.0
  0
LINE
  5
1CC
330
73
100
AcDbEntity
  8
0
 62
     0
100
AcDbLine
 10
4.660283696641723
 20
1.102652703796907
 30
0.0
 11
4.800908696641724
 21
1.243277703796907
 31
0.0
  0
LINE
  5
1CD
330
73
100
AcDbEntity
  8
0
 62
     0
100
AcDbLine
 10
5.195111575728644
 20
1.637480582883827
 30
0.0
 11
5.502943492844817
 21
1.9453125
 31
0.0
  0
LINE
  5
1CE
330
73
100
AcDbEntity
  8
0
 62
     0
100
AcDbLine
 10
4.682380783553803
 20
1.102652703796907
 30
0.0
 11
4.823005783553804
 21
1.243277703796907
 31
0.0
  0
LINE
  5
1CF
330
73
100
AcDbEntity
  8
0
 62
     0
100
AcDbLine
 10
5.192345418965158
 20
1.612617339208262
 30
0.0
 11
5.525040579756896
 21
1.9453125
 31
0.0
  0
LINE
  5
1D0
330
73
100
AcDbEntity
  8
0
 62
     0
100
AcDbLine
 10
4.704477870465883
 20
1.102652703796907
 30
0.0
 11
4.845102870465884
 21
1.243277703796907
 31
0.0
  0
LINE
  5
1D1
330
73
100
AcDbEntity
  8
0
 62
     0
100
AcDbLine
 10
5.189579262201673
 20
1.587754095532698
 30
0.0
 11
5.547137666668976
 21
1.9453125
 31
0.0
  0
LINE
  5
1D2
330
73
100
AcDbEntity
  8
0
 62
     0
100
AcDbLine
 10
4.726574957377962
 20
1.102652703796907
 30
0.0
 11
4.867199957377963
 21
1.243277703796907
 31
0.0
  0
LINE
  5
1D3
330
73
100
AcDbEntity
  8
0
 62
     0
100
AcDbLine
 10
5.186813105438189
 20
1.562890851857133
 30
0.0
 11
5.569234753581056
 21
1.9453125
 31
0.0
  0
LINE
  5
1D4
330
73
100
AcDbEntity
  8
0
 62
     0
100
AcDbLine
 10
4.748672044290042
 20
1.102652703796907
 30
0.0
 11
4.889297044290042
 21
1.243277703796907
 31
0.0
  0
LINE
  5
1D5
330
73
100
AcDbEntity
  8
0
 62
     0
100
AcDbLine
 10
5.184046948674704
 20
1.538027608181568
 30
0.0
 11
5.591331840493135
 21
1.9453125
 31
0.0
  0
LINE
  5
1D6
330
73
100
AcDbEntity
  8
0
 62
     0
100
AcDbLine
 10
4.770769131202121
 20
1.102652703796907
 30
0.0
 11
4.911394131202122
 21
1.243277703796907
 31
0.0
  0
LINE
  5
1D7
330
73
100
AcDbEntity
  8
0
 62
     0
100
AcDbLine
 10
5.181280791911219
 20
1.513164364506003
 30
0.0
 11
5.613428927405215
 21
1.9453125
 31
0.0
  0
LINE
  5
1D8
330
73
100
AcDbEntity
  8
0
 62
     0
100
AcDbLine
 10
4.792866218114201
 20
1.102652703796907
 30
0.0
 11
4.933491218114202
 21
1.243277703796907
 31
0.0
  0
LINE
  5
1D9
330
73
100
AcDbEntity
  8
0
 62
     0
100
AcDbLine
 10
5.178514635147734
 20
1.488301120830439
 30
0.0
 11
5.635526014317294
 21
1.9453125
 31
0.0
  0
LINE
  5
1DA
330
73
100
AcDbEntity
  8
0
 62
     0
100
AcDbLine
 10
4.814963305026281
 20
1.102652703796907
 30
0.0
 11
4.955588305026282
 21
1.243277703796907
 31
0.0
  0
LINE
  5
1DB
330
73
100
AcDbEntity
  8
0
 62
     0
100
AcDbLine
 10
5.175748478384249
 20
1.463437877154874
 30
0.0
 11
5.657623101229374
 21
1.9453125
 31
0.0
  0
LINE
  5
1DC
330
73
100
AcDbEntity
  8
0
 62
     0
100
AcDbLine
 10
4.837060391938361
 20
1.102652703796907
 30
0.0
 11
4.977685391938361
 21
1.243277703796907
 31
0.0
  0
LINE
  5
1DD
330
73
100
AcDbEntity
  8
0
 62
     0
100
AcDbLine
 10
5.538963111502732
 20
1.804555423361278
 30
0.0
 11
5.679720188141454
 21
1.9453125
 31
0.0
  0
LINE
  5
1DE
330
73
100
AcDbEntity
  8
0
 62
     0
100
AcDbLine
 10
5.172982321620763
 20
1.438574633479309
 30
0.0
 11
5.518138016574726
 21
1.783730328433272
 31
0.0
  0
LINE
  5
1DF
330
73
100
AcDbEntity
  8
0
 62
     0
100
AcDbLine
 10
4.85915747885044
 20
1.102652703796907
 30
0.0
 11
4.999782478850441
 21
1.243277703796907
 31
0.0
  0
LINE
  5
1E0
330
73
100
AcDbEntity
  8
0
 62
     0
100
AcDbLine
 10
5.561192275053532
 20
1.8046875
 30
0.0
 11
5.701817275053533
 21
1.9453125
 31
0.0
  0
LINE
  5
1E1
330
73
100
AcDbEntity
  8
0
 62
     0
100
AcDbLine
 10
5.170216164857278
 20
1.413711389803744
 30
0.0
 11
5.514986525328578
 21
1.758481750275044
 31
0.0
  0
LINE
  5
1E2
330
73
100
AcDbEntity
  8
0
 62
     0
100
AcDbLine
 10
4.881254565762519
 20
1.102652703796907
 30
0.0
 11
5.001227530257379
 21
1.222625668291766
 31
0.0
  0
LINE
  5
1E3
330
73
100
AcDbEntity
  8
0
 62
     0
100
AcDbLine
 10
5.583289361965612
 20
1.8046875
 30
0.0
 11
5.723914361965613
 21
1.9453125
 31
0.0
  0
LINE
  5
1E4
330
73
100
AcDbEntity
  8
0
 62
     0
100
AcDbLine
 10
5.167450008093793
 20
1.38884814612818
 30
0.0
 11
5.511835034082429
 21
1.733233172116816
 31
0.0
  0
LINE
  5
1E5
330
73
100
AcDbEntity
  8
0
 62
     0
100
AcDbLine
 10
4.903351652674599
 20
1.102652703796907
 30
0.0
 11
4.99807603901123
 21
1.197377090133538
 31
0.0
  0
LINE
  5
1E6
330
73
100
AcDbEntity
  8
0
 62
     0
100
AcDbLine
 10
5.605386448877692
 20
1.8046875
 30
0.0
 11
5.746011448877692
 21
1.9453125
 31
0.0
  0
LINE
  5
1E7
330
73
100
AcDbEntity
  8
0
 62
     0
100
AcDbLine
 10
5.164683851330308
 20
1.363984902452615
 30
0.0
 11
5.508683542836281
 21
1.707984593958588
 31
0.0
  0
LINE
  5
1E8
330
73
100
AcDbEntity
  8
0
 62
     0
100
AcDbLine
 10
4.925448739586679
 20
1.102652703796907
 30
0.0
 11
4.994924547765082
 21
1.17212851197531
 31
0.0
  0
LINE
  5
1E9
330
73
100
AcDbEntity
  8
0
 62
     0
100
AcDbLine
 10
5.627483535789772
 20
1.8046875
 30
0.0
 11
5.768108535789772
 21
1.9453125
 31
0.0
  0
LINE
  5
1EA
330
73
100
AcDbEntity
  8
0
 62
     0
100
AcDbLine
 10
5.161917694566823
 20
1.33912165877705
 30
0.0
 11
5.505532051590132
 21
1.68273601580036
 31
0.0
  0
LINE
  5
1EB
330
73
100
AcDbEntity
  8
0
 62
     0
100
AcDbLine
 10
4.947545826498759
 20
1.102652703796907
 30
0.0
 11
4.991773056518933
 21
1.146879933817082
 31
0.0
  0
LINE
  5
1EC
330
73
100
AcDbEntity
  8
0
 62
     0
100
AcDbLine
 10
5.649580622701852
 20
1.8046875
 30
0.0
 11
5.790205622701852
 21
1.9453125
 31
0.0
  0
LINE
  5
1ED
330
73
100
AcDbEntity
  8
0
 62
     0
100
AcDbLine
 10
5.159151537803338
 20
1.314258415101485
 30
0.0
 11
5.502380560343984
 21
1.657487437642132
 31
0.0
  0
LINE
  5
1EE
330
73
100
AcDbEntity
  8
0
 62
     0
100
AcDbLine
 10
4.969642913410838
 20
1.102652703796907
 30
0.0
 11
4.988621565272785
 21
1.121631355658854
 31
0.0
  0
LINE
  5
1EF
330
73
100
AcDbEntity
  8
0
 62
     0
100
AcDbLine
 10
5.671677709613931
 20
1.8046875
 30
0.0
 11
5.812302709613931
 21
1.9453125
 31
0.0
  0
LINE
  5
1F0
330
73
100
AcDbEntity
  8
0
 62
     0
100
AcDbLine
 10
5.156385381039853
 20
1.289395171425921
 30
0.0
 11
5.499229069097835
 21
1.632238859483903
 31
0.0
  0
LINE
  5
1F1
330
73
100
AcDbEntity
  8
0
 62
     0
100
AcDbLine
 10
5.153619224276368
 20
1.264531927750356
 30
0.0
 11
5.496077577851687
 21
1.606990281325675
 31
0.0
  0
LINE
  5
1F2
330
73
100
AcDbEntity
  8
0
 62
     0
100
AcDbLine
 10
5.69377479652601
 20
1.8046875
 30
0.0
 11
5.834399796526011
 21
1.9453125
 31
0.0
  0
LINE
  5
1F3
330
73
100
AcDbEntity
  8
0
 62
     0
100
AcDbLine
 10
5.152141365730016
 20
1.240956982291925
 30
0.0
 11
5.492926086605538
 21
1.581741703167447
 31
0.0
  0
LINE
  5
1F4
330
73
100
AcDbEntity
  8
0
 62
     0
100
AcDbLine
 10
5.71587188343809
 20
1.8046875
 30
0.0
 11
5.85649688343809
 21
1.9453125
 31
0.0
  0
LINE
  5
1F5
330
73
100
AcDbEntity
  8
0
 62
     0
100
AcDbLine
 10
5.153951397260919
 20
1.220669926910749
 30
0.0
 11
5.489774595359389
 21
1.556493125009219
 31
0.0
  0
LINE
  5
1F6
330
73
100
AcDbEntity
  8
0
 62
     0
100
AcDbLine
 10
5.734540116668064
 20
1.801258646317894
 30
0.0
 11
5.87859397035017
 21
1.9453125
 31
0.0
  0
LINE
  5
1F7
330
73
100
AcDbEntity
  8
0
 62
     0
100
AcDbLine
 10
5.158097980143104
 20
1.202719422880853
 30
0.0
 11
5.486623104113241
 21
1.531244546850991
 31
0.0
  0
LINE
  5
1F8
330
73
100
AcDbEntity
  8
0
 62
     0
100
AcDbLine
 10
5.74443425946784
 20
1.789055702205589
 30
0.0
 11
5.899957195724755
 21
1.944578638462505
 31
0.0
  0
LINE
  5
1F9
330
73
100
AcDbEntity
  8
0
 62
     0
100
AcDbLine
 10
5.164057692367846
 20
1.186582048193516
 30
0.0
 11
5.483471612867092
 21
1.505995968692763
 31
0.0
  0
LINE
  5
1FA
330
73
100
AcDbEntity
  8
0
 62
     0
100
AcDbLine
 10
5.744132664236611
 20
1.766657020062281
 30
0.0
 11
5.918812195509537
 21
1.941336551335207
 31
0.0
  0
LINE
  5
1FB
330
73
100
AcDbEntity
  8
0
 62
     0
100
AcDbLine
 10
5.171542536139155
 20
1.171969805052746
 30
0.0
 11
5.480320121620945
 21
1.480747390534535
 31
0.0
  0
LINE
  5
1FC
330
73
100
AcDbEntity
  8
0
 62
     0
100
AcDbLine
 10
5.740981172990463
 20
1.741408441904053
 30
0.0
 11
5.935672195720787
 21
1.936099464634378
 31
0.0
  0
LINE
  5
1FD
330
73
100
AcDbEntity
  8
0
 62
     0
100
AcDbLine
 10
5.180386769344881
 20
1.158716951346392
 30
0.0
 11
5.477168630374796
 21
1.455498812376307
 31
0.0
  0
LINE
  5
1FE
330
73
100
AcDbEntity
  8
0
 62
     0
100
AcDbLine
 10
5.737829681744314
 20
1.716159863745825
 30
0.0
 11
5.950904332825346
 21
1.929234514826857
 31
0.0
  0
LINE
  5
1FF
330
73
100
AcDbEntity
  8
0
 62
     0
100
AcDbLine
 10
5.190499909052953
 20
1.146733004142385
 30
0.0
 11
5.474017139128648
 21
1.430250234218079
 31
0.0
  0
LINE
  5
200
330
73
100
AcDbEntity
  8
0
 62
     0
100
AcDbLine
 10
5.734678190498166
 20
1.690911285587597
 30
0.0
 11
5.964717980252441
 21
1.920951075341872
 31
0.0
  0
LINE
  5
201
330
73
100
AcDbEntity
  8
0
 62
     0
100
AcDbLine
 10
5.201846016599426
 20
1.135982024776778
 30
0.0
 11
5.470865647882499
 21
1.405001656059851
 31
0.0
  0
LINE
  5
202
330
73
100
AcDbEntity
  8
0
 62
     0
100
AcDbLine
 10
5.731526699252017
 20
1.665662707429369
 30
0.0
 11
5.977231884268141
 21
1.911367892445493
 31
0.0
  0
LINE
  5
203
330
73
100
AcDbEntity
  8
0
 62
     0
100
AcDbLine
 10
5.214436373608896
 20
1.126475294874169
 30
0.0
 11
5.46771415663635
 21
1.379753077901622
 31
0.0
  0
LINE
  5
204
330
73
100
AcDbEntity
  8
0
 62
     0
100
AcDbLine
 10
5.728375208005869
 20
1.640414129271141
 30
0.0
 11
5.988503558896333
 21
1.900542480161605
 31
0.0
  0
LINE
  5
205
330
73
100
AcDbEntity
  8
0
 62
     0
100
AcDbLine
 10
5.228331727290587
 20
1.11827356164378
 30
0.0
 11
5.464562665390202
 21
1.354504499743394
 31
0.0
  0
LINE
  5
206
330
73
100
AcDbEntity
  8
0
 62
     0
100
AcDbLine
 10
5.72522371675972
 20
1.615165551112913
 30
0.0
 11
5.998541458211191
 21
1.888483292564383
 31
0.0
  0
LINE
  5
207
330
73
100
AcDbEntity
  8
0
 62
     0
100
AcDbLine
 10
5.24365523425565
 20
1.111499981696763
 30
0.0
 11
5.461411174144053
 21
1.329255921585166
 31
0.0
  0
LINE
  5
208
330
73
100
AcDbEntity
  8
0
 62
     0
100
AcDbLine
 10
5.722072225513572
 20
1.589916972954684
 30
0.0
 11
6.007306656914339
 21
1.875151404355452
 31
0.0
  0
LINE
  5
209
330
73
100
AcDbEntity
  8
0
 62
     0
100
AcDbLine
 10
5.260623334456733
 20
1.106370994985766
 30
0.0
 11
5.458259682897905
 21
1.304007343426938
 31
0.0
  0
LINE
  5
20A
330
73
100
AcDbEntity
  8
0
 62
     0
100
AcDbLine
 10
5.718920734267423
 20
1.564668394796456
 30
0.0
 11
6.014704882874277
 21
1.860452543403311
 31
0.0
  0
LINE
  5
20B
330
73
100
AcDbEntity
  8
0
 62
     0
100
AcDbLine
 10
5.279616505280717
 20
1.103267078897671
 30
0.0
 11
5.455108191651756
 21
1.27875876526871
 31
0.0
  0
LINE
  5
20C
330
73
100
AcDbEntity
  8
0
 62
     0
100
AcDbLine
 10
5.715769243021274
 20
1.539419816638228
 30
0.0
 11
6.020564715954831
 21
1.844215289571785
 31
0.0
  0
LINE
  5
20D
330
73
100
AcDbEntity
  8
0
 62
     0
100
AcDbLine
 10
5.301099217092033
 20
1.102652703796907
 30
0.0
 11
5.455756632018142
 21
1.257310118723016
 31
0.0
  0
LINE
  5
20E
330
73
100
AcDbEntity
  8
0
 62
     0
100
AcDbLine
 10
5.712617751775126
 20
1.51417123848
 30
0.0
 11
6.0245881821186
 21
1.826141668823474
 31
0.0
  0
LINE
  5
20F
330
73
100
AcDbEntity
  8
0
 62
     0
100
AcDbLine
 10
5.323196304004112
 20
1.102652703796907
 30
0.0
 11
5.466446445723385
 21
1.24590284551618
 31
0.0
  0
LINE
  5
210
330
73
100
AcDbEntity
  8
0
 62
     0
100
AcDbLine
 10
5.709466260528977
 20
1.488922660321772
 30
0.0
 11
6.026230819820995
 21
1.80568721961379
 31
0.0
  0
LINE
  5
211
330
73
100
AcDbEntity
  8
0
 62
     0
100
AcDbLine
 10
5.345293390916191
 20
1.102652703796907
 30
0.0
 11
5.485918390916192
 21
1.243277703796907
 31
0.0
  0
LINE
  5
212
330
73
100
AcDbEntity
  8
0
 62
     0
100
AcDbLine
 10
5.706314769282829
 20
1.463674082163544
 30
0.0
 11
6.024570046171376
 21
1.781929359052092
 31
0.0
  0
LINE
  5
213
330
73
100
AcDbEntity
  8
0
 62
     0
100
AcDbLine
 10
5.367390477828271
 20
1.102652703796907
 30
0.0
 11
5.508015477828271
 21
1.243277703796907
 31
0.0
  0
LINE
  5
214
330
73
100
AcDbEntity
  8
0
 62
     0
100
AcDbLine
 10
5.70316327803668
 20
1.438425504005316
 30
0.0
 11
6.021803889407891
 21
1.757066115376527
 31
0.0
  0
LINE
  5
215
330
73
100
AcDbEntity
  8
0
 62
     0
100
AcDbLine
 10
5.389487564740351
 20
1.102652703796907
 30
0.0
 11
5.530112564740351
 21
1.243277703796907
 31
0.0
  0
LINE
  5
216
330
73
100
AcDbEntity
  8
0
 62
     0
100
AcDbLine
 10
5.700011786790532
 20
1.413176925847087
 30
0.0
 11
6.019037732644406
 21
1.732202871700962
 31
0.0
  0
LINE
  5
217
330
73
100
AcDbEntity
  8
0
 62
     0
100
AcDbLine
 10
5.411584651652431
 20
1.102652703796907
 30
0.0
 11
5.552209651652431
 21
1.243277703796907
 31
0.0
  0
LINE
  5
218
330
73
100
AcDbEntity
  8
0
 62
     0
100
AcDbLine
 10
5.696860295544383
 20
1.387928347688859
 30
0.0
 11
6.016271575880921
 21
1.707339628025398
 31
0.0
  0
LINE
  5
219
330
73
100
AcDbEntity
  8
0
 62
     0
100
AcDbLine
 10
5.43368173856451
 20
1.102652703796907
 30
0.0
 11
5.57430673856451
 21
1.243277703796907
 31
0.0
  0
LINE
  5
21A
330
73
100
AcDbEntity
  8
0
 62
     0
100
AcDbLine
 10
5.693708804298235
 20
1.362679769530631
 30
0.0
 11
6.013505419117436
 21
1.682476384349833
 31
0.0
  0
LINE
  5
21B
330
73
100
AcDbEntity
  8
0
 62
     0
100
AcDbLine
 10
5.455778825476589
 20
1.102652703796907
 30
0.0
 11
5.59640382547659
 21
1.243277703796907
 31
0.0
  0
LINE
  5
21C
330
73
100
AcDbEntity
  8
0
 62
     0
100
AcDbLine
 10
5.690557313052086
 20
1.337431191372403
 30
0.0
 11
6.010739262353951
 21
1.657613140674268
 31
0.0
  0
LINE
  5
21D
330
73
100
AcDbEntity
  8
0
 62
     0
100
AcDbLine
 10
5.477875912388669
 20
1.102652703796907
 30
0.0
 11
5.618500912388669
 21
1.243277703796907
 31
0.0
  0
LINE
  5
21E
330
73
100
AcDbEntity
  8
0
 62
     0
100
AcDbLine
 10
5.687405821805938
 20
1.312182613214175
 30
0.0
 11
6.007973105590465
 21
1.632749896998704
 31
0.0
  0
LINE
  5
21F
330
73
100
AcDbEntity
  8
0
 62
     0
100
AcDbLine
 10
5.499972999300749
 20
1.102652703796907
 30
0.0
 11
5.640597999300749
 21
1.243277703796907
 31
0.0
  0
LINE
  5
220
330
73
100
AcDbEntity
  8
0
 62
     0
100
AcDbLine
 10
5.684254330559789
 20
1.286934035055947
 30
0.0
 11
6.005206948826981
 21
1.607886653323139
 31
0.0
  0
LINE
  5
221
330
73
100
AcDbEntity
  8
0
 62
     0
100
AcDbLine
 10
5.522070086212829
 20
1.102652703796907
 30
0.0
 11
5.663269826905911
 21
1.243852444489989
 31
0.0
  0
LINE
  5
222
330
73
100
AcDbEntity
  8
0
 62
     0
100
AcDbLine
 10
5.680974035726095
 20
1.261556653310174
 30
0.0
 11
6.002440792063496
 21
1.583023409647574
 31
0.0
  0
LINE
  5
223
330
73
100
AcDbEntity
  8
0
 62
     0
100
AcDbLine
 10
5.544167173124908
 20
1.102652703796907
 30
0.0
 11
5.999674635300011
 21
1.55816016597201
 31
0.0
  0
LINE
  5
224
330
73
100
AcDbEntity
  8
0
 62
     0
100
AcDbLine
 10
5.566264260036987
 20
1.102652703796907
 30
0.0
 11
5.996908478536526
 21
1.533296922296445
 31
0.0
  0
LINE
  5
225
330
73
100
AcDbEntity
  8
0
 62
     0
100
AcDbLine
 10
5.588361346949067
 20
1.102652703796907
 30
0.0
 11
5.994142321773041
 21
1.50843367862088
 31
0.0
  0
LINE
  5
226
330
73
100
AcDbEntity
  8
0
 62
     0
100
AcDbLine
 10
5.610458433861147
 20
1.102652703796907
 30
0.0
 11
5.991376165009556
 21
1.483570434945316
 31
0.0
  0
LINE
  5
227
330
73
100
AcDbEntity
  8
0
 62
     0
100
AcDbLine
 10
5.632555520773227
 20
1.102652703796907
 30
0.0
 11
5.98861000824607
 21
1.458707191269751
 31
0.0
  0
LINE
  5
228
330
73
100
AcDbEntity
  8
0
 62
     0
100
AcDbLine
 10
5.654652607685306
 20
1.102652703796907
 30
0.0
 11
5.985843851482585
 21
1.433843947594186
 31
0.0
  0
LINE
  5
229
330
73
100
AcDbEntity
  8
0
 62
     0
100
AcDbLine
 10
5.676749694597385
 20
1.102652703796907
 30
0.0
 11
5.9830776947191
 21
1.408980703918621
 31
0.0
  0
LINE
  5
22A
330
73
100
AcDbEntity
  8
0
 62
     0
100
AcDbLine
 10
5.698846781509465
 20
1.102652703796907
 30
0.0
 11
5.980311537955615
 21
1.384117460243057
 31
0.0
  0
LINE
  5
22B
330
73
100
AcDbEntity
  8
0
 62
     0
100
AcDbLine
 10
5.720943868421545
 20
1.102652703796907
 30
0.0
 11
5.97754538119213
 21
1.359254216567492
 31
0.0
  0
LINE
  5
22C
330
73
100
AcDbEntity
  8
0
 62
     0
100
AcDbLine
 10
5.743040955333625
 20
1.102652703796907
 30
0.0
 11
5.974779224428645
 21
1.334390972891927
 31
0.0
  0
LINE
  5
22D
330
73
100
AcDbEntity
  8
0
 62
     0
100
AcDbLine
 10
5.765138042245705
 20
1.102652703796907
 30
0.0
 11
5.97201306766516
 21
1.309527729216363
 31
0.0
  0
LINE
  5
22E
330
73
100
AcDbEntity
  8
0
 62
     0
100
AcDbLine
 10
5.787235129157783
 20
1.102652703796907
 30
0.0
 11
5.969246910901675
 21
1.284664485540798
 31
0.0
  0
LINE
  5
22F
330
73
100
AcDbEntity
  8
0
 62
     0
100
AcDbLine
 10
5.809332216069863
 20
1.102652703796907
 30
0.0
 11
5.966480754138189
 21
1.259801241865233
 31
0.0
  0
LINE
  5
230
330
73
100
AcDbEntity
  8
0
 62
     0
100
AcDbLine
 10
5.831688793408512
 20
1.102912194223476
 30
0.0
 11
5.963714597374704
 21
1.234937998189669
 31
0.0
  0
LINE
  5
231
330
73
100
AcDbEntity
  8
0
 62
     0
100
AcDbLine
 10
5.857883386037342
 20
1.107009699940226
 30
0.0
 11
5.959417807442503
 21
1.208544121345387
 31
0.0
  0
LINE
  5
232
330
73
100
AcDbEntity
  8
0
 62
     0
100
AcDbLine
 10
5.895910047892087
 20
1.122939274882892
 30
0.0
 11
5.943488232499837
 21
1.170517459490642
 31
0.0
  0
LINE
  5
233
330
73
100
AcDbEntity
  8
0
 62
     0
100
AcDbLine
 10
4.352289629237191
 20
1.10569083804647
 30
0.0
 11
4.243775860982046
 21
1.214204606301616
 31
0.0
  0
LINE
  5
234
330
73
100
AcDbEntity
  8
0
 62
     0
100
AcDbLine
 10
3.657878419629137
 20
1.800102047654525
 30
0.0
 11
3.512667967283662
 21
1.9453125
 31
0.0
  0
LINE
  5
235
330
73
100
AcDbEntity
  8
0
 62
     0
100
AcDbLine
 10
4.106982820879106
 20
1.350997646404556
 30
0.0
 11
3.854163256494413
 21
1.603817210789248
 31
0.0
  0
LINE
  5
236
330
73
100
AcDbEntity
  8
0
 62
     0
100
AcDbLine
 10
4.318295370849737
 20
1.117588009521846
 30
0.0
 11
4.255673032457422
 21
1.180210347914161
 31
0.0
  0
LINE
  5
237
330
73
100
AcDbEntity
  8
0
 62
     0
100
AcDbLine
 10
3.649042837028919
 20
1.786840543342663
 30
0.0
 11
3.490570880371583
 21
1.9453125
 31
0.0
  0
LINE
  5
238
330
73
100
AcDbEntity
  8
0
 62
     0
100
AcDbLine
 10
4.10477053956124
 20
1.331112840810343
 30
0.0
 11
3.851711192910439
 21
1.584172187461143
 31
0.0
  0
LINE
  5
239
330
73
100
AcDbEntity
  8
0
 62
     0
100
AcDbLine
 10
4.102558258243373
 20
1.31122803521613
 30
0.0
 11
3.849259129326465
 21
1.564527164133037
 31
0.0
  0
LINE
  5
23A
330
73
100
AcDbEntity
  8
0
 62
     0
100
AcDbLine
 10
3.646448008526224
 20
1.767338284933279
 30
0.0
 11
3.469405128558944
 21
1.944381164900558
 31
0.0
  0
LINE
  5
23B
330
73
100
AcDbEntity
  8
0
 62
     0
100
AcDbLine
 10
4.100345976925506
 20
1.291343229621917
 30
0.0
 11
3.846807065742492
 21
1.544882140804931
 31
0.0
  0
LINE
  5
23C
330
73
100
AcDbEntity
  8
0
 62
     0
100
AcDbLine
 10
3.64399594494225
 20
1.747693261605173
 30
0.0
 11
3.450753123227932
 21
1.940936083319491
 31
0.0
  0
LINE
  5
23D
330
73
100
AcDbEntity
  8
0
 62
     0
100
AcDbLine
 10
4.098133695607639
 20
1.271458424027704
 30
0.0
 11
3.844355002158518
 21
1.525237117476825
 31
0.0
  0
LINE
  5
23E
330
73
100
AcDbEntity
  8
0
 62
     0
100
AcDbLine
 10
3.641543881358277
 20
1.728048238277067
 30
0.0
 11
3.434053044082379
 21
1.935539075552964
 31
0.0
  0
LINE
  5
23F
330
73
100
AcDbEntity
  8
0
 62
     0
100
AcDbLine
 10
4.095921414289773
 20
1.251573618433491
 30
0.0
 11
3.841902938574544
 21
1.505592094148719
 31
0.0
  0
LINE
  5
240
330
73
100
AcDbEntity
  8
0
 62
     0
100
AcDbLine
 10
3.639091817774303
 20
1.708403214948962
 30
0.0
 11
3.418956730956872
 21
1.928538301766391
 31
0.0
  0
LINE
  5
241
330
73
100
AcDbEntity
  8
0
 62
     0
100
AcDbLine
 10
4.093709132971906
 20
1.231688812839278
 30
0.0
 11
3.83945087499057
 21
1.485947070820614
 31
0.0
  0
LINE
  5
242
330
73
100
AcDbEntity
  8
0
 62
     0
100
AcDbLine
 10
3.636639754190329
 20
1.688758191620856
 30
0.0
 11
3.405264995751064
 21
1.92013295006012
 31
0.0
  0
LINE
  5
243
330
73
100
AcDbEntity
  8
0
 62
     0
100
AcDbLine
 10
4.090735974281221
 20
1.212564884617885
 30
0.0
 11
3.836998811406596
 21
1.466302047492509
 31
0.0
  0
LINE
  5
244
330
73
100
AcDbEntity
  8
0
 62
     0
100
AcDbLine
 10
3.634187690606355
 20
1.669113168292751
 30
0.0
 11
3.392865525160123
 21
1.910435333738982
 31
0.0
  0
LINE
  5
245
330
73
100
AcDbEntity
  8
0
 62
     0
100
AcDbLine
 10
4.085749280380514
 20
1.195454491606512
 30
0.0
 11
3.834546747822622
 21
1.446657024164403
 31
0.0
  0
LINE
  5
246
330
73
100
AcDbEntity
  8
0
 62
     0
100
AcDbLine
 10
3.631735627022381
 20
1.649468144964645
 30
0.0
 11
3.381705581361992
 21
1.899498190625034
 31
0.0
  0
LINE
  5
247
330
73
100
AcDbEntity
  8
0
 62
     0
100
AcDbLine
 10
4.079095426485623
 20
1.180011258589323
 30
0.0
 11
3.832094684238649
 21
1.427012000836297
 31
0.0
  0
LINE
  5
248
330
73
100
AcDbEntity
  8
0
 62
     0
100
AcDbLine
 10
3.629283563438407
 20
1.629823121636539
 30
0.0
 11
3.371780946254544
 21
1.887325738820402
 31
0.0
  0
LINE
  5
249
330
73
100
AcDbEntity
  8
0
 62
     0
100
AcDbLine
 10
4.071000384450767
 20
1.166009213712099
 30
0.0
 11
3.829642620654675
 21
1.407366977508191
 31
0.0
  0
LINE
  5
24A
330
73
100
AcDbEntity
  8
0
 62
     0
100
AcDbLine
 10
3.626831499854433
 20
1.610178098308433
 30
0.0
 11
3.363135083891957
 21
1.87387451427091
 31
0.0
  0
LINE
  5
24B
330
73
100
AcDbEntity
  8
0
 62
     0
100
AcDbLine
 10
4.061593194955141
 20
1.153319316295646
 30
0.0
 11
3.827190557070701
 21
1.387721954180086
 31
0.0
  0
LINE
  5
24C
330
73
100
AcDbEntity
  8
0
 62
     0
100
AcDbLine
 10
3.624379436270459
 20
1.590533074980328
 30
0.0
 11
3.355868101393523
 21
1.859044409857263
 31
0.0
  0
LINE
  5
24D
330
73
100
AcDbEntity
  8
0
 62
     0
100
AcDbLine
 10
4.050938869036228
 20
1.14187655530248
 30
0.0
 11
3.824738493486727
 21
1.36807693085198
 31
0.0
  0
LINE
  5
24E
330
73
100
AcDbEntity
  8
0
 62
     0
100
AcDbLine
 10
3.621927372686486
 20
1.570888051652222
 30
0.0
 11
3.350160268570204
 21
1.842655155768503
 31
0.0
  0
LINE
  5
24F
330
73
100
AcDbEntity
  8
0
 62
     0
100
AcDbLine
 10
4.039052369708532
 20
1.131665967718096
 30
0.0
 11
3.822286429902753
 21
1.348431907523874
 31
0.0
  0
LINE
  5
250
330
73
100
AcDbEntity
  8
0
 62
     0
100
AcDbLine
 10
3.619475309102512
 20
1.551243028324116
 30
0.0
 11
3.346325304002462
 21
1.824393033424166
 31
0.0
  0
LINE
  5
251
330
73
100
AcDbEntity
  8
0
 62
     0
100
AcDbLine
 10
4.025901595968638
 20
1.12271965454591
 30
0.0
 11
3.819834366318779
 21
1.328786884195768
 31
0.0
  0
LINE
  5
252
330
73
100
AcDbEntity
  8
0
 62
     0
100
AcDbLine
 10
3.617023245518538
 20
1.53159800499601
 30
0.0
 11
3.34405652262241
 21
1.804564727892138
 31
0.0
  0
LINE
  5
253
330
73
100
AcDbEntity
  8
0
 62
     0
100
AcDbLine
 10
4.011400874707789
 20
1.115123288894679
 30
0.0
 11
3.817382302734806
 21
1.309141860867662
 31
0.0
  0
LINE
  5
254
330
73
100
AcDbEntity
  8
0
 62
     0
100
AcDbLine
 10
3.614571181934564
 20
1.511952981667904
 30
0.0
 11
3.341844241304543
 21
1.784679922297925
 31
0.0
  0
LINE
  5
255
330
73
100
AcDbEntity
  8
0
 62
     0
100
AcDbLine
 10
3.995391591751424
 20
1.109035484938965
 30
0.0
 11
3.814930239150832
 21
1.289496837539557
 31
0.0
  0
LINE
  5
256
330
73
100
AcDbEntity
  8
0
 62
     0
100
AcDbLine
 10
3.61211911835059
 20
1.492307958339799
 30
0.0
 11
3.339631959986677
 21
1.764795116703712
 31
0.0
  0
LINE
  5
257
330
73
100
AcDbEntity
  8
0
 62
     0
100
AcDbLine
 10
3.977598132026785
 20
1.104731857751524
 30
0.0
 11
3.812478175566858
 21
1.269851814211451
 31
0.0
  0
LINE
  5
258
330
73
100
AcDbEntity
  8
0
 62
     0
100
AcDbLine
 10
3.609667054766616
 20
1.472662935011693
 30
0.0
 11
3.33741967866881
 21
1.7449103111095
 31
0.0
  0
LINE
  5
259
330
73
100
AcDbEntity
  8
0
 62
     0
100
AcDbLine
 10
3.95752281424887
 20
1.102710088617359
 30
0.0
 11
3.807371802465874
 21
1.252861100400356
 31
0.0
  0
LINE
  5
25A
330
73
100
AcDbEntity
  8
0
 62
     0
100
AcDbLine
 10
3.166753780440368
 20
1.893479122425862
 30
0.0
 11
3.146497530755017
 21
1.913735372111213
 31
0.0
  0
LINE
  5
25B
330
73
100
AcDbEntity
  8
0
 62
     0
100
AcDbLine
 10
3.607214991182642
 20
1.453017911683587
 30
0.0
 11
3.335207397350943
 21
1.725025505515286
 31
0.0
  0
LINE
  5
25C
330
73
100
AcDbEntity
  8
0
 62
     0
100
AcDbLine
 10
3.935483112157243
 20
1.102652703796907
 30
0.0
 11
3.794157006762427
 21
1.243978809191723
 31
0.0
  0
LINE
  5
25D
330
73
100
AcDbEntity
  8
0
 62
     0
100
AcDbLine
 10
3.19212114347804
 20
1.84601467247611
 30
0.0
 11
3.099033080805265
 21
1.939102735148885
 31
0.0
  0
LINE
  5
25E
330
73
100
AcDbEntity
  8
0
 62
     0
100
AcDbLine
 10
3.604762927598669
 20
1.433372888355481
 30
0.0
 11
3.332995116033076
 21
1.705140699921074
 31
0.0
  0
LINE
  5
25F
330
73
100
AcDbEntity
  8
0
 62
     0
100
AcDbLine
 10
3.913386025245163
 20
1.102652703796907
 30
0.0
 11
3.772761025245163
 21
1.243277703796907
 31
0.0
  0
LINE
  5
260
330
73
100
AcDbEntity
  8
0
 62
     0
100
AcDbLine
 10
3.197663140579754
 20
1.818375588462317
 30
0.0
 11
3.071393996791472
 21
1.944644732250599
 31
0.0
  0
LINE
  5
261
330
73
100
AcDbEntity
  8
0
 62
     0
100
AcDbLine
 10
3.602310864014695
 20
1.413727865027376
 30
0.0
 11
3.33078283471521
 21
1.685255894326861
 31
0.0
  0
LINE
  5
262
330
73
100
AcDbEntity
  8
0
 62
     0
100
AcDbLine
 10
3.891288938333084
 20
1.102652703796907
 30
0.0
 11
3.750663938333084
 21
1.243277703796907
 31
0.0
  0
LINE
  5
263
330
73
100
AcDbEntity
  8
0
 62
     0
100
AcDbLine
 10
3.198055227934428
 20
1.795886414195562
 30
0.0
 11
3.048629142129991
 21
1.9453125
 31
0.0
  0
LINE
  5
264
330
73
100
AcDbEntity
  8
0
 62
     0
100
AcDbLine
 10
3.599858800430721
 20
1.39408284169927
 30
0.0
 11
3.328570553397343
 21
1.665371088732648
 31
0.0
  0
LINE
  5
265
330
73
100
AcDbEntity
  8
0
 62
     0
100
AcDbLine
 10
3.869191851421004
 20
1.102652703796907
 30
0.0
 11
3.728566851421004
 21
1.243277703796907
 31
0.0
  0
LINE
  5
266
330
73
100
AcDbEntity
  8
0
 62
     0
100
AcDbLine
 10
3.195990656560136
 20
1.775853898657776
 30
0.0
 11
3.026532055217912
 21
1.9453125
 31
0.0
  0
LINE
  5
267
330
73
100
AcDbEntity
  8
0
 62
     0
100
AcDbLine
 10
3.597406736846747
 20
1.374437818371164
 30
0.0
 11
3.326358272079476
 21
1.645486283138435
 31
0.0
  0
LINE
  5
268
330
73
100
AcDbEntity
  8
0
 62
     0
100
AcDbLine
 10
3.847094764508925
 20
1.102652703796907
 30
0.0
 11
3.706469764508924
 21
1.243277703796907
 31
0.0
  0
LINE
  5
269
330
73
100
AcDbEntity
  8
0
 62
     0
100
AcDbLine
 10
3.193778375242269
 20
1.755969093063563
 30
0.0
 11
3.004434968305832
 21
1.9453125
 31
0.0
  0
LINE
  5
26A
330
73
100
AcDbEntity
  8
0
 62
     0
100
AcDbLine
 10
3.594954673262773
 20
1.354792795043058
 30
0.0
 11
3.32414599076161
 21
1.625601477544222
 31
0.0
  0
LINE
  5
26B
330
73
100
AcDbEntity
  8
0
 62
     0
100
AcDbLine
 10
3.824997677596845
 20
1.102652703796907
 30
0.0
 11
3.684372677596845
 21
1.243277703796907
 31
0.0
  0
LINE
  5
26C
330
73
100
AcDbEntity
  8
0
 62
     0
100
AcDbLine
 10
3.191566093924402
 20
1.73608428746935
 30
0.0
 11
2.982337881393752
 21
1.9453125
 31
0.0
  0
LINE
  5
26D
330
73
100
AcDbEntity
  8
0
 62
     0
100
AcDbLine
 10
3.592502609678799
 20
1.335147771714953
 30
0.0
 11
3.321933709443743
 21
1.605716671950009
 31
0.0
  0
LINE
  5
26E
330
73
100
AcDbEntity
  8
0
 62
     0
100
AcDbLine
 10
3.802900590684765
 20
1.102652703796907
 30
0.0
 11
3.662275590684765
 21
1.243277703796907
 31
0.0
  0
LINE
  5
26F
330
73
100
AcDbEntity
  8
0
 62
     0
100
AcDbLine
 10
3.189353812606535
 20
1.716199481875137
 30
0.0
 11
2.960240794481673
 21
1.9453125
 31
0.0
  0
LINE
  5
270
330
73
100
AcDbEntity
  8
0
 62
     0
100
AcDbLine
 10
3.590050546094825
 20
1.315502748386847
 30
0.0
 11
3.319721428125876
 21
1.585831866355796
 31
0.0
  0
LINE
  5
271
330
73
100
AcDbEntity
  8
0
 62
     0
100
AcDbLine
 10
3.780803503772686
 20
1.102652703796907
 30
0.0
 11
3.640178503772686
 21
1.243277703796907
 31
0.0
  0
LINE
  5
272
330
73
100
AcDbEntity
  8
0
 62
     0
100
AcDbLine
 10
3.187141531288669
 20
1.696314676280924
 30
0.0
 11
2.938143707569593
 21
1.9453125
 31
0.0
  0
LINE
  5
273
330
73
100
AcDbEntity
  8
0
 62
     0
100
AcDbLine
 10
3.587598482510852
 20
1.295857725058741
 30
0.0
 11
3.31750914680801
 21
1.565947060761583
 31
0.0
  0
LINE
  5
274
330
73
100
AcDbEntity
  8
0
 62
     0
100
AcDbLine
 10
3.758706416860606
 20
1.102652703796907
 30
0.0
 11
3.618081416860606
 21
1.243277703796907
 31
0.0
  0
LINE
  5
275
330
73
100
AcDbEntity
  8
0
 62
     0
100
AcDbLine
 10
3.184929249970802
 20
1.676429870686711
 30
0.0
 11
2.916046620657514
 21
1.9453125
 31
0.0
  0
LINE
  5
276
330
73
100
AcDbEntity
  8
0
 62
     0
100
AcDbLine
 10
3.585146418926878
 20
1.276212701730635
 30
0.0
 11
3.315296865490143
 21
1.54606225516737
 31
0.0
  0
LINE
  5
277
330
73
100
AcDbEntity
  8
0
 62
     0
100
AcDbLine
 10
3.736609329948527
 20
1.102652703796907
 30
0.0
 11
3.313084584172276
 21
1.526177449573157
 31
0.0
  0
LINE
  5
278
330
73
100
AcDbEntity
  8
0
 62
     0
100
AcDbLine
 10
3.182716968652935
 20
1.656545065092498
 30
0.0
 11
2.893949533745434
 21
1.9453125
 31
0.0
  0
LINE
  5
279
330
73
100
AcDbEntity
  8
0
 62
     0
100
AcDbLine
 10
3.714512243036447
 20
1.102652703796907
 30
0.0
 11
3.31087230285441
 21
1.506292643978944
 31
0.0
  0
LINE
  5
27A
330
73
100
AcDbEntity
  8
0
 62
     0
100
AcDbLine
 10
3.180035577613641
 20
1.637129369219713
 30
0.0
 11
2.871852446833354
 21
1.9453125
 31
0.0
  0
LINE
  5
27B
330
73
100
AcDbEntity
  8
0
 62
     0
100
AcDbLine
 10
3.692415156124367
 20
1.102652703796907
 30
0.0
 11
3.308660021536543
 21
1.486407838384731
 31
0.0
  0
LINE
  5
27C
330
73
100
AcDbEntity
  8
0
 62
     0
100
AcDbLine
 10
3.175379260674711
 20
1.619688599246563
 30
0.0
 11
2.849755359921275
 21
1.9453125
 31
0.0
  0
LINE
  5
27D
330
73
100
AcDbEntity
  8
0
 62
     0
100
AcDbLine
 10
3.670318069212288
 20
1.102652703796907
 30
0.0
 11
3.306447740218676
 21
1.466523032790519
 31
0.0
  0
LINE
  5
27E
330
73
100
AcDbEntity
  8
0
 62
     0
100
AcDbLine
 10
3.169000988872954
 20
1.603969784136241
 30
0.0
 11
2.827658273009195
 21
1.9453125
 31
0.0
  0
LINE
  5
27F
330
73
100
AcDbEntity
  8
0
 62
     0
100
AcDbLine
 10
3.648220982300208
 20
1.102652703796907
 30
0.0
 11
3.30423545890081
 21
1.446638227196306
 31
0.0
  0
LINE
  5
280
330
73
100
AcDbEntity
  8
0
 62
     0
100
AcDbLine
 10
3.161149916244967
 20
1.589723769852148
 30
0.0
 11
2.805561186097115
 21
1.9453125
 31
0.0
  0
LINE
  5
281
330
73
100
AcDbEntity
  8
0
 62
     0
100
AcDbLine
 10
3.626123895388129
 20
1.102652703796907
 30
0.0
 11
3.302023177582943
 21
1.426753421602093
 31
0.0
  0
LINE
  5
282
330
73
100
AcDbEntity
  8
0
 62
     0
100
AcDbLine
 10
3.151969104753702
 20
1.576807494431333
 30
0.0
 11
2.783464099185036
 21
1.9453125
 31
0.0
  0
LINE
  5
283
330
73
100
AcDbEntity
  8
0
 62
     0
100
AcDbLine
 10
3.604026808476049
 20
1.102652703796907
 30
0.0
 11
3.299810896265076
 21
1.40686861600788
 31
0.0
  0
LINE
  5
284
330
73
100
AcDbEntity
  8
0
 62
     0
100
AcDbLine
 10
2.904062189826846
 20
1.802617322446109
 30
0.0
 11
2.761367012272956
 21
1.9453125
 31
0.0
  0
LINE
  5
285
330
73
100
AcDbEntity
  8
0
 62
     0
100
AcDbLine
 10
3.141533512463942
 20
1.565145999809014
 30
0.0
 11
2.915798627696041
 21
1.790880884576916
 31
0.0
  0
LINE
  5
286
330
73
100
AcDbEntity
  8
0
 62
     0
100
AcDbLine
 10
3.581929721563969
 20
1.102652703796907
 30
0.0
 11
3.297598614947209
 21
1.386983810413667
 31
0.0
  0
LINE
  5
287
330
73
100
AcDbEntity
  8
0
 62
     0
100
AcDbLine
 10
2.879894925360876
 20
1.804687499999999
 30
0.0
 11
2.739269925360876
 21
1.9453125
 31
0.0
  0
LINE
  5
288
330
73
100
AcDbEntity
  8
0
 62
     0
100
AcDbLine
 10
3.12986649161046
 20
1.554715933750417
 30
0.0
 11
2.916417423285899
 21
1.768165002074977
 31
0.0
  0
LINE
  5
289
330
73
100
AcDbEntity
  8
0
 62
     0
100
AcDbLine
 10
3.55983263465189
 20
1.102652703796907
 30
0.0
 11
3.295386333629343
 21
1.367099004819454
 31
0.0
  0
LINE
  5
28A
330
73
100
AcDbEntity
  8
0
 62
     0
100
AcDbLine
 10
2.857797838448797
 20
1.804687499999999
 30
0.0
 11
2.717172838448797
 21
1.9453125
 31
0.0
  0
LINE
  5
28B
330
73
100
AcDbEntity
  8
0
 62
     0
100
AcDbLine
 10
3.116944476708014
 20
1.545540861740783
 30
0.0
 11
2.913965359701925
 21
1.748519978746871
 31
0.0
  0
LINE
  5
28C
330
73
100
AcDbEntity
  8
0
 62
     0
100
AcDbLine
 10
3.53773554773981
 20
1.102652703796907
 30
0.0
 11
3.293174052311476
 21
1.347214199225241
 31
0.0
  0
LINE
  5
28D
330
73
100
AcDbEntity
  8
0
 62
     0
100
AcDbLine
 10
2.835700751536717
 20
1.804687499999999
 30
0.0
 11
2.695075751536717
 21
1.9453125
 31
0.0
  0
LINE
  5
28E
330
73
100
AcDbEntity
  8
0
 62
     0
100
AcDbLine
 10
3.102692252659233
 20
1.537695998877484
 30
0.0
 11
2.911513296117952
 21
1.728874955418765
 31
0.0
  0
LINE
  5
28F
330
73
100
AcDbEntity
  8
0
 62
     0
100
AcDbLine
 10
3.515638460827731
 20
1.102652703796907
 30
0.0
 11
3.29096177099361
 21
1.327329393631028
 31
0.0
  0
LINE
  5
290
330
73
100
AcDbEntity
  8
0
 62
     0
100
AcDbLine
 10
2.813603664624638
 20
1.804687499999999
 30
0.0
 11
2.672978664624638
 21
1.9453125
 31
0.0
  0
LINE
  5
291
330
73
100
AcDbEntity
  8
0
 62
     0
100
AcDbLine
 10
3.086966389813908
 20
1.531324774810729
 30
0.0
 11
2.909061232533978
 21
1.709229932090659
 31
0.0
  0
LINE
  5
292
330
73
100
AcDbEntity
  8
0
 62
     0
100
AcDbLine
 10
3.493541373915651
 20
1.102652703796907
 30
0.0
 11
3.288749489675743
 21
1.307444588036815
 31
0.0
  0
LINE
  5
293
330
73
100
AcDbEntity
  8
0
 62
     0
100
AcDbLine
 10
2.791506577712558
 20
1.804687499999999
 30
0.0
 11
2.650881577712558
 21
1.9453125
 31
0.0
  0
LINE
  5
294
330
73
100
AcDbEntity
  8
0
 62
     0
100
AcDbLine
 10
3.069517117504215
 20
1.526676960208343
 30
0.0
 11
2.906609168950004
 21
1.689584908762554
 31
0.0
  0
LINE
  5
295
330
73
100
AcDbEntity
  8
0
 62
     0
100
AcDbLine
 10
3.471444287003571
 20
1.102652703796907
 30
0.0
 11
3.286537208357876
 21
1.287559782442602
 31
0.0
  0
LINE
  5
296
330
73
100
AcDbEntity
  8
0
 62
     0
100
AcDbLine
 10
2.769409490800478
 20
1.804687499999999
 30
0.0
 11
2.628784490800478
 21
1.9453125
 31
0.0
  0
LINE
  5
297
330
73
100
AcDbEntity
  8
0
 62
     0
100
AcDbLine
 10
3.14316356254285
 20
1.430933428257628
 30
0.0
 11
3.05840673468833
 21
1.515690256112148
 31
0.0
  0
LINE
  5
298
330
73
100
AcDbEntity
  8
0
 62
     0
100
AcDbLine
 10
3.049899134011747
 20
1.524197856788731
 30
0.0
 11
2.90415710536603
 21
1.669939885434448
 31
0.0
  0
LINE
  5
299
330
73
100
AcDbEntity
  8
0
 62
     0
100
AcDbLine
 10
3.449347200091492
 20
1.102652703796907
 30
0.0
 11
3.284324927040009
 21
1.267674976848389
 31
0.0
  0
LINE
  5
29A
330
73
100
AcDbEntity
  8
0
 62
     0
100
AcDbLine
 10
2.747312403888399
 20
1.804687499999999
 30
0.0
 11
2.606687403888399
 21
1.9453125
 31
0.0
  0
LINE
  5
29B
330
73
100
AcDbEntity
  8
0
 62
     0
100
AcDbLine
 10
3.150247648120398
 20
1.401752255768
 30
0.0
 11
3.029225562198702
 21
1.522774341689697
 31
0.0
  0
LINE
  5
29C
330
73
100
AcDbEntity
  8
0
 62
     0
100
AcDbLine
 10
3.028017301989946
 20
1.523982601898453
 30
0.0
 11
2.901705041782056
 21
1.650294862106342
 31
0.0
  0
LINE
  5
29D
330
73
100
AcDbEntity
  8
0
 62
     0
100
AcDbLine
 10
3.427250113179412
 20
1.102652703796907
 30
0.0
 11
3.282537654711241
 21
1.247365162265078
 31
0.0
  0
LINE
  5
29E
330
73
100
AcDbEntity
  8
0
 62
     0
100
AcDbLine
 10
2.725215316976319
 20
1.804687499999999
 30
0.0
 11
2.584590316976319
 21
1.9453125
 31
0.0
  0
LINE
  5
29F
330
73
100
AcDbEntity
  8
0
 62
     0
100
AcDbLine
 10
3.151373012335874
 20
1.378529804640445
 30
0.0
 11
2.899252978198082
 21
1.630649838778236
 31
0.0
  0
LINE
  5
2A0
330
73
100
AcDbEntity
  8
0
 62
     0
100
AcDbLine
 10
3.403825388518978
 20
1.103980341545261
 30
0.0
 11
3.283805876114596
 21
1.223999853949644
 31
0.0
  0
LINE
  5
2A1
330
73
100
AcDbEntity
  8
0
 62
     0
100
AcDbLine
 10
2.704807521121056
 20
1.802998208943184
 30
0.0
 11
2.56249323006424
 21
1.9453125
 31
0.0
  0
LINE
  5
2A2
330
73
100
AcDbEntity
  8
0
 62
     0
100
AcDbLine
 10
3.149532748884936
 20
1.358272981179304
 30
0.0
 11
2.896611522164113
 21
1.611194207900126
 31
0.0
  0
LINE
  5
2A3
330
73
100
AcDbEntity
  8
0
 62
     0
100
AcDbLine
 10
3.374325185605195
 20
1.111383457546965
 30
0.0
 11
3.291208992116299
 21
1.194499651035861
 31
0.0
  0
LINE
  5
2A4
330
73
100
AcDbEntity
  8
0
 62
     0
100
AcDbLine
 10
2.693063456748942
 20
1.792645186403218
 30
0.0
 11
2.54039614315216
 21
1.9453125
 31
0.0
  0
LINE
  5
2A5
330
73
100
AcDbEntity
  8
0
 62
     0
100
AcDbLine
 10
3.147320467567069
 20
1.338388175585091
 30
0.0
 11
2.887585939332419
 21
1.598122703819741
 31
0.0
  0
LINE
  5
2A6
330
73
100
AcDbEntity
  8
0
 62
     0
100
AcDbLine
 10
3.145108186249202
 20
1.318503369990878
 30
0.0
 11
2.86986155624008
 21
1.593749999999999
 31
0.0
  0
LINE
  5
2A7
330
73
100
AcDbEntity
  8
0
 62
     0
100
AcDbLine
 10
2.689085666645919
 20
1.774525889594161
 30
0.0
 11
2.51829905624008
 21
1.9453125
 31
0.0
  0
LINE
  5
2A8
330
73
100
AcDbEntity
  8
0
 62
     0
100
AcDbLine
 10
3.142895904931335
 20
1.298618564396665
 30
0.0
 11
2.847764469328001
 21
1.593749999999999
 31
0.0
  0
LINE
  5
2A9
330
73
100
AcDbEntity
  8
0
 62
     0
100
AcDbLine
 10
2.686633603061946
 20
1.754880866266055
 30
0.0
 11
2.496201969328001
 21
1.9453125
 31
0.0
  0
LINE
  5
2AA
330
73
100
AcDbEntity
  8
0
 62
     0
100
AcDbLine
 10
3.140683623613468
 20
1.278733758802452
 30
0.0
 11
2.825667382415921
 21
1.593749999999999
 31
0.0
  0
LINE
  5
2AB
330
73
100
AcDbEntity
  8
0
 62
     0
100
AcDbLine
 10
2.684181539477972
 20
1.735235842937949
 30
0.0
 11
2.474104882415921
 21
1.9453125
 31
0.0
  0
LINE
  5
2AC
330
73
100
AcDbEntity
  8
0
 62
     0
100
AcDbLine
 10
3.138471342295602
 20
1.258848953208239
 30
0.0
 11
2.803570295503842
 21
1.593749999999999
 31
0.0
  0
LINE
  5
2AD
330
73
100
AcDbEntity
  8
0
 62
     0
100
AcDbLine
 10
2.681729475893998
 20
1.715590819609843
 30
0.0
 11
2.456017589810806
 21
1.941302705693035
 31
0.0
  0
LINE
  5
2AE
330
73
100
AcDbEntity
  8
0
 62
     0
100
AcDbLine
 10
3.136259060977735
 20
1.238964147614026
 30
0.0
 11
2.781473208591762
 21
1.593749999999999
 31
0.0
  0
LINE
  5
2AF
330
73
100
AcDbEntity
  8
0
 62
     0
100
AcDbLine
 10
2.679277412310024
 20
1.695945796281738
 30
0.0
 11
2.476466291509782
 21
1.89875691708198
 31
0.0
  0
LINE
  5
2B0
330
73
100
AcDbEntity
  8
0
 62
     0
100
AcDbLine
 10
3.133814137453699
 20
1.219311984225983
 30
0.0
 11
2.759376121679682
 21
1.593749999999999
 31
0.0
  0
LINE
  5
2B1
330
73
100
AcDbEntity
  8
0
 62
     0
100
AcDbLine
 10
2.67682534872605
 20
1.676300772953632
 30
0.0
 11
2.474014227925808
 21
1.879111893753874
 31
0.0
  0
LINE
  5
2B2
330
73
100
AcDbEntity
  8
0
 62
     0
100
AcDbLine
 10
3.129523841993325
 20
1.201505192774277
 30
0.0
 11
2.737279034767603
 21
1.593749999999999
 31
0.0
  0
LINE
  5
2B3
330
73
100
AcDbEntity
  8
0
 62
     0
100
AcDbLine
 10
2.674373285142077
 20
1.656655749625526
 30
0.0
 11
2.471562164341834
 21
1.859466870425768
 31
0.0
  0
LINE
  5
2B4
330
73
100
AcDbEntity
  8
0
 62
     0
100
AcDbLine
 10
3.12344694186178
 20
1.185485005993742
 30
0.0
 11
2.873695293238233
 21
1.43523665461729
 31
0.0
  0
LINE
  5
2B5
330
73
100
AcDbEntity
  8
0
 62
     0
100
AcDbLine
 10
2.671921221558103
 20
1.63701072629742
 30
0.0
 11
2.46911010075786
 21
1.839821847097662
 31
0.0
  0
LINE
  5
2B6
330
73
100
AcDbEntity
  8
0
 62
     0
100
AcDbLine
 10
2.855144807650215
 20
1.453787140205308
 30
0.0
 11
2.715181947855523
 21
1.593749999999999
 31
0.0
  0
LINE
  5
2B7
330
73
100
AcDbEntity
  8
0
 62
     0
100
AcDbLine
 10
3.115860088630943
 20
1.170974772312501
 30
0.0
 11
2.872280278774369
 21
1.414554582169073
 31
0.0
  0
LINE
  5
2B8
330
73
100
AcDbEntity
  8
0
 62
     0
100
AcDbLine
 10
2.66962879096742
 20
1.617206069976023
 30
0.0
 11
2.466658037173886
 21
1.820176823769557
 31
0.0
  0
LINE
  5
2B9
330
73
100
AcDbEntity
  8
0
 62
     0
100
AcDbLine
 10
2.832619657146536
 20
1.454215203796907
 30
0.0
 11
2.693084860943443
 21
1.593749999999999
 31
0.0
  0
LINE
  5
2BA
330
73
100
AcDbEntity
  8
0
 62
     0
100
AcDbLine
 10
3.106922496635144
 20
1.157815277396219
 30
0.0
 11
2.869828215190396
 21
1.394909558840968
 31
0.0
  0
LINE
  5
2BB
330
73
100
AcDbEntity
  8
0
 62
     0
100
AcDbLine
 10
2.810522570234457
 20
1.454215203796907
 30
0.0
 11
2.464205973589912
 21
1.800531800441451
 31
0.0
  0
LINE
  5
2BC
330
73
100
AcDbEntity
  8
0
 62
     0
100
AcDbLine
 10
3.096720246309267
 20
1.145920440810017
 30
0.0
 11
2.867376151606422
 21
1.375264535512862
 31
0.0
  0
LINE
  5
2BD
330
73
100
AcDbEntity
  8
0
 62
     0
100
AcDbLine
 10
2.788425483322377
 20
1.454215203796907
 30
0.0
 11
2.461753910005939
 21
1.780886777113345
 31
0.0
  0
LINE
  5
2BE
330
73
100
AcDbEntity
  8
0
 62
     0
100
AcDbLine
 10
3.085285765727286
 20
1.135257834479918
 30
0.0
 11
2.864924088022448
 21
1.355619512184756
 31
0.0
  0
LINE
  5
2BF
330
73
100
AcDbEntity
  8
0
 62
     0
100
AcDbLine
 10
2.297800427962234
 20
1.92274317224497
 30
0.0
 11
2.275231100207204
 21
1.9453125
 31
0.0
  0
LINE
  5
2C0
330
73
100
AcDbEntity
  8
0
 62
     0
100
AcDbLine
 10
2.766328396410298
 20
1.454215203796907
 30
0.0
 11
2.459301846421965
 21
1.76124175378524
 31
0.0
  0
LINE
  5
2C1
330
73
100
AcDbEntity
  8
0
 62
     0
100
AcDbLine
 10
3.072604407770952
 20
1.125842105524173
 30
0.0
 11
2.862472024438474
 21
1.33597448885665
 31
0.0
  0
LINE
  5
2C2
330
73
100
AcDbEntity
  8
0
 62
     0
100
AcDbLine
 10
2.286033597264351
 20
1.912412916030774
 30
0.0
 11
2.253134013295125
 21
1.9453125
 31
0.0
  0
LINE
  5
2C3
330
73
100
AcDbEntity
  8
0
 62
     0
100
AcDbLine
 10
2.744231309498218
 20
1.454215203796907
 30
0.0
 11
2.456849782837991
 21
1.741596730457134
 31
0.0
  0
LINE
  5
2C4
330
73
100
AcDbEntity
  8
0
 62
     0
100
AcDbLine
 10
3.058611529693032
 20
1.117737896690013
 30
0.0
 11
2.8600199608545
 21
1.316329465528545
 31
0.0
  0
LINE
  5
2C5
330
73
100
AcDbEntity
  8
0
 62
     0
100
AcDbLine
 10
2.277285821802656
 20
1.899063604580389
 30
0.0
 11
2.231036926383045
 21
1.9453125
 31
0.0
  0
LINE
  5
2C6
330
73
100
AcDbEntity
  8
0
 62
     0
100
AcDbLine
 10
2.722134222586138
 20
1.454215203796907
 30
0.0
 11
2.454397719254017
 21
1.721951707129028
 31
0.0
  0
LINE
  5
2C7
330
73
100
AcDbEntity
  8
0
 62
     0
100
AcDbLine
 10
3.043178602075553
 20
1.111073737395413
 30
0.0
 11
2.857567897270526
 21
1.296684442200439
 31
0.0
  0
LINE
  5
2C8
330
73
100
AcDbEntity
  8
0
 62
     0
100
AcDbLine
 10
2.274833758218682
 20
1.879418581252284
 30
0.0
 11
2.208939839470966
 21
1.9453125
 31
0.0
  0
LINE
  5
2C9
330
73
100
AcDbEntity
  8
0
 62
     0
100
AcDbLine
 10
2.700037135674059
 20
1.454215203796907
 30
0.0
 11
2.451945655670043
 21
1.702306683800922
 31
0.0
  0
LINE
  5
2CA
330
73
100
AcDbEntity
  8
0
 62
     0
100
AcDbLine
 10
3.026080485956595
 20
1.106074766602291
 30
0.0
 11
2.855115833686552
 21
1.277039418872333
 31
0.0
  0
LINE
  5
2CB
330
73
100
AcDbEntity
  8
0
 62
     0
100
AcDbLine
 10
2.272381694634708
 20
1.859773557924178
 30
0.0
 11
2.186842752558886
 21
1.9453125
 31
0.0
  0
LINE
  5
2CC
330
73
100
AcDbEntity
  8
0
 62
     0
100
AcDbLine
 10
2.677940048761979
 20
1.454215203796907
 30
0.0
 11
2.449493592086069
 21
1.682661660472817
 31
0.0
  0
LINE
  5
2CD
330
73
100
AcDbEntity
  8
0
 62
     0
100
AcDbLine
 10
3.006920085957428
 20
1.103138079689378
 30
0.0
 11
2.851991337369369
 21
1.258066828277437
 31
0.0
  0
LINE
  5
2CE
330
73
100
AcDbEntity
  8
0
 62
     0
100
AcDbLine
 10
2.269929631050734
 20
1.840128534596072
 30
0.0
 11
2.164745665646806
 21
1.9453125
 31
0.0
  0
LINE
  5
2CF
330
73
100
AcDbEntity
  8
0
 62
     0
100
AcDbLine
 10
2.65865939710071
 20
1.451398768546096
 30
0.0
 11
2.447041528502095
 21
1.663016637144711
 31
0.0
  0
LINE
  5
2D0
330
73
100
AcDbEntity
  8
0
 62
     0
100
AcDbLine
 10
2.98530837493782
 20
1.102652703796907
 30
0.0
 11
2.841682379071034
 21
1.246278699663693
 31
0.0
  0
LINE
  5
2D1
330
73
100
AcDbEntity
  8
0
 62
     0
100
AcDbLine
 10
2.26747756746676
 20
1.820483511267966
 30
0.0
 11
2.142648578734727
 21
1.9453125
 31
0.0
  0
LINE
  5
2D2
330
73
100
AcDbEntity
  8
0
 62
     0
100
AcDbLine
 10
2.648165643920667
 20
1.43979543481406
 30
0.0
 11
2.444589464918121
 21
1.643371613816605
 31
0.0
  0
LINE
  5
2D3
330
73
100
AcDbEntity
  8
0
 62
     0
100
AcDbLine
 10
2.96321128802574
 20
1.102652703796907
 30
0.0
 11
2.82258628802574
 21
1.243277703796907
 31
0.0
  0
LINE
  5
2D4
330
73
100
AcDbEntity
  8
0
 62
     0
100
AcDbLine
 10
2.265025503882787
 20
1.800838487939861
 30
0.0
 11
2.120551491822647
 21
1.9453125
 31
0.0
  0
LINE
  5
2D5
330
73
100
AcDbEntity
  8
0
 62
     0
100
AcDbLine
 10
2.64494852213439
 20
1.420915469688257
 30
0.0
 11
2.442137401334148
 21
1.623726590488499
 31
0.0
  0
LINE
  5
2D6
330
73
100
AcDbEntity
  8
0
 62
     0
100
AcDbLine
 10
2.941114201113661
 20
1.102652703796907
 30
0.0
 11
2.80048920111366
 21
1.243277703796907
 31
0.0
  0
LINE
  5
2D7
330
73
100
AcDbEntity
  8
0
 62
     0
100
AcDbLine
 10
2.262573440298813
 20
1.781193464611755
 30
0.0
 11
2.098454404910568
 21
1.9453125
 31
0.0
  0
LINE
  5
2D8
330
73
100
AcDbEntity
  8
0
 62
     0
100
AcDbLine
 10
2.642496458550416
 20
1.401270446360152
 30
0.0
 11
2.439685337750174
 21
1.604081567160394
 31
0.0
  0
LINE
  5
2D9
330
73
100
AcDbEntity
  8
0
 62
     0
100
AcDbLine
 10
2.919017114201581
 20
1.102652703796907
 30
0.0
 11
2.778392114201581
 21
1.243277703796907
 31
0.0
  0
LINE
  5
2DA
330
73
100
AcDbEntity
  8
0
 62
     0
100
AcDbLine
 10
2.260121376714839
 20
1.761548441283649
 30
0.0
 11
2.076357317998488
 21
1.9453125
 31
0.0
  0
LINE
  5
2DB
330
73
100
AcDbEntity
  8
0
 62
     0
100
AcDbLine
 10
2.640044394966442
 20
1.381625423032046
 30
0.0
 11
2.4372332741662
 21
1.584436543832288
 31
0.0
  0
LINE
  5
2DC
330
73
100
AcDbEntity
  8
0
 62
     0
100
AcDbLine
 10
2.896920027289501
 20
1.102652703796907
 30
0.0
 11
2.756295027289501
 21
1.243277703796907
 31
0.0
  0
LINE
  5
2DD
330
73
100
AcDbEntity
  8
0
 62
     0
100
AcDbLine
 10
2.257669313130865
 20
1.741903417955543
 30
0.0
 11
2.054260231086408
 21
1.9453125
 31
0.0
  0
LINE
  5
2DE
330
73
100
AcDbEntity
  8
0
 62
     0
100
AcDbLine
 10
2.637592331382468
 20
1.36198039970394
 30
0.0
 11
2.434781210582226
 21
1.564791520504182
 31
0.0
  0
LINE
  5
2DF
330
73
100
AcDbEntity
  8
0
 62
     0
100
AcDbLine
 10
2.874822940377422
 20
1.102652703796907
 30
0.0
 11
2.734197940377421
 21
1.243277703796907
 31
0.0
  0
LINE
  5
2E0
330
73
100
AcDbEntity
  8
0
 62
     0
100
AcDbLine
 10
2.255217249546891
 20
1.722258394627438
 30
0.0
 11
2.032163144174329
 21
1.9453125
 31
0.0
  0
LINE
  5
2E1
330
73
100
AcDbEntity
  8
0
 62
     0
100
AcDbLine
 10
2.635140267798495
 20
1.342335376375834
 30
0.0
 11
2.432329146998252
 21
1.545146497176076
 31
0.0
  0
LINE
  5
2E2
330
73
100
AcDbEntity
  8
0
 62
     0
100
AcDbLine
 10
2.852725853465342
 20
1.102652703796907
 30
0.0
 11
2.712100853465342
 21
1.243277703796907
 31
0.0
  0
LINE
  5
2E3
330
73
100
AcDbEntity
  8
0
 62
     0
100
AcDbLine
 10
2.252765185962917
 20
1.702613371299332
 30
0.0
 11
2.010066057262249
 21
1.9453125
 31
0.0
  0
LINE
  5
2E4
330
73
100
AcDbEntity
  8
0
 62
     0
100
AcDbLine
 10
2.632688204214521
 20
1.322690353047728
 30
0.0
 11
2.429877083414278
 21
1.525501473847971
 31
0.0
  0
LINE
  5
2E5
330
73
100
AcDbEntity
  8
0
 62
     0
100
AcDbLine
 10
2.830628766553262
 20
1.102652703796907
 30
0.0
 11
2.690003766553262
 21
1.243277703796907
 31
0.0
  0
LINE
  5
2E6
330
73
100
AcDbEntity
  8
0
 62
     0
100
AcDbLine
 10
2.250313122378943
 20
1.682968347971226
 30
0.0
 11
1.98796897035017
 21
1.9453125
 31
0.0
  0
LINE
  5
2E7
330
73
100
AcDbEntity
  8
0
 62
     0
100
AcDbLine
 10
2.630236140630547
 20
1.303045329719623
 30
0.0
 11
2.427425019830304
 21
1.505856450519865
 31
0.0
  0
LINE
  5
2E8
330
73
100
AcDbEntity
  8
0
 62
     0
100
AcDbLine
 10
2.808531679641183
 20
1.102652703796907
 30
0.0
 11
2.667906679641183
 21
1.243277703796907
 31
0.0
  0
LINE
  5
2E9
330
73
100
AcDbEntity
  8
0
 62
     0
100
AcDbLine
 10
2.247861058794969
 20
1.66332332464312
 30
0.0
 11
1.973422549305146
 21
1.937761834132944
 31
0.0
  0
LINE
  5
2EA
330
73
100
AcDbEntity
  8
0
 62
     0
100
AcDbLine
 10
2.627784077046573
 20
1.283400306391517
 30
0.0
 11
2.42497295624633
 21
1.486211427191759
 31
0.0
  0
LINE
  5
2EB
330
73
100
AcDbEntity
  8
0
 62
     0
100
AcDbLine
 10
2.786434592729103
 20
1.102652703796907
 30
0.0
 11
2.645495273371401
 21
1.24359202315461
 31
0.0
  0
LINE
  5
2EC
330
73
100
AcDbEntity
  8
0
 62
     0
100
AcDbLine
 10
2.245408995210996
 20
1.643678301315015
 30
0.0
 11
1.995368669397309
 21
1.893718627128701
 31
0.0
  0
LINE
  5
2ED
330
73
100
AcDbEntity
  8
0
 62
     0
100
AcDbLine
 10
2.626197654548359
 20
1.262889641977651
 30
0.0
 11
2.422520892662357
 21
1.466566403863653
 31
0.0
  0
LINE
  5
2EE
330
73
100
AcDbEntity
  8
0
 62
     0
100
AcDbLine
 10
2.764337505817024
 20
1.102652703796907
 30
0.0
 11
2.420068829078383
 21
1.446921380535548
 31
0.0
  0
LINE
  5
2EF
330
73
100
AcDbEntity
  8
0
 62
     0
100
AcDbLine
 10
2.242956931627022
 20
1.624033277986909
 30
0.0
 11
1.992916605813335
 21
1.874073603800596
 31
0.0
  0
LINE
  5
2F0
330
73
100
AcDbEntity
  8
0
 62
     0
100
AcDbLine
 10
2.742240418904944
 20
1.102652703796907
 30
0.0
 11
2.417616765494409
 21
1.427276357207442
 31
0.0
  0
LINE
  5
2F1
330
73
100
AcDbEntity
  8
0
 62
     0
100
AcDbLine
 10
2.240504868043048
 20
1.604388254658803
 30
0.0
 11
1.990464542229361
 21
1.85442858047249
 31
0.0
  0
LINE
  5
2F2
330
73
100
AcDbEntity
  8
0
 62
     0
100
AcDbLine
 10
2.720143331992864
 20
1.102652703796907
 30
0.0
 11
2.415164701910435
 21
1.407631333879336
 31
0.0
  0
LINE
  5
2F3
330
73
100
AcDbEntity
  8
0
 62
     0
100
AcDbLine
 10
2.238052804459074
 20
1.584743231330697
 30
0.0
 11
1.988012478645387
 21
1.834783557144384
 31
0.0
  0
LINE
  5
2F4
330
73
100
AcDbEntity
  8
0
 62
     0
100
AcDbLine
 10
2.698046245080785
 20
1.102652703796907
 30
0.0
 11
2.412712638326461
 21
1.38798631055123
 31
0.0
  0
LINE
  5
2F5
330
73
100
AcDbEntity
  8
0
 62
     0
100
AcDbLine
 10
2.2356007408751
 20
1.565098208002592
 30
0.0
 11
1.985560415061413
 21
1.815138533816279
 31
0.0
  0
LINE
  5
2F6
330
73
100
AcDbEntity
  8
0
 62
     0
100
AcDbLine
 10
2.675949158168705
 20
1.102652703796907
 30
0.0
 11
2.410260574742487
 21
1.368341287223125
 31
0.0
  0
LINE
  5
2F7
330
73
100
AcDbEntity
  8
0
 62
     0
100
AcDbLine
 10
2.233148677291126
 20
1.545453184674486
 30
0.0
 11
1.983108351477439
 21
1.795493510488173
 31
0.0
  0
LINE
  5
2F8
330
73
100
AcDbEntity
  8
0
 62
     0
100
AcDbLine
 10
2.653852071256626
 20
1.102652703796907
 30
0.0
 11
2.407808511158513
 21
1.348696263895019
 31
0.0
  0
LINE
  5
2F9
330
73
100
AcDbEntity
  8
0
 62
     0
100
AcDbLine
 10
2.230696613707152
 20
1.52580816134638
 30
0.0
 11
1.980656287893465
 21
1.775848487160067
 31
0.0
  0
LINE
  5
2FA
330
73
100
AcDbEntity
  8
0
 62
     0
100
AcDbLine
 10
2.631754984344546
 20
1.102652703796907
 30
0.0
 11
2.405356447574539
 21
1.329051240566913
 31
0.0
  0
LINE
  5
2FB
330
73
100
AcDbEntity
  8
0
 62
     0
100
AcDbLine
 10
2.228244550123178
 20
1.506163138018274
 30
0.0
 11
1.978204224309492
 21
1.756203463831961
 31
0.0
  0
LINE
  5
2FC
330
73
100
AcDbEntity
  8
0
 62
     0
100
AcDbLine
 10
2.609657897432466
 20
1.102652703796907
 30
0.0
 11
2.402904383990566
 21
1.309406217238808
 31
0.0
  0
LINE
  5
2FD
330
73
100
AcDbEntity
  8
0
 62
     0
100
AcDbLine
 10
2.225792486539205
 20
1.486518114690169
 30
0.0
 11
1.975752160725518
 21
1.736558440503856
 31
0.0
  0
LINE
  5
2FE
330
73
100
AcDbEntity
  8
0
 62
     0
100
AcDbLine
 10
2.587560810520387
 20
1.102652703796907
 30
0.0
 11
2.400452320406592
 21
1.289761193910702
 31
0.0
  0
LINE
  5
2FF
330
73
100
AcDbEntity
  8
0
 62
     0
100
AcDbLine
 10
2.223340422955231
 20
1.466873091362063
 30
0.0
 11
1.973300097141544
 21
1.71691341717575
 31
0.0
  0
LINE
  5
300
330
73
100
AcDbEntity
  8
0
 62
     0
100
AcDbLine
 10
2.565463723608307
 20
1.102652703796907
 30
0.0
 11
2.398000256822618
 21
1.270116170582596
 31
0.0
  0
LINE
  5
301
330
73
100
AcDbEntity
  8
0
 62
     0
100
AcDbLine
 10
2.220888359371257
 20
1.447228068033957
 30
0.0
 11
1.97084803355757
 21
1.697268393847644
 31
0.0
  0
LINE
  5
302
330
73
100
AcDbEntity
  8
0
 62
     0
100
AcDbLine
 10
2.543366636696227
 20
1.102652703796907
 30
0.0
 11
2.395548193238644
 21
1.25047114725449
 31
0.0
  0
LINE
  5
303
330
73
100
AcDbEntity
  8
0
 62
     0
100
AcDbLine
 10
2.218436295787283
 20
1.427583044705851
 30
0.0
 11
1.968395969973596
 21
1.677623370519538
 31
0.0
  0
LINE
  5
304
330
73
100
AcDbEntity
  8
0
 62
     0
100
AcDbLine
 10
2.521269549784148
 20
1.102652703796907
 30
0.0
 11
2.39309612965467
 21
1.230826123926385
 31
0.0
  0
LINE
  5
305
330
73
100
AcDbEntity
  8
0
 62
     0
100
AcDbLine
 10
2.215984232203309
 20
1.407938021377746
 30
0.0
 11
1.965943906389622
 21
1.657978347191433
 31
0.0
  0
LINE
  5
306
330
73
100
AcDbEntity
  8
0
 62
     0
100
AcDbLine
 10
2.499172462872068
 20
1.102652703796907
 30
0.0
 11
2.390644066070696
 21
1.211181100598279
 31
0.0
  0
LINE
  5
307
330
73
100
AcDbEntity
  8
0
 62
     0
100
AcDbLine
 10
2.213532168619335
 20
1.38829299804964
 30
0.0
 11
1.963491842805648
 21
1.638333323863327
 31
0.0
  0
LINE
  5
308
330
73
100
AcDbEntity
  8
0
 62
     0
100
AcDbLine
 10
2.477075375959989
 20
1.102652703796907
 30
0.0
 11
2.388192002486722
 21
1.191536077270173
 31
0.0
  0
LINE
  5
309
330
73
100
AcDbEntity
  8
0
 62
     0
100
AcDbLine
 10
2.211080105035361
 20
1.368647974721534
 30
0.0
 11
1.961039779221674
 21
1.618688300535221
 31
0.0
  0
LINE
  5
30A
330
73
100
AcDbEntity
  8
0
 62
     0
100
AcDbLine
 10
2.454978289047909
 20
1.102652703796907
 30
0.0
 11
2.385739938902748
 21
1.171891053942067
 31
0.0
  0
LINE
  5
30B
330
73
100
AcDbEntity
  8
0
 62
     0
100
AcDbLine
 10
2.208628041451387
 20
1.349002951393429
 30
0.0
 11
1.9585877156377
 21
1.599043277207115
 31
0.0
  0
LINE
  5
30C
330
73
100
AcDbEntity
  8
0
 62
     0
100
AcDbLine
 10
2.432881202135829
 20
1.102652703796907
 30
0.0
 11
2.383287875318775
 21
1.152246030613962
 31
0.0
  0
LINE
  5
30D
330
73
100
AcDbEntity
  8
0
 62
     0
100
AcDbLine
 10
2.206175977867414
 20
1.329357928065323
 30
0.0
 11
1.956135652053727
 21
1.57939825387901
 31
0.0
  0
LINE
  5
30E
330
73
100
AcDbEntity
  8
0
 62
     0
100
AcDbLine
 10
2.41078411522375
 20
1.102652703796907
 30
0.0
 11
2.376137273331463
 21
1.137299545689194
 31
0.0
  0
LINE
  5
30F
330
73
100
AcDbEntity
  8
0
 62
     0
100
AcDbLine
 10
2.20372391428344
 20
1.309712904737217
 30
0.0
 11
1.953683588469753
 21
1.559753230550904
 31
0.0
  0
LINE
  5
310
330
73
100
AcDbEntity
  8
0
 62
     0
100
AcDbLine
 10
2.38868702831167
 20
1.102652703796907
 30
0.0
 11
2.364303492368784
 21
1.127036239739793
 31
0.0
  0
LINE
  5
311
330
73
100
AcDbEntity
  8
0
 62
     0
100
AcDbLine
 10
2.201271850699466
 20
1.290067881409111
 30
0.0
 11
1.951231524885779
 21
1.540108207222798
 31
0.0
  0
LINE
  5
312
330
73
100
AcDbEntity
  8
0
 62
     0
100
AcDbLine
 10
2.364677079473311
 20
1.104565565723186
 30
0.0
 11
2.361287861926279
 21
1.107954783270219
 31
0.0
  0
LINE
  5
313
330
73
100
AcDbEntity
  8
0
 62
     0
100
AcDbLine
 10
2.198819787115492
 20
1.270422858081006
 30
0.0
 11
1.948779461301805
 21
1.520463183894692
 31
0.0
  0
LINE
  5
314
330
73
100
AcDbEntity
  8
0
 62
     0
100
AcDbLine
 10
2.196367723531518
 20
1.2507778347529
 30
0.0
 11
1.946327397717831
 21
1.500818160566587
 31
0.0
  0
LINE
  5
315
330
73
100
AcDbEntity
  8
0
 62
     0
100
AcDbLine
 10
2.193915659947544
 20
1.231132811424794
 30
0.0
 11
1.943875334133857
 21
1.481173137238481
 31
0.0
  0
LINE
  5
316
330
73
100
AcDbEntity
  8
0
 62
     0
100
AcDbLine
 10
2.19146359636357
 20
1.211487788096689
 30
0.0
 11
1.941423270549883
 21
1.461528113910375
 31
0.0
  0
LINE
  5
317
330
73
100
AcDbEntity
  8
0
 62
     0
100
AcDbLine
 10
2.189011532779596
 20
1.191842764768583
 30
0.0
 11
1.938971206965909
 21
1.441883090582269
 31
0.0
  0
LINE
  5
318
330
73
100
AcDbEntity
  8
0
 62
     0
100
AcDbLine
 10
2.186559469195623
 20
1.172197741440477
 30
0.0
 11
1.936519143381936
 21
1.422238067254164
 31
0.0
  0
LINE
  5
319
330
73
100
AcDbEntity
  8
0
 62
     0
100
AcDbLine
 10
2.184107405611649
 20
1.152552718112371
 30
0.0
 11
1.934067079797962
 21
1.402593043926058
 31
0.0
  0
LINE
  5
31A
330
73
100
AcDbEntity
  8
0
 62
     0
100
AcDbLine
 10
2.205671207373585
 20
1.108891829438355
 30
0.0
 11
1.931615016213988
 21
1.382948020597952
 31
0.0
  0
LINE
  5
31B
330
73
100
AcDbEntity
  8
0
 62
     0
100
AcDbLine
 10
2.189813246102954
 20
1.102652703796907
 30
0.0
 11
1.929162952630014
 21
1.363302997269846
 31
0.0
  0
LINE
  5
31C
330
73
100
AcDbEntity
  8
0
 62
     0
100
AcDbLine
 10
2.167716159190874
 20
1.102652703796907
 30
0.0
 11
1.92671088904604
 21
1.343657973941741
 31
0.0
  0
LINE
  5
31D
330
73
100
AcDbEntity
  8
0
 62
     0
100
AcDbLine
 10
2.145619072278794
 20
1.102652703796907
 30
0.0
 11
1.924258825462066
 21
1.324012950613635
 31
0.0
  0
LINE
  5
31E
330
73
100
AcDbEntity
  8
0
 62
     0
100
AcDbLine
 10
2.123521985366715
 20
1.102652703796907
 30
0.0
 11
1.921806761878093
 21
1.304367927285529
 31
0.0
  0
LINE
  5
31F
330
73
100
AcDbEntity
  8
0
 62
     0
100
AcDbLine
 10
2.101424898454635
 20
1.102652703796907
 30
0.0
 11
1.919354698294118
 21
1.284722903957424
 31
0.0
  0
LINE
  5
320
330
73
100
AcDbEntity
  8
0
 62
     0
100
AcDbLine
 10
2.079327811542555
 20
1.102652703796907
 30
0.0
 11
1.916902634710145
 21
1.265077880629318
 31
0.0
  0
LINE
  5
321
330
73
100
AcDbEntity
  8
0
 62
     0
100
AcDbLine
 10
2.057230724630476
 20
1.102652703796907
 30
0.0
 11
1.914450571126171
 21
1.245432857301212
 31
0.0
  0
LINE
  5
322
330
73
100
AcDbEntity
  8
0
 62
     0
100
AcDbLine
 10
2.035133637718396
 20
1.102652703796907
 30
0.0
 11
1.911998507542197
 21
1.225787833973106
 31
0.0
  0
LINE
  5
323
330
73
100
AcDbEntity
  8
0
 62
     0
100
AcDbLine
 10
2.013036550806317
 20
1.102652703796907
 30
0.0
 11
1.909546443958223
 21
1.206142810645001
 31
0.0
  0
LINE
  5
324
330
73
100
AcDbEntity
  8
0
 62
     0
100
AcDbLine
 10
1.990939463894237
 20
1.102652703796907
 30
0.0
 11
1.907094380374249
 21
1.186497787316895
 31
0.0
  0
LINE
  5
325
330
73
100
AcDbEntity
  8
0
 62
     0
100
AcDbLine
 10
1.968842376982158
 20
1.102652703796907
 30
0.0
 11
1.904642316790275
 21
1.166852763988789
 31
0.0
  0
LINE
  5
326
330
73
100
AcDbEntity
  8
0
 62
     0
100
AcDbLine
 10
1.946745290070078
 20
1.102652703796907
 30
0.0
 11
1.902270319195739
 21
1.147127674671246
 31
0.0
  0
LINE
  5
327
330
73
100
AcDbEntity
  8
0
 62
     0
100
AcDbLine
 10
1.924648203157998
 20
1.102652703796907
 30
0.0
 11
1.892633555200462
 21
1.134667351754443
 31
0.0
  0
LINE
  5
328
330
73
100
AcDbEntity
  8
0
 62
     0
100
AcDbLine
 10
1.902551116245919
 20
1.102652703796907
 30
0.0
 11
1.881043486343703
 21
1.124160333699123
 31
0.0
  0
LINE
  5
329
330
73
100
AcDbEntity
  8
0
 62
     0
100
AcDbLine
 10
4.377368102878784
 20
1.102709451316957
 30
0.0
 11
4.240794474252534
 21
1.239283079943208
 31
0.0
  0
LINE
  5
32A
330
73
100
AcDbEntity
  8
0
 62
     0
100
AcDbLine
 10
3.675390054195742
 20
1.8046875
 30
0.0
 11
3.534765054195742
 21
1.9453125
 31
0.0
  0
LINE
  5
32B
330
73
100
AcDbEntity
  8
0
 62
     0
100
AcDbLine
 10
4.109195102196973
 20
1.370882451998769
 30
0.0
 11
3.856615320078387
 21
1.623462234117354
 31
0.0
  0
LINE
  5
32C
330
73
100
AcDbEntity
  8
0
 62
     0
100
AcDbLine
 10
4.399521937310914
 20
1.102652703796907
 30
0.0
 11
4.24177499903418
 21
1.260399642073642
 31
0.0
  0
LINE
  5
32D
330
73
100
AcDbEntity
  8
0
 62
     0
100
AcDbLine
 10
3.697487141107822
 20
1.8046875
 30
0.0
 11
3.556862141107822
 21
1.9453125
 31
0.0
  0
LINE
  5
32E
330
73
100
AcDbEntity
  8
0
 62
     0
100
AcDbLine
 10
4.11140738351484
 20
1.390767257592982
 30
0.0
 11
3.859067383662361
 21
1.64310725744546
 31
0.0
  0
LINE
  5
32F
330
73
100
AcDbEntity
  8
0
 62
     0
100
AcDbLine
 10
4.421619024222994
 20
1.102652703796907
 30
0.0
 11
4.243987280352046
 21
1.280284447667855
 31
0.0
  0
LINE
  5
330
330
73
100
AcDbEntity
  8
0
 62
     0
100
AcDbLine
 10
3.719584228019901
 20
1.8046875
 30
0.0
 11
3.578959228019901
 21
1.9453125
 31
0.0
  0
LINE
  5
331
330
73
100
AcDbEntity
  8
0
 62
     0
100
AcDbLine
 10
4.113619664832707
 20
1.410652063187195
 30
0.0
 11
3.861519447246335
 21
1.662752280773566
 31
0.0
  0
LINE
  5
332
330
73
100
AcDbEntity
  8
0
 62
     0
100
AcDbLine
 10
4.443716111135073
 20
1.102652703796907
 30
0.0
 11
4.246199561669913
 21
1.300169253262068
 31
0.0
  0
LINE
  5
333
330
73
100
AcDbEntity
  8
0
 62
     0
100
AcDbLine
 10
3.741681314931981
 20
1.8046875
 30
0.0
 11
3.601056314931981
 21
1.9453125
 31
0.0
  0
LINE
  5
334
330
73
100
AcDbEntity
  8
0
 62
     0
100
AcDbLine
 10
4.115831946150573
 20
1.430536868781408
 30
0.0
 11
3.863971510830308
 21
1.682397304101671
 31
0.0
  0
LINE
  5
335
330
73
100
AcDbEntity
  8
0
 62
     0
100
AcDbLine
 10
4.465813198047153
 20
1.102652703796907
 30
0.0
 11
4.248411842987779
 21
1.320054058856281
 31
0.0
  0
LINE
  5
336
330
73
100
AcDbEntity
  8
0
 62
     0
100
AcDbLine
 10
3.76377840184406
 20
1.8046875
 30
0.0
 11
3.62315340184406
 21
1.9453125
 31
0.0
  0
LINE
  5
337
330
73
100
AcDbEntity
  8
0
 62
     0
100
AcDbLine
 10
4.118044227468439
 20
1.450421674375621
 30
0.0
 11
3.866423574414282
 21
1.702042327429777
 31
0.0
  0
LINE
  5
338
330
73
100
AcDbEntity
  8
0
 62
     0
100
AcDbLine
 10
4.487910284959233
 20
1.102652703796907
 30
0.0
 11
4.250624124305646
 21
1.339938864450494
 31
0.0
  0
LINE
  5
339
330
73
100
AcDbEntity
  8
0
 62
     0
100
AcDbLine
 10
3.78587548875614
 20
1.8046875
 30
0.0
 11
3.64525048875614
 21
1.9453125
 31
0.0
  0
LINE
  5
33A
330
73
100
AcDbEntity
  8
0
 62
     0
100
AcDbLine
 10
4.120256508786306
 20
1.470306479969833
 30
0.0
 11
3.868875637998256
 21
1.721687350757883
 31
0.0
  0
LINE
  5
33B
330
73
100
AcDbEntity
  8
0
 62
     0
100
AcDbLine
 10
4.510007371871312
 20
1.102652703796907
 30
0.0
 11
4.252836405623512
 21
1.359823670044707
 31
0.0
  0
LINE
  5
33C
330
73
100
AcDbEntity
  8
0
 62
     0
100
AcDbLine
 10
3.80797257566822
 20
1.8046875
 30
0.0
 11
3.66734757566822
 21
1.9453125
 31
0.0
  0
LINE
  5
33D
330
73
100
AcDbEntity
  8
0
 62
     0
100
AcDbLine
 10
4.122468790104173
 20
1.490191285564046
 30
0.0
 11
3.87132770158223
 21
1.741332374085989
 31
0.0
  0
LINE
  5
33E
330
73
100
AcDbEntity
  8
0
 62
     0
100
AcDbLine
 10
4.532104458783392
 20
1.102652703796907
 30
0.0
 11
4.255048686941379
 21
1.379708475638919
 31
0.0
  0
LINE
  5
33F
330
73
100
AcDbEntity
  8
0
 62
     0
100
AcDbLine
 10
3.830069662580299
 20
1.8046875
 30
0.0
 11
3.689444662580299
 21
1.9453125
 31
0.0
  0
LINE
  5
340
330
73
100
AcDbEntity
  8
0
 62
     0
100
AcDbLine
 10
4.12468107142204
 20
1.510076091158259
 30
0.0
 11
3.873779765166204
 21
1.760977397414095
 31
0.0
  0
LINE
  5
341
330
73
100
AcDbEntity
  8
0
 62
     0
100
AcDbLine
 10
4.554201545695471
 20
1.102652703796907
 30
0.0
 11
4.257260968259246
 21
1.399593281233133
 31
0.0
  0
LINE
  5
342
330
73
100
AcDbEntity
  8
0
 62
     0
100
AcDbLine
 10
3.852166749492379
 20
1.8046875
 30
0.0
 11
3.711541749492379
 21
1.9453125
 31
0.0
  0
LINE
  5
343
330
73
100
AcDbEntity
  8
0
 62
     0
100
AcDbLine
 10
4.126893352739906
 20
1.529960896752472
 30
0.0
 11
3.876122561766238
 21
1.78073168772614
 31
0.0
  0
LINE
  5
344
330
73
100
AcDbEntity
  8
0
 62
     0
100
AcDbLine
 10
4.576298632607551
 20
1.102652703796907
 30
0.0
 11
4.259473249577113
 21
1.419478086827345
 31
0.0
  0
LINE
  5
345
330
73
100
AcDbEntity
  8
0
 62
     0
100
AcDbLine
 10
4.129105634057773
 20
1.549845702346685
 30
0.0
 11
3.733638836404459
 21
1.9453125
 31
0.0
  0
LINE
  5
346
330
73
100
AcDbEntity
  8
0
 62
     0
100
AcDbLine
 10
4.598395719519631
 20
1.102652703796907
 30
0.0
 11
4.26168553089498
 21
1.439362892421558
 31
0.0
  0
LINE
  5
347
330
73
100
AcDbEntity
  8
0
 62
     0
100
AcDbLine
 10
4.13131791537564
 20
1.569730507940898
 30
0.0
 11
3.755735923316538
 21
1.9453125
 31
0.0
  0
LINE
  5
348
330
73
100
AcDbEntity
  8
0
 62
     0
100
AcDbLine
 10
4.62049280643171
 20
1.102652703796907
 30
0.0
 11
4.263897812212846
 21
1.459247698015771
 31
0.0
  0
LINE
  5
349
330
73
100
AcDbEntity
  8
0
 62
     0
100
AcDbLine
 10
4.133530196693507
 20
1.589615313535111
 30
0.0
 11
3.777833010228618
 21
1.9453125
 31
0.0
  0
LINE
  5
34A
330
73
100
AcDbEntity
  8
0
 62
     0
100
AcDbLine
 10
4.64258989334379
 20
1.102652703796907
 30
0.0
 11
4.266110093530713
 21
1.479132503609984
 31
0.0
  0
LINE
  5
34B
330
73
100
AcDbEntity
  8
0
 62
     0
100
AcDbLine
 10
4.135742478011374
 20
1.609500119129324
 30
0.0
 11
3.799930097140697
 21
1.9453125
 31
0.0
  0
LINE
  5
34C
330
73
100
AcDbEntity
  8
0
 62
     0
100
AcDbLine
 10
4.664686980255869
 20
1.102652703796907
 30
0.0
 11
4.26832237484858
 21
1.499017309204197
 31
0.0
  0
LINE
  5
34D
330
73
100
AcDbEntity
  8
0
 62
     0
100
AcDbLine
 10
4.13795475932924
 20
1.629384924723537
 30
0.0
 11
3.822027184052777
 21
1.9453125
 31
0.0
  0
LINE
  5
34E
330
73
100
AcDbEntity
  8
0
 62
     0
100
AcDbLine
 10
4.686784067167949
 20
1.102652703796907
 30
0.0
 11
4.270534656166447
 21
1.51890211479841
 31
0.0
  0
LINE
  5
34F
330
73
100
AcDbEntity
  8
0
 62
     0
100
AcDbLine
 10
4.140167040647106
 20
1.64926973031775
 30
0.0
 11
3.844124270964857
 21
1.9453125
 31
0.0
  0
LINE
  5
350
330
73
100
AcDbEntity
  8
0
 62
     0
100
AcDbLine
 10
4.708881154080029
 20
1.102652703796907
 30
0.0
 11
4.568256154080029
 21
1.243277703796907
 31
0.0
  0
LINE
  5
351
330
73
100
AcDbEntity
  8
0
 62
     0
100
AcDbLine
 10
4.142379321964973
 20
1.669154535911963
 30
0.0
 11
3.866221357876936
 21
1.9453125
 31
0.0
  0
LINE
  5
352
330
73
100
AcDbEntity
  8
0
 62
     0
100
AcDbLine
 10
4.542515727085575
 20
1.26901813079136
 30
0.0
 11
4.272746937484313
 21
1.538786920392623
 31
0.0
  0
LINE
  5
353
330
73
100
AcDbEntity
  8
0
 62
     0
100
AcDbLine
 10
4.730978240992108
 20
1.102652703796907
 30
0.0
 11
4.590353240992108
 21
1.243277703796907
 31
0.0
  0
LINE
  5
354
330
73
100
AcDbEntity
  8
0
 62
     0
100
AcDbLine
 10
4.14459160328284
 20
1.689039341506176
 30
0.0
 11
3.888318444789016
 21
1.9453125
 31
0.0
  0
LINE
  5
355
330
73
100
AcDbEntity
  8
0
 62
     0
100
AcDbLine
 10
4.544960824391155
 20
1.288670120397859
 30
0.0
 11
4.274959218802179
 21
1.558671725986836
 31
0.0
  0
LINE
  5
356
330
73
100
AcDbEntity
  8
0
 62
     0
100
AcDbLine
 10
4.753075327904188
 20
1.102652703796907
 30
0.0
 11
4.612450327904188
 21
1.243277703796907
 31
0.0
  0
LINE
  5
357
330
73
100
AcDbEntity
  8
0
 62
     0
100
AcDbLine
 10
4.146803884600706
 20
1.708924147100389
 30
0.0
 11
3.910415531701096
 21
1.9453125
 31
0.0
  0
LINE
  5
358
330
73
100
AcDbEntity
  8
0
 62
     0
100
AcDbLine
 10
4.54741288797513
 20
1.308315143725965
 30
0.0
 11
4.277171500120046
 21
1.578556531581049
 31
0.0
  0
LINE
  5
359
330
73
100
AcDbEntity
  8
0
 62
     0
100
AcDbLine
 10
4.775172414816267
 20
1.102652703796907
 30
0.0
 11
4.634547414816267
 21
1.243277703796907
 31
0.0
  0
LINE
  5
35A
330
73
100
AcDbEntity
  8
0
 62
     0
100
AcDbLine
 10
4.149016165918573
 20
1.728808952694602
 30
0.0
 11
3.932512618613175
 21
1.9453125
 31
0.0
  0
LINE
  5
35B
330
73
100
AcDbEntity
  8
0
 62
     0
100
AcDbLine
 10
4.549864951559103
 20
1.327960167054071
 30
0.0
 11
4.279383781437913
 21
1.598441337175262
 31
0.0
  0
LINE
  5
35C
330
73
100
AcDbEntity
  8
0
 62
     0
100
AcDbLine
 10
4.797269501728347
 20
1.102652703796907
 30
0.0
 11
4.656644501728347
 21
1.243277703796907
 31
0.0
  0
LINE
  5
35D
330
73
100
AcDbEntity
  8
0
 62
     0
100
AcDbLine
 10
4.15122844723644
 20
1.748693758288815
 30
0.0
 11
3.954609705525255
 21
1.9453125
 31
0.0
  0
LINE
  5
35E
330
73
100
AcDbEntity
  8
0
 62
     0
100
AcDbLine
 10
4.552317015143077
 20
1.347605190382177
 30
0.0
 11
4.28159606275578
 21
1.618326142769475
 31
0.0
  0
LINE
  5
35F
330
73
100
AcDbEntity
  8
0
 62
     0
100
AcDbLine
 10
4.819366588640427
 20
1.102652703796907
 30
0.0
 11
4.678741588640427
 21
1.243277703796907
 31
0.0
  0
LINE
  5
360
330
73
100
AcDbEntity
  8
0
 62
     0
100
AcDbLine
 10
4.153440728554307
 20
1.768578563883028
 30
0.0
 11
3.976706792437335
 21
1.9453125
 31
0.0
  0
LINE
  5
361
330
73
100
AcDbEntity
  8
0
 62
     0
100
AcDbLine
 10
4.554769078727051
 20
1.367250213710283
 30
0.0
 11
4.283808344073646
 21
1.638210948363688
 31
0.0
  0
LINE
  5
362
330
73
100
AcDbEntity
  8
0
 62
     0
100
AcDbLine
 10
4.841463675552506
 20
1.102652703796907
 30
0.0
 11
4.700838675552506
 21
1.243277703796907
 31
0.0
  0
LINE
  5
363
330
73
100
AcDbEntity
  8
0
 62
     0
100
AcDbLine
 10
4.155653009872174
 20
1.78846336947724
 30
0.0
 11
3.998803879349414
 21
1.9453125
 31
0.0
  0
LINE
  5
364
330
73
100
AcDbEntity
  8
0
 62
     0
100
AcDbLine
 10
4.557221142311025
 20
1.386895237038388
 30
0.0
 11
4.286020625391513
 21
1.658095753957901
 31
0.0
  0
LINE
  5
365
330
73
100
AcDbEntity
  8
0
 62
     0
100
AcDbLine
 10
4.863560762464586
 20
1.102652703796907
 30
0.0
 11
4.722935762464586
 21
1.243277703796907
 31
0.0
  0
LINE
  5
366
330
73
100
AcDbEntity
  8
0
 62
     0
100
AcDbLine
 10
4.156500573991082
 20
1.809712892270411
 30
0.0
 11
4.020990788965807
 21
1.945222677295686
 31
0.0
  0
LINE
  5
367
330
73
100
AcDbEntity
  8
0
 62
     0
100
AcDbLine
 10
4.559673205894998
 20
1.406540260366494
 30
0.0
 11
4.28823290670938
 21
1.677980559552113
 31
0.0
  0
LINE
  5
368
330
73
100
AcDbEntity
  8
0
 62
     0
100
AcDbLine
 10
4.885657849376666
 20
1.102652703796907
 30
0.0
 11
4.745032849376666
 21
1.243277703796907
 31
0.0
  0
LINE
  5
369
330
73
100
AcDbEntity
  8
0
 62
     0
100
AcDbLine
 10
4.153277146213731
 20
1.835033406959841
 30
0.0
 11
4.046311303655238
 21
1.941999249518335
 31
0.0
  0
LINE
  5
36A
330
73
100
AcDbEntity
  8
0
 62
     0
100
AcDbLine
 10
4.562125269478973
 20
1.4261852836946
 30
0.0
 11
4.290445188027247
 21
1.697865365146326
 31
0.0
  0
LINE
  5
36B
330
73
100
AcDbEntity
  8
0
 62
     0
100
AcDbLine
 10
4.907754936288745
 20
1.102652703796907
 30
0.0
 11
4.767129936288745
 21
1.243277703796907
 31
0.0
  0
LINE
  5
36C
330
73
100
AcDbEntity
  8
0
 62
     0
100
AcDbLine
 10
4.140608178730803
 20
1.869799461354849
 30
0.0
 11
4.081077358050245
 21
1.929330282035407
 31
0.0
  0
LINE
  5
36D
330
73
100
AcDbEntity
  8
0
 62
     0
100
AcDbLine
 10
4.564577333062946
 20
1.445830307022706
 30
0.0
 11
4.292657469345113
 21
1.717750170740539
 31
0.0
  0
LINE
  5
36E
330
73
100
AcDbEntity
  8
0
 62
     0
100
AcDbLine
 10
4.929852023200825
 20
1.102652703796907
 30
0.0
 11
4.789227023200824
 21
1.243277703796907
 31
0.0
  0
LINE
  5
36F
330
73
100
AcDbEntity
  8
0
 62
     0
100
AcDbLine
 10
4.56702939664692
 20
1.465475330350811
 30
0.0
 11
4.29486975066298
 21
1.737634976334752
 31
0.0
  0
LINE
  5
370
330
73
100
AcDbEntity
  8
0
 62
     0
100
AcDbLine
 10
4.951949110112904
 20
1.102652703796907
 30
0.0
 11
4.811324110112904
 21
1.243277703796907
 31
0.0
  0
LINE
  5
371
330
73
100
AcDbEntity
  8
0
 62
     0
100
AcDbLine
 10
4.569481460230894
 20
1.485120353678917
 30
0.0
 11
4.297082031980846
 21
1.757519781928965
 31
0.0
  0
LINE
  5
372
330
73
100
AcDbEntity
  8
0
 62
     0
100
AcDbLine
 10
4.974046197024984
 20
1.102652703796907
 30
0.0
 11
4.833421197024984
 21
1.243277703796907
 31
0.0
  0
LINE
  5
373
330
73
100
AcDbEntity
  8
0
 62
     0
100
AcDbLine
 10
4.571933523814868
 20
1.504765377007023
 30
0.0
 11
4.299294313298713
 21
1.777404587523178
 31
0.0
  0
LINE
  5
374
330
73
100
AcDbEntity
  8
0
 62
     0
100
AcDbLine
 10
4.987350215398035
 20
1.111445772335936
 30
0.0
 11
4.855518283937064
 21
1.243277703796907
 31
0.0
  0
LINE
  5
375
330
73
100
AcDbEntity
  8
0
 62
     0
100
AcDbLine
 10
4.574385587398841
 20
1.524410400335129
 30
0.0
 11
4.30150659461658
 21
1.797289393117391
 31
0.0
  0
LINE
  5
376
330
73
100
AcDbEntity
  8
0
 62
     0
100
AcDbLine
 10
4.989802278982009
 20
1.131090795664042
 30
0.0
 11
4.877615370849143
 21
1.243277703796907
 31
0.0
  0
LINE
  5
377
330
73
100
AcDbEntity
  8
0
 62
     0
100
AcDbLine
 10
4.576837650982816
 20
1.544055423663235
 30
0.0
 11
4.303718875934446
 21
1.817174198711604
 31
0.0
  0
LINE
  5
378
330
73
100
AcDbEntity
  8
0
 62
     0
100
AcDbLine
 10
4.992254342565982
 20
1.150735818992147
 30
0.0
 11
4.899712457761222
 21
1.243277703796907
 31
0.0
  0
LINE
  5
379
330
73
100
AcDbEntity
  8
0
 62
     0
100
AcDbLine
 10
4.579289714566789
 20
1.56370044699134
 30
0.0
 11
4.306776673802332
 21
1.836213487755798
 31
0.0
  0
LINE
  5
37A
330
73
100
AcDbEntity
  8
0
 62
     0
100
AcDbLine
 10
4.994706406149957
 20
1.170380842320253
 30
0.0
 11
4.921809544673302
 21
1.243277703796907
 31
0.0
  0
LINE
  5
37B
330
73
100
AcDbEntity
  8
0
 62
     0
100
AcDbLine
 10
4.581741778150763
 20
1.583345470319446
 30
0.0
 11
4.311845497932719
 21
1.85324175053749
 31
0.0
  0
LINE
  5
37C
330
73
100
AcDbEntity
  8
0
 62
     0
100
AcDbLine
 10
4.99715846973393
 20
1.190025865648359
 30
0.0
 11
4.943906631585382
 21
1.243277703796907
 31
0.0
  0
LINE
  5
37D
330
73
100
AcDbEntity
  8
0
 62
     0
100
AcDbLine
 10
4.584193841734737
 20
1.602990493647552
 30
0.0
 11
4.318568381056722
 21
1.868615954325567
 31
0.0
  0
LINE
  5
37E
330
73
100
AcDbEntity
  8
0
 62
     0
100
AcDbLine
 10
4.999610533317904
 20
1.209670888976465
 30
0.0
 11
4.966003718497462
 21
1.243277703796907
 31
0.0
  0
LINE
  5
37F
330
73
100
AcDbEntity
  8
0
 62
     0
100
AcDbLine
 10
4.586645905318711
 20
1.622635516975658
 30
0.0
 11
4.326724885363161
 21
1.882556536931208
 31
0.0
  0
LINE
  5
380
330
73
100
AcDbEntity
  8
0
 62
     0
100
AcDbLine
 10
5.002062596901878
 20
1.229315912304571
 30
0.0
 11
4.988100805409541
 21
1.243277703796907
 31
0.0
  0
LINE
  5
381
330
73
100
AcDbEntity
  8
0
 62
     0
100
AcDbLine
 10
4.589097968902684
 20
1.642280540303763
 30
0.0
 11
4.336189377462236
 21
1.895189131744212
 31
0.0
  0
LINE
  5
382
330
73
100
AcDbEntity
  8
0
 62
     0
100
AcDbLine
 10
4.591550032486658
 20
1.661925563631869
 30
0.0
 11
4.346899308587193
 21
1.906576287531335
 31
0.0
  0
LINE
  5
383
330
73
100
AcDbEntity
  8
0
 62
     0
100
AcDbLine
 10
4.594002096070632
 20
1.681570586959975
 30
0.0
 11
4.358841835158177
 21
1.916730847872431
 31
0.0
  0
LINE
  5
384
330
73
100
AcDbEntity
  8
0
 62
     0
100
AcDbLine
 10
4.596454159654606
 20
1.701215610288081
 30
0.0
 11
4.372051260601296
 21
1.925618509341392
 31
0.0
  0
LINE
  5
385
330
73
100
AcDbEntity
  8
0
 62
     0
100
AcDbLine
 10
4.59890622323858
 20
1.720860633616186
 30
0.0
 11
4.386616010225605
 21
1.933150846629162
 31
0.0
  0
LINE
  5
386
330
73
100
AcDbEntity
  8
0
 62
     0
100
AcDbLine
 10
5.217185887526293
 20
1.124678056240554
 30
0.0
 11
5.17414756754237
 21
1.167716376224476
 31
0.0
  0
LINE
  5
387
330
73
100
AcDbEntity
  8
0
 62
     0
100
AcDbLine
 10
4.601358286822554
 20
1.740505656944292
 30
0.0
 11
4.402698765884621
 21
1.939165177882226
 31
0.0
  0
LINE
  5
388
330
73
100
AcDbEntity
  8
0
 62
     0
100
AcDbLine
 10
5.256577079074686
 20
1.10738395160424
 30
0.0
 11
5.156853462906057
 21
1.207107567772869
 31
0.0
  0
LINE
  5
389
330
73
100
AcDbEntity
  8
0
 62
     0
100
AcDbLine
 10
4.603810350406527
 20
1.760150680272398
 30
0.0
 11
4.420582189715663
 21
1.943378840963264
 31
0.0
  0
LINE
  5
38A
330
73
100
AcDbEntity
  8
0
 62
     0
100
AcDbLine
 10
5.283072197821859
 20
1.102985919769147
 30
0.0
 11
5.152455431070963
 21
1.233602686520042
 31
0.0
  0
LINE
  5
38B
330
73
100
AcDbEntity
  8
0
 62
     0
100
AcDbLine
 10
4.606262413990501
 20
1.779795703600504
 30
0.0
 11
4.440778561270601
 21
1.945279556320405
 31
0.0
  0
LINE
  5
38C
330
73
100
AcDbEntity
  8
0
 62
     0
100
AcDbLine
 10
5.305502500706178
 20
1.102652703796907
 30
0.0
 11
5.152654434166362
 21
1.255500770336723
 31
0.0
  0
LINE
  5
38D
330
73
100
AcDbEntity
  8
0
 62
     0
100
AcDbLine
 10
4.611986837134694
 20
1.796168367368391
 30
0.0
 11
4.462842704503086
 21
1.9453125
 31
0.0
  0
LINE
  5
38E
330
73
100
AcDbEntity
  8
0
 62
     0
100
AcDbLine
 10
5.327599587618258
 20
1.102652703796907
 30
0.0
 11
5.154830747075751
 21
1.275421544339414
 31
0.0
  0
LINE
  5
38F
330
73
100
AcDbEntity
  8
0
 62
     0
100
AcDbLine
 10
4.625931809346728
 20
1.804320482068437
 30
0.0
 11
4.484939791415166
 21
1.9453125
 31
0.0
  0
LINE
  5
390
330
73
100
AcDbEntity
  8
0
 62
     0
100
AcDbLine
 10
5.349696674530338
 20
1.102652703796907
 30
0.0
 11
5.157043028393617
 21
1.295306349933627
 31
0.0
  0
LINE
  5
391
330
73
100
AcDbEntity
  8
0
 62
     0
100
AcDbLine
 10
4.647661878327245
 20
1.8046875
 30
0.0
 11
4.507036878327245
 21
1.9453125
 31
0.0
  0
LINE
  5
392
330
73
100
AcDbEntity
  8
0
 62
     0
100
AcDbLine
 10
5.371793761442417
 20
1.102652703796907
 30
0.0
 11
5.159255309711484
 21
1.31519115552784
 31
0.0
  0
LINE
  5
393
330
73
100
AcDbEntity
  8
0
 62
     0
100
AcDbLine
 10
4.669758965239325
 20
1.8046875
 30
0.0
 11
4.529133965239324
 21
1.9453125
 31
0.0
  0
LINE
  5
394
330
73
100
AcDbEntity
  8
0
 62
     0
100
AcDbLine
 10
5.393890848354497
 20
1.102652703796907
 30
0.0
 11
5.161467591029351
 21
1.335075961122053
 31
0.0
  0
LINE
  5
395
330
73
100
AcDbEntity
  8
0
 62
     0
100
AcDbLine
 10
4.691856052151404
 20
1.8046875
 30
0.0
 11
4.551231052151404
 21
1.9453125
 31
0.0
  0
LINE
  5
396
330
73
100
AcDbEntity
  8
0
 62
     0
100
AcDbLine
 10
5.415987935266576
 20
1.102652703796907
 30
0.0
 11
5.163679872347218
 21
1.354960766716266
 31
0.0
  0
LINE
  5
397
330
73
100
AcDbEntity
  8
0
 62
     0
100
AcDbLine
 10
4.713953139063484
 20
1.8046875
 30
0.0
 11
4.573328139063484
 21
1.9453125
 31
0.0
  0
LINE
  5
398
330
73
100
AcDbEntity
  8
0
 62
     0
100
AcDbLine
 10
5.438085022178656
 20
1.102652703796907
 30
0.0
 11
5.165892153665085
 21
1.374845572310479
 31
0.0
  0
LINE
  5
399
330
73
100
AcDbEntity
  8
0
 62
     0
100
AcDbLine
 10
4.736050225975564
 20
1.8046875
 30
0.0
 11
4.595425225975564
 21
1.9453125
 31
0.0
  0
LINE
  5
39A
330
73
100
AcDbEntity
  8
0
 62
     0
100
AcDbLine
 10
5.460182109090736
 20
1.102652703796907
 30
0.0
 11
5.168104434982951
 21
1.394730377904692
 31
0.0
  0
LINE
  5
39B
330
73
100
AcDbEntity
  8
0
 62
     0
100
AcDbLine
 10
4.758147312887643
 20
1.8046875
 30
0.0
 11
4.617522312887643
 21
1.9453125
 31
0.0
  0
LINE
  5
39C
330
73
100
AcDbEntity
  8
0
 62
     0
100
AcDbLine
 10
5.482279196002815
 20
1.102652703796907
 30
0.0
 11
5.170316716300818
 21
1.414615183498904
 31
0.0
  0
LINE
  5
39D
330
73
100
AcDbEntity
  8
0
 62
     0
100
AcDbLine
 10
4.780244399799723
 20
1.8046875
 30
0.0
 11
4.639619399799722
 21
1.9453125
 31
0.0
  0
LINE
  5
39E
330
73
100
AcDbEntity
  8
0
 62
     0
100
AcDbLine
 10
5.504376282914895
 20
1.102652703796907
 30
0.0
 11
5.172528997618685
 21
1.434499989093117
 31
0.0
  0
LINE
  5
39F
330
73
100
AcDbEntity
  8
0
 62
     0
100
AcDbLine
 10
4.802341486711802
 20
1.8046875
 30
0.0
 11
4.661716486711802
 21
1.9453125
 31
0.0
  0
LINE
  5
3A0
330
73
100
AcDbEntity
  8
0
 62
     0
100
AcDbLine
 10
5.526473369826974
 20
1.102652703796907
 30
0.0
 11
5.174741278936552
 21
1.45438479468733
 31
0.0
  0
LINE
  5
3A1
330
73
100
AcDbEntity
  8
0
 62
     0
100
AcDbLine
 10
4.824438573623882
 20
1.8046875
 30
0.0
 11
4.683813573623882
 21
1.9453125
 31
0.0
  0
LINE
  5
3A2
330
73
100
AcDbEntity
  8
0
 62
     0
100
AcDbLine
 10
5.548570456739054
 20
1.102652703796907
 30
0.0
 11
5.176953560254418
 21
1.474269600281543
 31
0.0
  0
LINE
  5
3A3
330
73
100
AcDbEntity
  8
0
 62
     0
100
AcDbLine
 10
4.846535660535962
 20
1.8046875
 30
0.0
 11
4.705910660535962
 21
1.9453125
 31
0.0
  0
LINE
  5
3A4
330
73
100
AcDbEntity
  8
0
 62
     0
100
AcDbLine
 10
5.570667543651134
 20
1.102652703796907
 30
0.0
 11
5.179165841572284
 21
1.494154405875756
 31
0.0
  0
LINE
  5
3A5
330
73
100
AcDbEntity
  8
0
 62
     0
100
AcDbLine
 10
4.868632747448041
 20
1.8046875
 30
0.0
 11
4.728007747448041
 21
1.9453125
 31
0.0
  0
LINE
  5
3A6
330
73
100
AcDbEntity
  8
0
 62
     0
100
AcDbLine
 10
5.592764630563213
 20
1.102652703796907
 30
0.0
 11
5.181378122890151
 21
1.514039211469969
 31
0.0
  0
LINE
  5
3A7
330
73
100
AcDbEntity
  8
0
 62
     0
100
AcDbLine
 10
4.890729834360121
 20
1.8046875
 30
0.0
 11
4.75010483436012
 21
1.9453125
 31
0.0
  0
LINE
  5
3A8
330
73
100
AcDbEntity
  8
0
 62
     0
100
AcDbLine
 10
5.614861717475293
 20
1.102652703796907
 30
0.0
 11
5.474016105572286
 21
1.243498315699914
 31
0.0
  0
LINE
  5
3A9
330
73
100
AcDbEntity
  8
0
 62
     0
100
AcDbLine
 10
4.9128269212722
 20
1.8046875
 30
0.0
 11
4.7722019212722
 21
1.9453125
 31
0.0
  0
LINE
  5
3AA
330
73
100
AcDbEntity
  8
0
 62
     0
100
AcDbLine
 10
5.454007412192388
 20
1.263507009079812
 30
0.0
 11
5.183590404208018
 21
1.533924017064182
 31
0.0
  0
LINE
  5
3AB
330
73
100
AcDbEntity
  8
0
 62
     0
100
AcDbLine
 10
5.636958804387372
 20
1.102652703796907
 30
0.0
 11
5.496333804387372
 21
1.243277703796907
 31
0.0
  0
LINE
  5
3AC
330
73
100
AcDbEntity
  8
0
 62
     0
100
AcDbLine
 10
4.93492400818428
 20
1.8046875
 30
0.0
 11
4.79429900818428
 21
1.9453125
 31
0.0
  0
LINE
  5
3AD
330
73
100
AcDbEntity
  8
0
 62
     0
100
AcDbLine
 10
5.455745651467899
 20
1.28386585671638
 30
0.0
 11
5.185802685525885
 21
1.553808822658395
 31
0.0
  0
LINE
  5
3AE
330
73
100
AcDbEntity
  8
0
 62
     0
100
AcDbLine
 10
5.659055891299452
 20
1.102652703796907
 30
0.0
 11
5.518430891299452
 21
1.243277703796907
 31
0.0
  0
LINE
  5
3AF
330
73
100
AcDbEntity
  8
0
 62
     0
100
AcDbLine
 10
4.95702109509636
 20
1.8046875
 30
0.0
 11
4.81639609509636
 21
1.9453125
 31
0.0
  0
LINE
  5
3B0
330
73
100
AcDbEntity
  8
0
 62
     0
100
AcDbLine
 10
5.458197715051873
 20
1.303510880044486
 30
0.0
 11
5.188014966843751
 21
1.573693628252608
 31
0.0
  0
LINE
  5
3B1
330
73
100
AcDbEntity
  8
0
 62
     0
100
AcDbLine
 10
5.681152978211532
 20
1.102652703796907
 30
0.0
 11
5.540527978211532
 21
1.243277703796907
 31
0.0
  0
LINE
  5
3B2
330
73
100
AcDbEntity
  8
0
 62
     0
100
AcDbLine
 10
4.97911818200844
 20
1.8046875
 30
0.0
 11
4.83849318200844
 21
1.9453125
 31
0.0
  0
LINE
  5
3B3
330
73
100
AcDbEntity
  8
0
 62
     0
100
AcDbLine
 10
5.460649778635846
 20
1.323155903372592
 30
0.0
 11
5.190227248161618
 21
1.593578433846821
 31
0.0
  0
LINE
  5
3B4
330
73
100
AcDbEntity
  8
0
 62
     0
100
AcDbLine
 10
5.703250065123611
 20
1.102652703796907
 30
0.0
 11
5.562625065123611
 21
1.243277703796907
 31
0.0
  0
LINE
  5
3B5
330
73
100
AcDbEntity
  8
0
 62
     0
100
AcDbLine
 10
5.001215268920519
 20
1.8046875
 30
0.0
 11
4.860590268920518
 21
1.9453125
 31
0.0
  0
LINE
  5
3B6
330
73
100
AcDbEntity
  8
0
 62
     0
100
AcDbLine
 10
5.46310184221982
 20
1.342800926700698
 30
0.0
 11
5.192439529479485
 21
1.613463239441034
 31
0.0
  0
LINE
  5
3B7
330
73
100
AcDbEntity
  8
0
 62
     0
100
AcDbLine
 10
5.725347152035691
 20
1.102652703796907
 30
0.0
 11
5.584722152035691
 21
1.243277703796907
 31
0.0
  0
LINE
  5
3B8
330
73
100
AcDbEntity
  8
0
 62
     0
100
AcDbLine
 10
5.023312355832598
 20
1.8046875
 30
0.0
 11
4.882687355832598
 21
1.9453125
 31
0.0
  0
LINE
  5
3B9
330
73
100
AcDbEntity
  8
0
 62
     0
100
AcDbLine
 10
5.465553905803794
 20
1.362445950028804
 30
0.0
 11
5.194651810797352
 21
1.633348045035247
 31
0.0
  0
LINE
  5
3BA
330
73
100
AcDbEntity
  8
0
 62
     0
100
AcDbLine
 10
5.74744423894777
 20
1.102652703796907
 30
0.0
 11
5.60681923894777
 21
1.243277703796907
 31
0.0
  0
LINE
  5
3BB
330
73
100
AcDbEntity
  8
0
 62
     0
100
AcDbLine
 10
5.045409442744678
 20
1.8046875
 30
0.0
 11
4.904784442744678
 21
1.9453125
 31
0.0
  0
LINE
  5
3BC
330
73
100
AcDbEntity
  8
0
 62
     0
100
AcDbLine
 10
5.468005969387768
 20
1.38209097335691
 30
0.0
 11
5.196864092115218
 21
1.65323285062946
 31
0.0
  0
LINE
  5
3BD
330
73
100
AcDbEntity
  8
0
 62
     0
100
AcDbLine
 10
5.76954132585985
 20
1.102652703796907
 30
0.0
 11
5.62891632585985
 21
1.243277703796907
 31
0.0
  0
LINE
  5
3BE
330
73
100
AcDbEntity
  8
0
 62
     0
100
AcDbLine
 10
5.067506529656758
 20
1.8046875
 30
0.0
 11
4.926881529656758
 21
1.9453125
 31
0.0
  0
LINE
  5
3BF
330
73
100
AcDbEntity
  8
0
 62
     0
100
AcDbLine
 10
5.470458032971742
 20
1.401735996685015
 30
0.0
 11
5.199076373433085
 21
1.673117656223672
 31
0.0
  0
LINE
  5
3C0
330
73
100
AcDbEntity
  8
0
 62
     0
100
AcDbLine
 10
5.79163841277193
 20
1.102652703796907
 30
0.0
 11
5.65101341277193
 21
1.243277703796907
 31
0.0
  0
LINE
  5
3C1
330
73
100
AcDbEntity
  8
0
 62
     0
100
AcDbLine
 10
5.075624504421092
 20
1.818666612147744
 30
0.0
 11
4.948978616568838
 21
1.9453125
 31
0.0
  0
LINE
  5
3C2
330
73
100
AcDbEntity
  8
0
 62
     0
100
AcDbLine
 10
5.472910096555716
 20
1.421381020013121
 30
0.0
 11
5.201288654750952
 21
1.693002461817885
 31
0.0
  0
LINE
  5
3C3
330
73
100
AcDbEntity
  8
0
 62
     0
100
AcDbLine
 10
5.81373549968401
 20
1.102652703796907
 30
0.0
 11
5.669918899251546
 21
1.24646930422937
 31
0.0
  0
LINE
  5
3C4
330
73
100
AcDbEntity
  8
0
 62
     0
100
AcDbLine
 10
5.078076568005067
 20
1.83831163547585
 30
0.0
 11
4.971075703480916
 21
1.9453125
 31
0.0
  0
LINE
  5
3C5
330
73
100
AcDbEntity
  8
0
 62
     0
100
AcDbLine
 10
5.475362160139689
 20
1.441026043341227
 30
0.0
 11
5.203500936068818
 21
1.712887267412098
 31
0.0
  0
LINE
  5
3C6
330
73
100
AcDbEntity
  8
0
 62
     0
100
AcDbLine
 10
5.835306171014162
 20
1.103179119378833
 30
0.0
 11
5.680040927507712
 21
1.258444362885284
 31
0.0
  0
LINE
  5
3C7
330
73
100
AcDbEntity
  8
0
 62
     0
100
AcDbLine
 10
5.08052863158904
 20
1.857956658803955
 30
0.0
 11
4.993172790392996
 21
1.9453125
 31
0.0
  0
LINE
  5
3C8
330
73
100
AcDbEntity
  8
0
 62
     0
100
AcDbLine
 10
5.477814223723663
 20
1.460671066669332
 30
0.0
 11
5.205713217386685
 21
1.732772073006311
 31
0.0
  0
LINE
  5
3C9
330
73
100
AcDbEntity
  8
0
 62
     0
100
AcDbLine
 10
5.854410950880271
 20
1.106171426424805
 30
0.0
 11
5.683077408107879
 21
1.277504969197196
 31
0.0
  0
LINE
  5
3CA
330
73
100
AcDbEntity
  8
0
 62
     0
100
AcDbLine
 10
5.082980695173014
 20
1.877601682132061
 30
0.0
 11
5.015269877305076
 21
1.9453125
 31
0.0
  0
LINE
  5
3CB
330
73
100
AcDbEntity
  8
0
 62
     0
100
AcDbLine
 10
5.480266287307637
 20
1.480316089997438
 30
0.0
 11
5.207925498704551
 21
1.752656878600524
 31
0.0
  0
LINE
  5
3CC
330
73
100
AcDbEntity
  8
0
 62
     0
100
AcDbLine
 10
5.871465923531834
 20
1.111213540685321
 30
0.0
 11
5.685529471691853
 21
1.297149992525302
 31
0.0
  0
LINE
  5
3CD
330
73
100
AcDbEntity
  8
0
 62
     0
100
AcDbLine
 10
5.085432758756988
 20
1.897246705460167
 30
0.0
 11
5.037366964217156
 21
1.9453125
 31
0.0
  0
LINE
  5
3CE
330
73
100
AcDbEntity
  8
0
 62
     0
100
AcDbLine
 10
5.482718350891611
 20
1.499961113325544
 30
0.0
 11
5.210137780022418
 21
1.772541684194737
 31
0.0
  0
LINE
  5
3CF
330
73
100
AcDbEntity
  8
0
 62
     0
100
AcDbLine
 10
5.886862599246773
 20
1.117913951882461
 30
0.0
 11
5.687981535275827
 21
1.316795015853408
 31
0.0
  0
LINE
  5
3D0
330
73
100
AcDbEntity
  8
0
 62
     0
100
AcDbLine
 10
5.087884822340962
 20
1.916891728788273
 30
0.0
 11
5.059464051129236
 21
1.9453125
 31
0.0
  0
LINE
  5
3D1
330
73
100
AcDbEntity
  8
0
 62
     0
100
AcDbLine
 10
5.485170414475584
 20
1.51960613665365
 30
0.0
 11
5.212350061340285
 21
1.79242648978895
 31
0.0
  0
LINE
  5
3D2
330
73
100
AcDbEntity
  8
0
 62
     0
100
AcDbLine
 10
5.900823205843886
 20
1.126050432197428
 30
0.0
 11
5.690433598859801
 21
1.336440039181514
 31
0.0
  0
LINE
  5
3D3
330
73
100
AcDbEntity
  8
0
 62
     0
100
AcDbLine
 10
5.090336885924935
 20
1.936536752116379
 30
0.0
 11
5.081561138041315
 21
1.9453125
 31
0.0
  0
LINE
  5
3D4
330
73
100
AcDbEntity
  8
0
 62
     0
100
AcDbLine
 10
5.487622478059559
 20
1.539251159981756
 30
0.0
 11
5.214562342658152
 21
1.812311295383163
 31
0.0
  0
LINE
  5
3D5
330
73
100
AcDbEntity
  8
0
 62
     0
100
AcDbLine
 10
5.913474481477084
 20
1.135496243476309
 30
0.0
 11
5.692885662443774
 21
1.356085062509619
 31
0.0
  0
LINE
  5
3D6
330
73
100
AcDbEntity
  8
0
 62
     0
100
AcDbLine
 10
5.490074541643532
 20
1.558896183309861
 30
0.0
 11
5.217212064417675
 21
1.831758660535719
 31
0.0
  0
LINE
  5
3D7
330
73
100
AcDbEntity
  8
0
 62
     0
100
AcDbLine
 10
5.924879775292262
 20
1.146188036573212
 30
0.0
 11
5.695337726027749
 21
1.375730085837725
 31
0.0
  0
LINE
  5
3D8
330
73
100
AcDbEntity
  8
0
 62
     0
100
AcDbLine
 10
5.492526605227506
 20
1.578541206637967
 30
0.0
 11
5.221826364943433
 21
1.84924144692204
 31
0.0
  0
LINE
  5
3D9
330
73
100
AcDbEntity
  8
0
 62
     0
100
AcDbLine
 10
5.935052621737592
 20
1.158112277039961
 30
0.0
 11
5.697789789611722
 21
1.395375109165831
 31
0.0
  0
LINE
  5
3DA
330
73
100
AcDbEntity
  8
0
 62
     0
100
AcDbLine
 10
5.49497866881148
 20
1.598186229966073
 30
0.0
 11
5.228169830393619
 21
1.864995068383935
 31
0.0
  0
LINE
  5
3DB
330
73
100
AcDbEntity
  8
0
 62
     0
100
AcDbLine
 10
5.94395943738026
 20
1.171302548309373
 30
0.0
 11
5.700241853195696
 21
1.415020132493937
 31
0.0
  0
LINE
  5
3DC
330
73
100
AcDbEntity
  8
0
 62
     0
100
AcDbLine
 10
5.497430732395454
 20
1.617831253294179
 30
0.0
 11
5.235990249462573
 21
1.87927173622706
 31
0.0
  0
LINE
  5
3DD
330
73
100
AcDbEntity
  8
0
 62
     0
100
AcDbLine
 10
5.951512699048173
 20
1.18584637355354
 30
0.0
 11
5.70269391677967
 21
1.434665155822042
 31
0.0
  0
LINE
  5
3DE
330
73
100
AcDbEntity
  8
0
 62
     0
100
AcDbLine
 10
5.499882795979427
 20
1.637476276622285
 30
0.0
 11
5.245142739747826
 21
1.892216332853887
 31
0.0
  0
LINE
  5
3DF
330
73
100
AcDbEntity
  8
0
 62
     0
100
AcDbLine
 10
5.957551061462459
 20
1.201905098051333
 30
0.0
 11
5.705145980363644
 21
1.454310179150148
 31
0.0
  0
LINE
  5
3E0
330
73
100
AcDbEntity
  8
0
 62
     0
100
AcDbLine
 10
5.502334859563402
 20
1.65712129995039
 30
0.0
 11
5.255551072424371
 21
1.903905087089422
 31
0.0
  0
LINE
  5
3E1
330
73
100
AcDbEntity
  8
0
 62
     0
100
AcDbLine
 10
5.961794183730612
 20
1.21975906269526
 30
0.0
 11
5.707598043947617
 21
1.473955202478254
 31
0.0
  0
LINE
  5
3E2
330
73
100
AcDbEntity
  8
0
 62
     0
100
AcDbLine
 10
5.504786923147375
 20
1.676766323278496
 30
0.0
 11
5.267190842626176
 21
1.914362403799696
 31
0.0
  0
LINE
  5
3E3
330
73
100
AcDbEntity
  8
0
 62
     0
100
AcDbLine
 10
5.964214953007648
 20
1.239435380330303
 30
0.0
 11
5.710050107531592
 21
1.49360022580636
 31
0.0
  0
LINE
  5
3E4
330
73
100
AcDbEntity
  8
0
 62
     0
100
AcDbLine
 10
5.507238986731349
 20
1.696411346606602
 30
0.0
 11
5.280084564966136
 21
1.923565768371816
 31
0.0
  0
LINE
  5
3E5
330
73
100
AcDbEntity
  8
0
 62
     0
100
AcDbLine
 10
5.966427234325514
 20
1.259320185924517
 30
0.0
 11
5.712502171115565
 21
1.513245249134465
 31
0.0
  0
LINE
  5
3E6
330
73
100
AcDbEntity
  8
0
 62
     0
100
AcDbLine
 10
5.509691050315323
 20
1.716056369934708
 30
0.0
 11
5.294306189923898
 21
1.931441230326132
 31
0.0
  0
LINE
  5
3E7
330
73
100
AcDbEntity
  8
0
 62
     0
100
AcDbLine
 10
5.968639515643381
 20
1.27920499151873
 30
0.0
 11
5.71495423469954
 21
1.532890272462571
 31
0.0
  0
LINE
  5
3E8
330
73
100
AcDbEntity
  8
0
 62
     0
100
AcDbLine
 10
5.512143113899297
 20
1.735701393262813
 30
0.0
 11
5.309997340688396
 21
1.937847166473714
 31
0.0
  0
LINE
  5
3E9
330
73
100
AcDbEntity
  8
0
 62
     0
100
AcDbLine
 10
5.970851796961248
 20
1.299089797112942
 30
0.0
 11
5.717406298283513
 21
1.552535295790677
 31
0.0
  0
LINE
  5
3EA
330
73
100
AcDbEntity
  8
0
 62
     0
100
AcDbLine
 10
5.51459517748327
 20
1.755346416590919
 30
0.0
 11
5.327404762627523
 21
1.942536831446668
 31
0.0
  0
LINE
  5
3EB
330
73
100
AcDbEntity
  8
0
 62
     0
100
AcDbLine
 10
5.973064078279114
 20
1.318974602707155
 30
0.0
 11
5.719858361867487
 21
1.572180319118783
 31
0.0
  0
LINE
  5
3EC
330
73
100
AcDbEntity
  8
0
 62
     0
100
AcDbLine
 10
5.517047241067245
 20
1.774991439919025
 30
0.0
 11
5.346967745852687
 21
1.945070935133583
 31
0.0
  0
LINE
  5
3ED
330
73
100
AcDbEntity
  8
0
 62
     0
100
AcDbLine
 10
5.975276359596981
 20
1.338859408301368
 30
0.0
 11
5.722310425451461
 21
1.591825342446888
 31
0.0
  0
LINE
  5
3EE
330
73
100
AcDbEntity
  8
0
 62
     0
100
AcDbLine
 10
5.52115643660741
 20
1.792979331290939
 30
0.0
 11
5.36882326789835
 21
1.9453125
 31
0.0
  0
LINE
  5
3EF
330
73
100
AcDbEntity
  8
0
 62
     0
100
AcDbLine
 10
5.977488640914848
 20
1.358744213895581
 30
0.0
 11
5.724762489035435
 21
1.611470365774994
 31
0.0
  0
LINE
  5
3F0
330
73
100
AcDbEntity
  8
0
 62
     0
100
AcDbLine
 10
5.533087246751103
 20
1.803145608059327
 30
0.0
 11
5.39092035481043
 21
1.9453125
 31
0.0
  0
LINE
  5
3F1
330
73
100
AcDbEntity
  8
0
 62
     0
100
AcDbLine
 10
5.979700922232715
 20
1.378629019489794
 30
0.0
 11
5.727214552619408
 21
1.6311153891031
 31
0.0
  0
LINE
  5
3F2
330
73
100
AcDbEntity
  8
0
 62
     0
100
AcDbLine
 10
5.55364244172251
 20
1.8046875
 30
0.0
 11
5.413017441722509
 21
1.9453125
 31
0.0
  0
LINE
  5
3F3
330
73
100
AcDbEntity
  8
0
 62
     0
100
AcDbLine
 10
5.981913203550581
 20
1.398513825084007
 30
0.0
 11
5.729666616203383
 21
1.650760412431206
 31
0.0
  0
LINE
  5
3F4
330
73
100
AcDbEntity
  8
0
 62
     0
100
AcDbLine
 10
5.575739528634588
 20
1.8046875
 30
0.0
 11
5.435114528634588
 21
1.9453125
 31
0.0
  0
LINE
  5
3F5
330
73
100
AcDbEntity
  8
0
 62
     0
100
AcDbLine
 10
5.984125484868448
 20
1.41839863067822
 30
0.0
 11
5.732118679787356
 21
1.670405435759311
 31
0.0
  0
LINE
  5
3F6
330
73
100
AcDbEntity
  8
0
 62
     0
100
AcDbLine
 10
5.597836615546668
 20
1.8046875
 30
0.0
 11
5.457211615546668
 21
1.9453125
 31
0.0
  0
LINE
  5
3F7
330
73
100
AcDbEntity
  8
0
 62
     0
100
AcDbLine
 10
5.986337766186315
 20
1.438283436272433
 30
0.0
 11
5.73457074337133
 21
1.690050459087417
 31
0.0
  0
LINE
  5
3F8
330
73
100
AcDbEntity
  8
0
 62
     0
100
AcDbLine
 10
5.619933702458748
 20
1.8046875
 30
0.0
 11
5.479308702458748
 21
1.9453125
 31
0.0
  0
LINE
  5
3F9
330
73
100
AcDbEntity
  8
0
 62
     0
100
AcDbLine
 10
5.988550047504181
 20
1.458168241866646
 30
0.0
 11
5.737022806955304
 21
1.709695482415523
 31
0.0
  0
LINE
  5
3FA
330
73
100
AcDbEntity
  8
0
 62
     0
100
AcDbLine
 10
5.642030789370828
 20
1.8046875
 30
0.0
 11
5.501405789370828
 21
1.9453125
 31
0.0
  0
LINE
  5
3FB
330
73
100
AcDbEntity
  8
0
 62
     0
100
AcDbLine
 10
5.990762328822047
 20
1.478053047460859
 30
0.0
 11
5.739474870539278
 21
1.729340505743629
 31
0.0
  0
LINE
  5
3FC
330
73
100
AcDbEntity
  8
0
 62
     0
100
AcDbLine
 10
5.664127876282908
 20
1.8046875
 30
0.0
 11
5.523502876282907
 21
1.9453125
 31
0.0
  0
LINE
  5
3FD
330
73
100
AcDbEntity
  8
0
 62
     0
100
AcDbLine
 10
5.992974610139914
 20
1.497937853055072
 30
0.0
 11
5.741926934123252
 21
1.748985529071734
 31
0.0
  0
LINE
  5
3FE
330
73
100
AcDbEntity
  8
0
 62
     0
100
AcDbLine
 10
5.686224963194987
 20
1.8046875
 30
0.0
 11
5.545599963194987
 21
1.9453125
 31
0.0
  0
LINE
  5
3FF
330
73
100
AcDbEntity
  8
0
 62
     0
100
AcDbLine
 10
5.995186891457781
 20
1.517822658649285
 30
0.0
 11
5.744378997707226
 21
1.76863055239984
 31
0.0
  0
LINE
  5
400
330
73
100
AcDbEntity
  8
0
 62
     0
100
AcDbLine
 10
5.708322050107066
 20
1.8046875
 30
0.0
 11
5.567697050107066
 21
1.9453125
 31
0.0
  0
LINE
  5
401
330
73
100
AcDbEntity
  8
0
 62
     0
100
AcDbLine
 10
5.997399172775647
 20
1.537707464243498
 30
0.0
 11
5.743219294566046
 21
1.7918873424531
 31
0.0
  0
LINE
  5
402
330
73
100
AcDbEntity
  8
0
 62
     0
100
AcDbLine
 10
5.732972112801754
 20
1.802134524217391
 30
0.0
 11
5.589794137019146
 21
1.9453125
 31
0.0
  0
LINE
  5
403
330
73
100
AcDbEntity
  8
0
 62
     0
100
AcDbLine
 10
5.999611454093514
 20
1.557592269837711
 30
0.0
 11
5.611891223931226
 21
1.9453125
 31
0.0
  0
LINE
  5
404
330
73
100
AcDbEntity
  8
0
 62
     0
100
AcDbLine
 10
6.001823735411381
 20
1.577477075431924
 30
0.0
 11
5.633988310843305
 21
1.9453125
 31
0.0
  0
LINE
  5
405
330
73
100
AcDbEntity
  8
0
 62
     0
100
AcDbLine
 10
6.004036016729248
 20
1.597361881026137
 30
0.0
 11
5.656085397755385
 21
1.9453125
 31
0.0
  0
LINE
  5
406
330
73
100
AcDbEntity
  8
0
 62
     0
100
AcDbLine
 10
6.006248298047114
 20
1.61724668662035
 30
0.0
 11
5.678182484667464
 21
1.9453125
 31
0.0
  0
LINE
  5
407
330
73
100
AcDbEntity
  8
0
 62
     0
100
AcDbLine
 10
6.008460579364981
 20
1.637131492214563
 30
0.0
 11
5.700279571579544
 21
1.9453125
 31
0.0
  0
LINE
  5
408
330
73
100
AcDbEntity
  8
0
 62
     0
100
AcDbLine
 10
6.010672860682848
 20
1.657016297808776
 30
0.0
 11
5.722376658491624
 21
1.9453125
 31
0.0
  0
LINE
  5
409
330
73
100
AcDbEntity
  8
0
 62
     0
100
AcDbLine
 10
6.012885142000714
 20
1.676901103402989
 30
0.0
 11
5.744473745403703
 21
1.9453125
 31
0.0
  0
LINE
  5
40A
330
73
100
AcDbEntity
  8
0
 62
     0
100
AcDbLine
 10
6.01509742331858
 20
1.696785908997202
 30
0.0
 11
5.766570832315783
 21
1.9453125
 31
0.0
  0
LINE
  5
40B
330
73
100
AcDbEntity
  8
0
 62
     0
100
AcDbLine
 10
6.017309704636447
 20
1.716670714591415
 30
0.0
 11
5.788667919227862
 21
1.9453125
 31
0.0
  0
LINE
  5
40C
330
73
100
AcDbEntity
  8
0
 62
     0
100
AcDbLine
 10
6.019521985954314
 20
1.736555520185627
 30
0.0
 11
5.810765006139942
 21
1.9453125
 31
0.0
  0
LINE
  5
40D
330
73
100
AcDbEntity
  8
0
 62
     0
100
AcDbLine
 10
6.021734267272181
 20
1.75644032577984
 30
0.0
 11
5.832862093052022
 21
1.9453125
 31
0.0
  0
LINE
  5
40E
330
73
100
AcDbEntity
  8
0
 62
     0
100
AcDbLine
 10
6.023946548590047
 20
1.776325131374053
 30
0.0
 11
5.854959179964101
 21
1.9453125
 31
0.0
  0
LINE
  5
40F
330
73
100
AcDbEntity
  8
0
 62
     0
100
AcDbLine
 10
6.025988773480109
 20
1.796379993396072
 30
0.0
 11
5.877056266876181
 21
1.9453125
 31
0.0
  0
LINE
  5
410
330
73
100
AcDbEntity
  8
0
 62
     0
100
AcDbLine
 10
6.025508485203357
 20
1.818957368584903
 30
0.0
 11
5.899879242012781
 21
1.944586611775479
 31
0.0
  0
LINE
  5
411
330
73
100
AcDbEntity
  8
0
 62
     0
100
AcDbLine
 10
6.019788728248046
 20
1.846774212452294
 30
0.0
 11
5.927696085880173
 21
1.938866854820167
 31
0.0
  0
LINE
  5
412
330
73
100
AcDbEntity
  8
0
 62
     0
100
AcDbLine
 10
5.991912051417425
 20
1.896747976194994
 30
0.0
 11
5.977669849622873
 21
1.910990177989547
 31
0.0
  0
ENDBLK
  5
413
330
73
100
AcDbEntity
  8
0
100
AcDbBlockEnd
  0
BLOCK
  5
414
330
74
100
AcDbEntity
  8
0
100
AcDbBlockBegin
  2
*X1
 70
     1
 10
0.0
 20
0.0
 30
0.0
  3
*X1
  1

  0
LINE
  5
415
330
74
100
AcDbEntity
  8
0
 62
     0
100
AcDbLine
 10
3.596858448287915
 20
6.849549641746034
 30
0.0
 11
3.632028542999999
 21
6.884719736458118
 31
0.0
  0
LINE
  5
416
330
74
100
AcDbEntity
  8
0
 62
     0
100
AcDbLine
 10
3.526147770169261
 20
6.849549641746034
 30
0.0
 11
3.565147770169262
 21
6.888549641746035
 31
0.0
  0
LINE
  5
417
330
74
100
AcDbEntity
  8
0
 62
     0
100
AcDbLine
 10
3.455437092050606
 20
6.849549641746034
 30
0.0
 11
3.494437092050607
 21
6.888549641746035
 31
0.0
  0
LINE
  5
418
330
74
100
AcDbEntity
  8
0
 62
     0
100
AcDbLine
 10
3.384726413931951
 20
6.849549641746034
 30
0.0
 11
3.423726413931952
 21
6.888549641746035
 31
0.0
  0
LINE
  5
419
330
74
100
AcDbEntity
  8
0
 62
     0
100
AcDbLine
 10
3.314015735813297
 20
6.849549641746035
 30
0.0
 11
3.353015735813297
 21
6.888549641746035
 31
0.0
  0
LINE
  5
41A
330
74
100
AcDbEntity
  8
0
 62
     0
100
AcDbLine
 10
3.243305057694642
 20
6.849549641746035
 30
0.0
 11
3.282305057694642
 21
6.888549641746035
 31
0.0
  0
LINE
  5
41B
330
74
100
AcDbEntity
  8
0
 62
     0
100
AcDbLine
 10
3.178434428559401
 20
6.855389690729448
 30
0.0
 11
3.213167446152938
 21
6.890122708322985
 31
0.0
  0
LINE
  5
41C
330
74
100
AcDbEntity
  8
0
 62
     0
100
AcDbLine
 10
3.165375
 20
6.913040940288702
 30
0.0
 11
3.204375
 21
6.952040940288702
 31
0.0
  0
LINE
  5
41D
330
74
100
AcDbEntity
  8
0
 62
     0
100
AcDbLine
 10
3.165374999999999
 20
6.983751618407356
 30
0.0
 11
3.204375
 21
7.022751618407356
 31
0.0
  0
LINE
  5
41E
330
74
100
AcDbEntity
  8
0
 62
     0
100
AcDbLine
 10
3.165374999999999
 20
7.05446229652601
 30
0.0
 11
3.204375
 21
7.093462296526011
 31
0.0
  0
LINE
  5
41F
330
74
100
AcDbEntity
  8
0
 62
     0
100
AcDbLine
 10
3.145751667101369
 20
7.105549641746035
 30
0.0
 11
3.183112637868911
 21
7.142910612513577
 31
0.0
  0
LINE
  5
420
330
74
100
AcDbEntity
  8
0
 62
     0
100
AcDbLine
 10
3.075040988982715
 20
7.105549641746036
 30
0.0
 11
3.114040988982714
 21
7.144549641746035
 31
0.0
  0
LINE
  5
421
330
74
100
AcDbEntity
  8
0
 62
     0
100
AcDbLine
 10
3.836721456999999
 20
6.877280616102154
 30
0.0
 11
3.84799048264388
 21
6.888549641746035
 31
0.0
  0
LINE
  5
422
330
74
100
AcDbEntity
  8
0
 62
     0
100
AcDbLine
 10
3.879701160762535
 20
6.849549641746034
 30
0.0
 11
3.918701160762535
 21
6.888549641746035
 31
0.0
  0
LINE
  5
423
330
74
100
AcDbEntity
  8
0
 62
     0
100
AcDbLine
 10
3.950411838881189
 20
6.849549641746034
 30
0.0
 11
3.98941183888119
 21
6.888549641746035
 31
0.0
  0
LINE
  5
424
330
74
100
AcDbEntity
  8
0
 62
     0
100
AcDbLine
 10
4.021122516999844
 20
6.849549641746034
 30
0.0
 11
4.060122516999845
 21
6.888549641746035
 31
0.0
  0
LINE
  5
425
330
74
100
AcDbEntity
  8
0
 62
     0
100
AcDbLine
 10
4.264374999999999
 20
7.092802124746189
 30
0.0
 11
4.316122516999845
 21
7.144549641746036
 31
0.0
  0
LINE
  5
426
330
74
100
AcDbEntity
  8
0
 62
     0
100
AcDbLine
 10
4.091833195118499
 20
6.849549641746034
 30
0.0
 11
4.1308331951185
 21
6.888549641746035
 31
0.0
  0
LINE
  5
427
330
74
100
AcDbEntity
  8
0
 62
     0
100
AcDbLine
 10
4.347833195118501
 20
7.105549641746036
 30
0.0
 11
4.386833195118501
 21
7.144549641746036
 31
0.0
  0
LINE
  5
428
330
74
100
AcDbEntity
  8
0
 62
     0
100
AcDbLine
 10
4.264374999999999
 20
7.022091446627534
 30
0.0
 11
4.303374999999999
 21
7.061091446627534
 31
0.0
  0
LINE
  5
429
330
74
100
AcDbEntity
  8
0
 62
     0
100
AcDbLine
 10
4.162543873237154
 20
6.849549641746034
 30
0.0
 11
4.201543873237154
 21
6.888549641746035
 31
0.0
  0
LINE
  5
42A
330
74
100
AcDbEntity
  8
0
 62
     0
100
AcDbLine
 10
4.418543873237155
 20
7.105549641746035
 30
0.0
 11
4.423375
 21
7.11038076850888
 31
0.0
  0
LINE
  5
42B
330
74
100
AcDbEntity
  8
0
 62
     0
100
AcDbLine
 10
4.264374999999999
 20
6.951380768508879
 30
0.0
 11
4.303374999999999
 21
6.990380768508879
 31
0.0
  0
LINE
  5
42C
330
74
100
AcDbEntity
  8
0
 62
     0
100
AcDbLine
 10
4.233254551355808
 20
6.849549641746034
 30
0.0
 11
4.303374999999999
 21
6.919670090390225
 31
0.0
  0
ENDBLK
  5
42D
330
74
100
AcDbEntity
  8
0
100
AcDbBlockEnd
  0
BLOCK
  5
42E
330
75
100
AcDbEntity
  8
0
100
AcDbBlockBegin
  2
BB
 70
     0
 10
0.0
 20
0.0
 30
0.0
  3
BB
  1

  0
CIRCLE
  5
42F
330
75
100
AcDbEntity
  8
3
100
AcDbCircle
 10
14.94385986328125
 20
0.6316974961271616
 30
0.0
 40
0.2202713012695316
  0
ARC
  5
430
330
75
100
AcDbEntity
  8
3
100
AcDbCircle
 10
14.84253506469726
 20
0.6316974961271616
 30
0.0
 40
0.132162780761719
100
AcDbArc
 50
39.94450518981475
 51
104.0491186125707
  0
ARC
  5
431
330
75
100
AcDbEntity
  8
3
100
AcDbCircle
 10
15.04518466186523
 20
0.6316974961271616
 30
0.0
 40
0.132162780761719
100
AcDbArc
 50
75.95088138742923
 51
140.0554948101853
  0
ARC
  5
432
330
75
100
AcDbEntity
  8
3
100
AcDbCircle
 10
15.04518466186523
 20
0.6316974961271616
 30
0.0
 40
0.0704868164062501
100
AcDbArc
 50
270.0000000000002
 51
179.9999999999998
  0
ARC
  5
433
330
75
100
AcDbEntity
  8
3
100
AcDbCircle
 10
14.94385986328125
 20
0.6316974961271616
 30
0.0
 40
0.1850278930664066
100
AcDbArc
 50
270.0000000000001
 51
316.1383024758369
  0
LINE
  5
434
330
75
100
AcDbEntity
  8
3
100
AcDbLine
 10
15.04518466186523
 20
0.4995347153654426
 30
0.0
 11
14.94385986328125
 21
0.4995347153654424
 31
0.0
  0
LINE
  5
435
330
75
100
AcDbEntity
  8
3
100
AcDbLine
 10
15.04518466186523
 20
0.5612106797209115
 30
0.0
 11
14.97469784545898
 21
0.5612106797209111
 31
0.0
  0
ARC
  5
436
330
75
100
AcDbEntity
  8
3
100
AcDbCircle
 10
14.84253506469726
 20
0.6316974961271616
 30
0.0
 40
0.0704868164062501
100
AcDbArc
 50
0.0000000000002398
 51
269.9999999999998
  0
ARC
  5
437
330
75
100
AcDbEntity
  8
3
100
AcDbCircle
 10
14.94385986328125
 20
0.6316974961271616
 30
0.0
 40
0.1850278930664066
100
AcDbArc
 50
223.8616975241631
 51
269.9999999999999
  0
LINE
  5
438
330
75
100
AcDbEntity
  8
3
100
AcDbLine
 10
14.84253506469726
 20
0.4995347153654426
 30
0.0
 11
14.94385986328125
 21
0.4995347153654424
 31
0.0
  0
LINE
  5
439
330
75
100
AcDbEntity
  8
3
100
AcDbLine
 10
14.97469784545898
 20
0.5612106797209111
 30
0.0
 11
14.97469784545898
 21
0.6316974961271616
 31
0.0
  0
ARC
  5
43A
330
75
100
AcDbEntity
  8
3
100
AcDbCircle
 10
14.84253506469726
 20
0.6316974961271616
 30
0.0
 40
0.132162780761719
100
AcDbArc
 50
255.9508813874291
 51
270.0
  0
LINE
  5
43B
330
75
100
AcDbEntity
  8
3
100
AcDbLine
 10
14.91302188110351
 20
0.5612106797209111
 30
0.0
 11
14.91302188110351
 21
0.6316974961271616
 31
0.0
  0
LINE
  5
43C
330
75
100
AcDbEntity
  8
3
100
AcDbLine
 10
14.84253506469726
 20
0.5612106797209115
 30
0.0
 11
14.91302188110351
 21
0.5612106797209111
 31
0.0
  0
POINT
  5
43D
330
75
100
AcDbEntity
  8
3
  6
ByBlock
100
AcDbPoint
 10
14.89116785830941
 20
0.6827194783756691
 30
0.0
  0
POINT
  5
43E
330
75
100
AcDbEntity
  8
3
  6
ByBlock
100
AcDbPoint
 10
15.16413116455078
 20
0.620683931063685
 30
0.0
  0
ARC
  5
43F
330
75
100
AcDbEntity
  8
3
100
AcDbCircle
 10
15.04518466186523
 20
0.6316974961271616
 30
0.0
 40
0.132162780761719
100
AcDbArc
 50
270.0
 51
284.0491186125709
  0
ARC
  5
440
330
75
100
AcDbEntity
  8
3
100
AcDbCircle
 10
14.94385986328125
 20
0.6316974961271616
 30
0.0
 40
0.1850278930664066
100
AcDbArc
 50
43.86169752416312
 51
89.99999999999992
  0
ARC
  5
441
330
75
100
AcDbEntity
  8
3
100
AcDbCircle
 10
14.94385986328125
 20
0.6316974961271616
 30
0.0
 40
0.1850278930664066
100
AcDbArc
 50
90.00000000000005
 51
136.1383024758368
  0
ENDBLK
  5
442
330
75
100
AcDbEntity
  8
0
100
AcDbBlockEnd
  0
ENDSEC
  0
SECTION
  2
ENTITIES
  0
TEXT
  5
4B0
330
6F
100
AcDbEntity
  8
3
100
AcDbText
 10
2.864017857142857
 20
6.037049641746037
 30
0.0
 40
0.15
  1
%%UFRONT SECTION
 72
     1
 11
3.734375
 21
6.037049641746037
 31
0.0
100
AcDbText
  0
TEXT
  5
4B2
330
6F
100
AcDbEntity
  8
3
100
AcDbText
 10
9.300178571428572
 20
6.037049641746037
 30
0.0
 40
0.15
  1
%%URIGHT SIDE VIEW
 72
     1
 11
10.23125
 21
6.037049641746037
 31
0.0
100
AcDbText
  0
TEXT
  5
4B3
330
6F
100
AcDbEntity
  8
3
100
AcDbText
 10
6.303749999999999
 20
2.359227718483667
 30
0.0
 40
0.15
  1
%%UBASE PERFORATION
 72
     1
 11
7.40625
 21
2.359227718483667
 31
0.0
100
AcDbText
  0
LINE
  5
4BB
330
6F
100
AcDbEntity
  8
3
100
AcDbLine
 10
4.895558035714287
 20
4.267125
 30
0.0
 11
4.40234375
 21
3.921875
 31
0.0
  0
LINE
  5
4BC
330
6F
100
AcDbEntity
  8
3
100
AcDbLine
 10
4.40234375
 20
3.921875
 30
0.0
 11
5.02734375
 21
3.8125
 31
0.0
  0
LINE
  5
4BD
330
6F
100
AcDbEntity
  8
3
100
AcDbLine
 10
5.02734375
 20
3.8125
 30
0.0
 11
4.12109375
 21
3.421875
 31
0.0
  0
LINE
  5
4BE
330
6F
100
AcDbEntity
  8
3
100
AcDbLine
 10
4.12109375
 20
3.421875
 30
0.0
 11
4.88671875
 21
3.28125
 31
0.0
  0
LINE
  5
4BF
330
6F
100
AcDbEntity
  8
3
100
AcDbLine
 10
4.88671875
 20
3.28125
 30
0.0
 11
4.46484375
 21
3.09375
 31
0.0
  0
LINE
  5
4C0
330
6F
100
AcDbEntity
  8
3
100
AcDbLine
 10
4.46484375
 20
3.09375
 30
0.0
 11
4.959354166666666
 21
2.889124999999999
 31
0.0
  0
LINE
  5
4C1
330
6F
100
AcDbEntity
  8
3
100
AcDbLine
 10
10.23046875
 20
3.8125
 30
0.0
 11
9.32421875
 21
3.421875
 31
0.0
  0
LINE
  5
4C2
330
6F
100
AcDbEntity
  8
3
100
AcDbLine
 10
9.60546875
 20
3.921875
 30
0.0
 11
10.23046875
 21
3.8125
 31
0.0
  0
LINE
  5
4C3
330
6F
100
AcDbEntity
  8
3
100
AcDbLine
 10
9.32421875
 20
3.421875
 30
0.0
 11
10.08984375
 21
3.28125
 31
0.0
  0
LINE
  5
4C4
330
6F
100
AcDbEntity
  8
3
100
AcDbLine
 10
9.66796875
 20
3.09375
 30
0.0
 11
10.16247916666666
 21
2.889124999999999
 31
0.0
  0
LINE
  5
4C5
330
6F
100
AcDbEntity
  8
3
100
AcDbLine
 10
10.08984375
 20
3.28125
 30
0.0
 11
9.66796875
 21
3.09375
 31
0.0
  0
LINE
  5
4C6
330
6F
100
AcDbEntity
  8
3
100
AcDbLine
 10
10.09868303571429
 20
4.267125
 30
0.0
 11
9.60546875
 21
3.921875
 31
0.0
  0
LINE
  5
4C7
330
6F
100
AcDbEntity
  8
3
100
AcDbLine
 10
4.264374999999999
 20
6.904174641746035
 30
0.0
 11
4.264374999999999
 21
7.113299641746035
 31
0.0
  0
LINE
  5
4C8
330
6F
100
AcDbEntity
  8
3
100
AcDbLine
 10
4.423375
 20
7.144549641746035
 30
0.0
 11
4.295624999999999
 21
7.144549641746035
 31
0.0
  0
LINE
  5
4C9
330
6F
100
AcDbEntity
  8
3
100
AcDbLine
 10
3.204374999999999
 20
6.904174641746035
 30
0.0
 11
3.204374999999999
 21
7.113299641746034
 31
0.0
  0
LINE
  5
4CA
330
6F
100
AcDbEntity
  8
3
100
AcDbLine
 10
3.196625
 20
6.849549641746035
 30
0.0
 11
3.632028542999999
 21
6.849549641746034
 31
0.0
  0
LINE
  5
4CB
330
6F
100
AcDbEntity
  8
3
100
AcDbLine
 10
3.173125
 20
7.144549641746034
 30
0.0
 11
3.045374999999999
 21
7.144549641746035
 31
0.0
  0
LINE
  5
4CC
330
6F
100
AcDbEntity
  8
3
100
AcDbLine
 10
3.149749999999999
 20
7.105549641746035
 30
0.0
 11
3.045374999999999
 21
7.105549641746035
 31
0.0
  0
LINE
  5
4CD
330
6F
100
AcDbEntity
  8
3
100
AcDbLine
 10
3.165375
 20
6.880799641746035
 30
0.0
 11
3.165374999999999
 21
7.089924641746035
 31
0.0
  0
LINE
  5
4CE
330
6F
100
AcDbEntity
  8
3
100
AcDbLine
 10
4.423375
 20
7.105549641746035
 30
0.0
 11
4.318999999999999
 21
7.105549641746036
 31
0.0
  0
LINE
  5
4CF
330
6F
100
AcDbEntity
  8
3
100
AcDbLine
 10
4.303374999999999
 20
6.880799641746034
 30
0.0
 11
4.303374999999999
 21
7.089924641746036
 31
0.0
  0
LINE
  5
4D0
330
6F
100
AcDbEntity
  8
3
100
AcDbLine
 10
3.219999999999999
 20
6.888549641746035
 30
0.0
 11
3.632028542999999
 21
6.888549641746035
 31
0.0
  0
LINE
  5
4D1
330
6F
100
AcDbEntity
  8
3
100
AcDbLine
 10
3.045374999999999
 20
7.144549641746035
 30
0.0
 11
3.045374999999999
 21
7.105549641746035
 31
0.0
  0
LINE
  5
4D2
330
6F
100
AcDbEntity
  8
3
100
AcDbLine
 10
4.423375
 20
7.144549641746035
 30
0.0
 11
4.423375
 21
7.105549641746035
 31
0.0
  0
ARC
  5
4D3
330
6F
100
AcDbEntity
  8
3
100
AcDbCircle
 10
3.149749999999999
 20
7.089924641746035
 30
0.0
 40
0.015625
100
AcDbArc
 50
0.0
 51
90.0
  0
ARC
  5
4D4
330
6F
100
AcDbEntity
  8
3
100
AcDbCircle
 10
3.219999999999999
 20
6.904174641746035
 30
0.0
 40
0.015625
100
AcDbArc
 50
180.0
 51
270.0
  0
ARC
  5
4D5
330
6F
100
AcDbEntity
  8
3
100
AcDbCircle
 10
4.248749999999999
 20
6.904174641746035
 30
0.0
 40
0.015625
100
AcDbArc
 50
270.0
 51
0.0
  0
ARC
  5
4D6
330
6F
100
AcDbEntity
  8
3
100
AcDbCircle
 10
4.318999999999999
 20
7.089924641746036
 30
0.0
 40
0.015625
100
AcDbArc
 50
90.0
 51
180.0
  0
ARC
  5
4D7
330
6F
100
AcDbEntity
  8
3
100
AcDbCircle
 10
3.173124999999999
 20
7.113299641746034
 30
0.0
 40
0.03125
100
AcDbArc
 50
0.0
 51
89.99999999999946
  0
ARC
  5
4D8
330
6F
100
AcDbEntity
  8
3
100
AcDbCircle
 10
3.196625
 20
6.880799641746035
 30
0.0
 40
0.03125
100
AcDbArc
 50
180.0
 51
269.9999999999999
  0
ARC
  5
4D9
330
6F
100
AcDbEntity
  8
3
100
AcDbCircle
 10
4.272124999999999
 20
6.880799641746034
 30
0.0
 40
0.03125
100
AcDbArc
 50
269.9999999999999
 51
359.9999999999997
  0
ARC
  5
4DA
330
6F
100
AcDbEntity
  8
3
100
AcDbCircle
 10
4.295624999999999
 20
7.113299641746035
 30
0.0
 40
0.03125
100
AcDbArc
 50
90.0
 51
180.0
  0
LINE
  5
4DB
330
6F
100
AcDbEntity
  8
3
100
AcDbLine
 10
8.918845573206343
 20
6.849549641746035
 30
0.0
 11
11.55009557320634
 21
6.849549641746035
 31
0.0
  0
LINE
  5
4DC
330
6F
100
AcDbEntity
  8
3
100
AcDbLine
 10
8.97659928349207
 20
7.144549641746035
 30
0.0
 11
11.60784928349207
 21
7.144549641746035
 31
0.0
  0
LINE
  5
4DD
330
6F
100
AcDbEntity
  8
3
100
AcDbLine
 10
8.898599283492071
 20
7.105549641746035
 30
0.0
 11
11.52984928349207
 21
7.105549641746035
 31
0.0
  0
LINE
  5
4DE
330
6F
100
AcDbEntity
  8
5
100
AcDbLine
 10
8.856445573206345
 20
6.888549641746034
 30
0.0
 11
11.48769557320634
 21
6.888549641746035
 31
0.0
  0
LINE
  5
4DF
330
6F
100
AcDbEntity
  8
3
100
AcDbLine
 10
8.97659928349207
 20
7.144549641746035
 30
0.0
 11
8.84375
 21
7.078125
 31
0.0
  0
LINE
  5
4E0
330
6F
100
AcDbEntity
  8
3
100
AcDbLine
 10
8.84375
 20
7.078125
 30
0.0
 11
9.0
 21
7.015625
 31
0.0
  0
LINE
  5
4E1
330
6F
100
AcDbEntity
  8
3
100
AcDbLine
 10
9.0
 20
7.015625
 30
0.0
 11
8.828125
 21
6.90625
 31
0.0
  0
LINE
  5
4E2
330
6F
100
AcDbEntity
  8
3
100
AcDbLine
 10
8.828125
 20
6.90625
 30
0.0
 11
8.918845573206343
 21
6.849549641746035
 31
0.0
  0
LINE
  5
4E3
330
6F
100
AcDbEntity
  8
3
100
AcDbLine
 10
11.459375
 20
6.90625
 30
0.0
 11
11.55009557320634
 21
6.849549641746035
 31
0.0
  0
LINE
  5
4E4
330
6F
100
AcDbEntity
  8
3
100
AcDbLine
 10
11.63125
 20
7.015625
 30
0.0
 11
11.459375
 21
6.90625
 31
0.0
  0
LINE
  5
4E5
330
6F
100
AcDbEntity
  8
3
100
AcDbLine
 10
11.475
 20
7.078125
 30
0.0
 11
11.63125
 21
7.015625
 31
0.0
  0
LINE
  5
4E6
330
6F
100
AcDbEntity
  8
3
100
AcDbLine
 10
11.60784928349207
 20
7.144549641746035
 30
0.0
 11
11.475
 21
7.078125
 31
0.0
  0
LINE
  5
4E7
330
6F
100
AcDbEntity
  8
3
100
AcDbLine
 10
4.895558035714287
 20
4.267125
 30
0.0
 11
10.09868303571429
 21
4.267125
 31
0.0
  0
LINE
  5
4E8
330
6F
100
AcDbEntity
  8
3
100
AcDbLine
 10
4.959354166666665
 20
2.889124999999999
 30
0.0
 11
10.16247916666666
 21
2.889124999999999
 31
0.0
  0
LINE
  5
4E9
330
6F
100
AcDbEntity
  8
3
100
AcDbLine
 10
4.575104166666664
 20
3.048125
 30
0.0
 11
9.778229166666664
 21
3.048125
 31
0.0
  0
LINE
  5
4EA
330
6F
100
AcDbEntity
  8
3
100
AcDbLine
 10
4.668415178571429
 20
4.108125
 30
0.0
 11
9.871540178571429
 21
4.108124999999999
 31
0.0
  0
LINE
  5
4EB
330
6F
100
AcDbEntity
  8
3
100
AcDbLine
 10
3.836721456999999
 20
6.888549641746035
 30
0.0
 11
3.836721456999999
 21
6.849549641746035
 31
0.0
  0
LINE
  5
4EC
330
6F
100
AcDbEntity
  8
3
100
AcDbLine
 10
3.632028542999999
 20
6.888549641746035
 30
0.0
 11
3.632028542999999
 21
6.849549641746035
 31
0.0
  0
LINE
  5
4ED
330
6F
100
AcDbEntity
  8
3
100
AcDbLine
 10
3.836721456999999
 20
6.888549641746035
 30
0.0
 11
4.248749999999999
 21
6.888549641746035
 31
0.0
  0
LINE
  5
4EE
330
6F
100
AcDbEntity
  8
3
100
AcDbLine
 10
3.836721456999999
 20
6.849549641746034
 30
0.0
 11
4.272124999999999
 21
6.849549641746034
 31
0.0
  0
LINE
  5
4EF
330
6F
100
AcDbEntity
  8
3
100
AcDbLine
 10
3.632028542999999
 20
6.888549641746035
 30
0.0
 11
3.836721456999999
 21
6.888549641746035
 31
0.0
  0
LINE
  5
4F0
330
6F
100
AcDbEntity
  8
3
100
AcDbLine
 10
3.632028542999999
 20
6.849549641746034
 30
0.0
 11
3.836721456999999
 21
6.849549641746034
 31
0.0
  0
LINE
  5
4F1
330
6F
100
AcDbEntity
  8
1
100
AcDbLine
 10
3.734375
 20
6.882479075662288
 30
0.0
 11
3.734375
 21
6.921875
 31
0.0
  0
LINE
  5
4F2
330
6F
100
AcDbEntity
  8
1
100
AcDbLine
 10
3.734374999999999
 20
6.864070432660414
 30
0.0
 11
3.734374999999999
 21
6.874028850831655
 31
0.0
  0
LINE
  5
4F3
330
6F
100
AcDbEntity
  8
1
100
AcDbLine
 10
3.734375
 20
6.855398061949595
 30
0.0
 11
3.734375
 21
6.816224283492068
 31
0.0
  0
LINE
  5
4F4
330
6F
100
AcDbEntity
  8
5
100
AcDbLine
 10
4.724129464285713
 20
4.147124999999998
 30
0.0
 11
9.927254464285715
 21
4.147124999999999
 31
0.0
  0
LINE
  5
4F5
330
6F
100
AcDbEntity
  8
5
100
AcDbLine
 10
4.669354166666662
 20
3.009125000000001
 30
0.0
 11
9.872479166666664
 21
3.009125
 31
0.0
  0
LINE
  5
4F6
330
6F
100
AcDbEntity
  8
0
  6
ByBlock
 62
     1
100
AcDbLine
 10
3.014124999999999
 20
7.105549641746035
 30
0.0
 11
2.738125
 21
7.105549641746035
 31
0.0
  0
LINE
  5
4F7
330
6F
100
AcDbEntity
  8
0
  6
ByBlock
 62
     1
100
AcDbLine
 10
3.014124999999999
 20
7.144549641746035
 30
0.0
 11
2.738125
 21
7.144549641746035
 31
0.0
  0
LINE
  5
4F8
330
6F
100
AcDbEntity
  8
0
  6
ByBlock
 62
     1
100
AcDbLine
 10
2.828125
 20
7.015549641746035
 30
0.0
 11
2.828125
 21
6.925549641746036
 31
0.0
  0
LINE
  5
4F9
330
6F
100
AcDbEntity
  8
0
  6
ByBlock
 62
     1
100
AcDbLine
 10
2.828125
 20
7.234549641746035
 30
0.0
 11
2.828125
 21
7.324549641746035
 31
0.0
  0
LINE
  5
4FA
330
6F
100
AcDbEntity
  8
0
  6
ByBlock
 62
     1
100
AcDbLine
 10
2.828125
 20
7.324549641746035
 30
0.0
 11
2.738125
 21
7.324549641746035
 31
0.0
  0
SOLID
  5
4FB
330
6F
100
AcDbEntity
  8
0
  6
ByBlock
 62
     1
100
AcDbTrace
 10
2.843124999999999
 20
7.015549641746035
 30
0.0
 11
2.813125
 21
7.015549641746035
 31
0.0
 12
2.828125
 22
7.105549641746035
 32
0.0
 13
2.828125
 23
7.105549641746035
 33
0.0
  0
SOLID
  5
4FC
330
6F
100
AcDbEntity
  8
0
  6
ByBlock
 62
     1
100
AcDbTrace
 10
2.843124999999999
 20
7.234549641746035
 30
0.0
 11
2.813125
 21
7.234549641746035
 31
0.0
 12
2.828125
 22
7.144549641746035
 32
0.0
 13
2.828125
 23
7.144549641746035
 33
0.0
  0
TEXT
  5
4FD
330
6F
100
AcDbEntity
  8
0
  6
ByBlock
 62
     1
100
AcDbText
 10
2.273125
 20
7.279549641746035
 30
0.0
 40
0.09
  1
0.039"
 72
     1
 11
2.483125
 21
7.324549641746035
 31
0.0
100
AcDbText
 73
     2
  0
POINT
  5
4FE
330
6F
100
AcDbEntity
  8
DEFPOINTS
  6
ByBlock
 62
     0
100
AcDbPoint
 10
4.423375
 20
7.105549641746035
 30
0.0
  0
POINT
  5
4FF
330
6F
100
AcDbEntity
  8
DEFPOINTS
  6
ByBlock
 62
     0
100
AcDbPoint
 10
4.423375
 20
7.144549641746035
 30
0.0
  0
POINT
  5
500
330
6F
100
AcDbEntity
  8
DEFPOINTS
  6
ByBlock
 62
     0
100
AcDbPoint
 10
2.828125
 20
7.144549641746035
 30
0.0
  0
LINE
  5
501
330
6F
100
AcDbEntity
  8
0
  6
ByBlock
 62
     1
100
AcDbLine
 10
3.045374999999999
 20
7.175799641746035
 30
0.0
 11
3.045374999999999
 21
7.574374999999999
 31
0.0
  0
LINE
  5
502
330
6F
100
AcDbEntity
  8
0
  6
ByBlock
 62
     1
100
AcDbLine
 10
4.423375
 20
7.175799641746035
 30
0.0
 11
4.423375
 21
7.574374999999999
 31
0.0
  0
LINE
  5
503
330
6F
100
AcDbEntity
  8
0
  6
ByBlock
 62
     1
100
AcDbLine
 10
3.135374999999999
 20
7.484375
 30
0.0
 11
3.487946428571428
 21
7.484375
 31
0.0
  0
LINE
  5
504
330
6F
100
AcDbEntity
  8
0
  6
ByBlock
 62
     1
100
AcDbLine
 10
4.333375
 20
7.484375
 30
0.0
 11
3.980803571428571
 21
7.484375
 31
0.0
  0
SOLID
  5
505
330
6F
100
AcDbEntity
  8
0
  6
ByBlock
 62
     1
100
AcDbTrace
 10
3.135374999999999
 20
7.499374999999999
 30
0.0
 11
3.135374999999999
 21
7.469375
 31
0.0
 12
3.045374999999999
 22
7.484375
 32
0.0
 13
3.045374999999999
 23
7.484375
 33
0.0
  0
SOLID
  5
506
330
6F
100
AcDbEntity
  8
0
  6
ByBlock
 62
     1
100
AcDbTrace
 10
4.333375
 20
7.499374999999999
 30
0.0
 11
4.333375
 21
7.469375
 31
0.0
 12
4.423375
 22
7.484375
 32
0.0
 13
4.423375
 23
7.484375
 33
0.0
  0
TEXT
  5
507
330
6F
100
AcDbEntity
  8
0
  6
ByBlock
 62
     1
100
AcDbText
 10
3.532946428571428
 20
7.439375
 30
0.0
 40
0.09
  1
1.378"
 72
     1
 11
3.734375
 21
7.484375
 31
0.0
100
AcDbText
 73
     2
  0
POINT
  5
508
330
6F
100
AcDbEntity
  8
DEFPOINTS
  6
ByBlock
 62
     0
100
AcDbPoint
 10
3.045374999999999
 20
7.144549641746035
 30
0.0
  0
POINT
  5
509
330
6F
100
AcDbEntity
  8
DEFPOINTS
  6
ByBlock
 62
     0
100
AcDbPoint
 10
4.423375
 20
7.144549641746035
 30
0.0
  0
POINT
  5
50A
330
6F
100
AcDbEntity
  8
DEFPOINTS
  6
ByBlock
 62
     0
100
AcDbPoint
 10
4.423375
 20
7.484375
 30
0.0
  0
LINE
  5
50B
330
6F
100
AcDbEntity
  8
0
  6
ByBlock
 62
     1
100
AcDbLine
 10
3.165375
 20
6.849549641746035
 30
0.0
 11
3.165375
 21
6.550625
 31
0.0
  0
LINE
  5
50C
330
6F
100
AcDbEntity
  8
0
  6
ByBlock
 62
     1
100
AcDbLine
 10
4.303374999999999
 20
6.849549641746034
 30
0.0
 11
4.303374999999999
 21
6.550625
 31
0.0
  0
LINE
  5
50D
330
6F
100
AcDbEntity
  8
0
  6
ByBlock
 62
     1
100
AcDbLine
 10
3.255374999999999
 20
6.640625
 30
0.0
 11
3.496517857142856
 21
6.640625
 31
0.0
  0
LINE
  5
50E
330
6F
100
AcDbEntity
  8
0
  6
ByBlock
 62
     1
100
AcDbLine
 10
4.213374999999999
 20
6.640625
 30
0.0
 11
3.972232142857142
 21
6.640625
 31
0.0
  0
SOLID
  5
50F
330
6F
100
AcDbEntity
  8
0
  6
ByBlock
 62
     1
100
AcDbTrace
 10
3.255374999999999
 20
6.655624999999999
 30
0.0
 11
3.255374999999999
 21
6.625625
 31
0.0
 12
3.165375
 22
6.640625
 32
0.0
 13
3.165375
 23
6.640625
 33
0.0
  0
SOLID
  5
510
330
6F
100
AcDbEntity
  8
0
  6
ByBlock
 62
     1
100
AcDbTrace
 10
4.213374999999999
 20
6.655624999999999
 30
0.0
 11
4.213374999999999
 21
6.625625
 31
0.0
 12
4.303374999999999
 22
6.640625
 32
0.0
 13
4.303374999999999
 23
6.640625
 33
0.0
  0
TEXT
  5
511
330
6F
100
AcDbEntity
  8
0
  6
ByBlock
 62
     1
100
AcDbText
 10
3.541517857142856
 20
6.595625
 30
0.0
 40
0.09
  1
1.138"
 72
     1
 11
3.734374999999999
 21
6.640625
 31
0.0
100
AcDbText
 73
     2
  0
POINT
  5
512
330
6F
100
AcDbEntity
  8
DEFPOINTS
  6
ByBlock
 62
     0
100
AcDbPoint
 10
3.165375
 20
6.880799641746035
 30
0.0
  0
POINT
  5
513
330
6F
100
AcDbEntity
  8
DEFPOINTS
  6
ByBlock
 62
     0
100
AcDbPoint
 10
4.303374999999999
 20
6.880799641746034
 30
0.0
  0
POINT
  5
514
330
6F
100
AcDbEntity
  8
DEFPOINTS
  6
ByBlock
 62
     0
100
AcDbPoint
 10
4.303374999999999
 20
6.640625
 30
0.0
  0
LINE
  5
515
330
6F
100
AcDbEntity
  8
0
  6
ByBlock
 62
     1
100
AcDbLine
 10
4.454625
 20
7.144549641746035
 30
0.0
 11
4.730624999999999
 21
7.144549641746035
 31
0.0
  0
LINE
  5
516
330
6F
100
AcDbEntity
  8
0
  6
ByBlock
 62
     1
100
AcDbLine
 10
4.303374999999999
 20
6.849549641746034
 30
0.0
 11
4.730624999999999
 21
6.849549641746034
 31
0.0
  0
LINE
  5
517
330
6F
100
AcDbEntity
  8
0
  6
ByBlock
 62
     1
100
AcDbLine
 10
4.640625
 20
7.234549641746035
 30
0.0
 11
4.640625
 21
7.324549641746035
 31
0.0
  0
LINE
  5
518
330
6F
100
AcDbEntity
  8
0
  6
ByBlock
 62
     1
100
AcDbLine
 10
4.640625
 20
6.759549641746034
 30
0.0
 11
4.640625
 21
6.669549641746034
 31
0.0
  0
LINE
  5
519
330
6F
100
AcDbEntity
  8
0
  6
ByBlock
 62
     1
100
AcDbLine
 10
4.640625
 20
6.669549641746034
 30
0.0
 11
4.730624999999999
 21
6.669549641746034
 31
0.0
  0
SOLID
  5
51A
330
6F
100
AcDbEntity
  8
0
  6
ByBlock
 62
     1
100
AcDbTrace
 10
4.625625
 20
7.234549641746035
 30
0.0
 11
4.655624999999999
 21
7.234549641746035
 31
0.0
 12
4.640625
 22
7.144549641746035
 32
0.0
 13
4.640625
 23
7.144549641746035
 33
0.0
  0
SOLID
  5
51B
330
6F
100
AcDbEntity
  8
0
  6
ByBlock
 62
     1
100
AcDbTrace
 10
4.625625
 20
6.759549641746034
 30
0.0
 11
4.655624999999999
 21
6.759549641746034
 31
0.0
 12
4.640625
 22
6.849549641746034
 32
0.0
 13
4.640625
 23
6.849549641746034
 33
0.0
  0
TEXT
  5
51C
330
6F
100
AcDbEntity
  8
0
  6
ByBlock
 62
     1
100
AcDbText
 10
4.775624999999999
 20
6.624549641746035
 30
0.0
 40
0.09
  1
0.295"
 72
     1
 11
4.985624999999999
 21
6.669549641746034
 31
0.0
100
AcDbText
 73
     2
  0
POINT
  5
51D
330
6F
100
AcDbEntity
  8
DEFPOINTS
  6
ByBlock
 62
     0
100
AcDbPoint
 10
4.423375
 20
7.144549641746035
 30
0.0
  0
POINT
  5
51E
330
6F
100
AcDbEntity
  8
DEFPOINTS
  6
ByBlock
 62
     0
100
AcDbPoint
 10
4.272124999999999
 20
6.849549641746034
 30
0.0
  0
POINT
  5
51F
330
6F
100
AcDbEntity
  8
DEFPOINTS
  6
ByBlock
 62
     0
100
AcDbPoint
 10
4.640625
 20
6.849549641746034
 30
0.0
  0
TEXT
  5
520
330
6F
100
AcDbEntity
  8
0
  6
ByBlock
 62
     1
100
AcDbText
 10
2.275267857142857
 20
7.138924641746035
 30
0.0
 40
0.09
  1
(1mm)
 72
     1
 11
2.483125
 21
7.183924641746035
 31
0.0
100
AcDbText
 73
     2
  0
TEXT
  5
521
330
6F
100
AcDbEntity
  8
0
  6
ByBlock
 62
     1
100
AcDbText
 10
3.475089285714285
 20
7.29875
 30
0.0
 40
0.09
  1
(35mm)
 72
     1
 11
3.734375
 21
7.34375
 31
0.0
100
AcDbText
 73
     2
  0
TEXT
  5
522
330
6F
100
AcDbEntity
  8
0
  6
ByBlock
 62
     1
100
AcDbText
 10
3.475089285714285
 20
6.455
 30
0.0
 40
0.09
  1
(27mm)
 72
     1
 11
3.734374999999999
 21
6.5
 31
0.0
100
AcDbText
 73
     2
  0
TEXT
  5
523
330
6F
100
AcDbEntity
  8
0
  6
ByBlock
 62
     1
100
AcDbText
 10
4.704910714285714
 20
6.483924641746035
 30
0.0
 40
0.09
  1
(7.5mm)
 72
     1
 11
4.985624999999999
 21
6.528924641746034
 31
0.0
100
AcDbText
 73
     2
  0
INSERT
  5
524
330
6F
100
AcDbEntity
  8
2
100
AcDbBlockReference
  2
*X1
 10
0.0
 20
0.0
 30
0.0
1001
ACAD
1000
HATCH
1002
{
1070
    16
1000
ANSI31
1040
0.4
1040
0.0
1002
}
  0
ARC
  5
525
330
6F
100
AcDbEntity
  8
3
100
AcDbCircle
 10
6.704225
 20
3.578125
 30
0.0
 40
0.10235
100
AcDbArc
 50
90.0
 51
270.0
  0
ARC
  5
526
330
6F
100
AcDbEntity
  8
3
100
AcDbCircle
 10
7.483524999999999
 20
3.578125
 30
0.0
 40
0.10235
100
AcDbArc
 50
270.0
 51
90.0
  0
LINE
  5
527
330
6F
100
AcDbEntity
  8
3
100
AcDbLine
 10
6.704225
 20
3.680474999999999
 30
0.0
 11
7.483524999999999
 21
3.680474999999999
 31
0.0
  0
LINE
  5
528
330
6F
100
AcDbEntity
  8
3
100
AcDbLine
 10
6.704225
 20
3.475775
 30
0.0
 11
7.483524999999999
 21
3.475775
 31
0.0
  0
LINE
  5
529
330
6F
100
AcDbEntity
  8
3
100
AcDbLine
 10
5.287225
 20
3.680474999999999
 30
0.0
 11
6.066524999999999
 21
3.680474999999999
 31
0.0
  0
LINE
  5
52A
330
6F
100
AcDbEntity
  8
3
100
AcDbLine
 10
5.287225
 20
3.475775
 30
0.0
 11
6.066524999999999
 21
3.475775
 31
0.0
  0
ARC
  5
52B
330
6F
100
AcDbEntity
  8
3
100
AcDbCircle
 10
5.287225
 20
3.578125
 30
0.0
 40
0.10235
100
AcDbArc
 50
90.0
 51
270.0
  0
ARC
  5
52C
330
6F
100
AcDbEntity
  8
3
100
AcDbCircle
 10
6.066524999999999
 20
3.578125
 30
0.0
 40
0.10235
100
AcDbArc
 50
270.0
 51
90.0
  0
LINE
  5
52D
330
6F
100
AcDbEntity
  8
3
100
AcDbLine
 10
8.121224999999999
 20
3.680474999999999
 30
0.0
 11
8.900524999999998
 21
3.680474999999999
 31
0.0
  0
LINE
  5
52E
330
6F
100
AcDbEntity
  8
3
100
AcDbLine
 10
8.121224999999999
 20
3.475775
 30
0.0
 11
8.900524999999998
 21
3.475775
 31
0.0
  0
ARC
  5
52F
330
6F
100
AcDbEntity
  8
3
100
AcDbCircle
 10
8.121224999999999
 20
3.578125
 30
0.0
 40
0.10235
100
AcDbArc
 50
90.0
 51
270.0
  0
ARC
  5
530
330
6F
100
AcDbEntity
  8
3
100
AcDbCircle
 10
8.900524999999998
 20
3.578125
 30
0.0
 40
0.10235
100
AcDbArc
 50
270.0
 51
90.0
  0
LINE
  5
531
330
6F
100
AcDbEntity
  8
3
100
AcDbLine
 10
9.538224999999998
 20
3.680474999999999
 30
0.0
 11
9.92417075
 21
3.680474999999999
 31
0.0
  0
ARC
  5
532
330
6F
100
AcDbEntity
  8
3
100
AcDbCircle
 10
9.538224999999998
 20
3.578125
 30
0.0
 40
0.10235
100
AcDbArc
 50
90.0
 51
238.3673623082597
  0
LINE
  5
533
330
6F
100
AcDbEntity
  8
3
100
AcDbLine
 10
4.246141749999999
 20
3.475775
 30
0.0
 11
4.649524999999999
 21
3.475775
 31
0.0
  0
ARC
  5
534
330
6F
100
AcDbEntity
  8
3
100
AcDbCircle
 10
4.649524999999999
 20
3.578125
 30
0.0
 40
0.10235
100
AcDbArc
 50
270.0
 51
63.2382078068879
  0
LINE
  5
535
330
6F
100
AcDbEntity
  8
0
  6
ByBlock
 62
     1
100
AcDbLine
 10
5.255975
 20
3.680474999999999
 30
0.0
 11
4.9725
 21
3.680474999999999
 31
0.0
  0
LINE
  5
536
330
6F
100
AcDbEntity
  8
0
  6
ByBlock
 62
     1
100
AcDbLine
 10
5.255975
 20
3.475775
 30
0.0
 11
4.9725
 21
3.475775
 31
0.0
  0
LINE
  5
537
330
6F
100
AcDbEntity
  8
0
  6
ByBlock
 62
     1
100
AcDbLine
 10
5.0625
 20
3.770474999999999
 30
0.0
 11
5.0625
 21
3.860475
 31
0.0
  0
LINE
  5
538
330
6F
100
AcDbEntity
  8
0
  6
ByBlock
 62
     1
100
AcDbLine
 10
5.0625
 20
3.385775
 30
0.0
 11
5.0625
 21
2.702024999999999
 31
0.0
  0
LINE
  5
539
330
6F
100
AcDbEntity
  8
0
  6
ByBlock
 62
     1
100
AcDbLine
 10
5.0625
 20
2.702024999999999
 30
0.0
 11
4.9725
 21
2.702024999999999
 31
0.0
  0
SOLID
  5
53A
330
6F
100
AcDbEntity
  8
0
  6
ByBlock
 62
     1
100
AcDbTrace
 10
5.0475
 20
3.770474999999999
 30
0.0
 11
5.077499999999999
 21
3.770474999999999
 31
0.0
 12
5.0625
 22
3.680474999999999
 32
0.0
 13
5.0625
 23
3.680474999999999
 33
0.0
  0
SOLID
  5
53B
330
6F
100
AcDbEntity
  8
0
  6
ByBlock
 62
     1
100
AcDbTrace
 10
5.0475
 20
3.385775
 30
0.0
 11
5.077499999999999
 21
3.385775
 31
0.0
 12
5.0625
 22
3.475775
 32
0.0
 13
5.0625
 23
3.475775
 33
0.0
  0
TEXT
  5
53C
330
6F
100
AcDbEntity
  8
0
  6
ByBlock
 62
     1
100
AcDbText
 10
4.5075
 20
2.657024999999999
 30
0.0
 40
0.09
  1
0.205"
 72
     1
 11
4.7175
 21
2.702024999999999
 31
0.0
100
AcDbText
 73
     2
  0
POINT
  5
53D
330
6F
100
AcDbEntity
  8
DEFPOINTS
  6
ByBlock
 62
     0
100
AcDbPoint
 10
5.287225
 20
3.680474999999999
 30
0.0
  0
POINT
  5
53E
330
6F
100
AcDbEntity
  8
DEFPOINTS
  6
ByBlock
 62
     0
100
AcDbPoint
 10
5.287225
 20
3.475775
 30
0.0
  0
POINT
  5
53F
330
6F
100
AcDbEntity
  8
DEFPOINTS
  6
ByBlock
 62
     0
100
AcDbPoint
 10
5.0625
 20
3.475775
 30
0.0
  0
LINE
  5
540
330
6F
100
AcDbEntity
  8
0
  6
ByBlock
 62
     1
100
AcDbLine
 10
7.093874999999999
 20
3.711724999999999
 30
0.0
 11
7.093874999999999
 21
5.183749999999999
 31
0.0
  0
LINE
  5
541
330
6F
100
AcDbEntity
  8
0
  6
ByBlock
 62
     1
100
AcDbLine
 10
8.510874999999998
 20
3.711724999999999
 30
0.0
 11
8.510874999999998
 21
5.183749999999999
 31
0.0
  0
LINE
  5
542
330
6F
100
AcDbEntity
  8
0
  6
ByBlock
 62
     1
100
AcDbLine
 10
7.183874999999999
 20
5.09375
 30
0.0
 11
7.564517857142856
 21
5.09375
 31
0.0
  0
LINE
  5
543
330
6F
100
AcDbEntity
  8
0
  6
ByBlock
 62
     1
100
AcDbLine
 10
8.420874999999998
 20
5.09375
 30
0.0
 11
8.040232142857142
 21
5.09375
 31
0.0
  0
SOLID
  5
544
330
6F
100
AcDbEntity
  8
0
  6
ByBlock
 62
     1
100
AcDbTrace
 10
7.183874999999999
 20
5.108749999999999
 30
0.0
 11
7.183874999999999
 21
5.07875
 31
0.0
 12
7.093874999999999
 22
5.09375
 32
0.0
 13
7.093874999999999
 23
5.09375
 33
0.0
  0
SOLID
  5
545
330
6F
100
AcDbEntity
  8
0
  6
ByBlock
 62
     1
100
AcDbTrace
 10
8.420874999999998
 20
5.108749999999999
 30
0.0
 11
8.420874999999998
 21
5.07875
 31
0.0
 12
8.510874999999998
 22
5.09375
 32
0.0
 13
8.510874999999998
 23
5.09375
 33
0.0
  0
TEXT
  5
546
330
6F
100
AcDbEntity
  8
0
  6
ByBlock
 62
     1
100
AcDbText
 10
7.609517857142856
 20
5.04875
 30
0.0
 40
0.09
  1
1.417"
 72
     1
 11
7.802374999999999
 21
5.09375
 31
0.0
100
AcDbText
 73
     2
  0
POINT
  5
547
330
6F
100
AcDbEntity
  8
DEFPOINTS
  6
ByBlock
 62
     0
100
AcDbPoint
 10
7.093874999999999
 20
3.680474999999999
 30
0.0
  0
POINT
  5
548
330
6F
100
AcDbEntity
  8
DEFPOINTS
  6
ByBlock
 62
     0
100
AcDbPoint
 10
8.510874999999998
 20
3.680474999999999
 30
0.0
  0
POINT
  5
549
330
6F
100
AcDbEntity
  8
DEFPOINTS
  6
ByBlock
 62
     0
100
AcDbPoint
 10
8.510874999999998
 20
5.09375
 30
0.0
  0
LINE
  5
54A
330
6F
100
AcDbEntity
  8
0
  6
ByBlock
 62
     1
100
AcDbLine
 10
5.676874999999999
 20
3.711724999999999
 30
0.0
 11
5.676874999999999
 21
4.34375
 31
0.0
  0
LINE
  5
54B
330
6F
100
AcDbEntity
  8
0
  6
ByBlock
 62
     1
100
AcDbLine
 10
7.093874999999999
 20
3.711724999999999
 30
0.0
 11
7.093874999999999
 21
5.183749999999999
 31
0.0
  0
LINE
  5
54C
330
6F
100
AcDbEntity
  8
0
  6
ByBlock
 62
     1
100
AcDbLine
 10
5.766874999999999
 20
5.09375
 30
0.0
 11
6.147517857142856
 21
5.09375
 31
0.0
  0
LINE
  5
54D
330
6F
100
AcDbEntity
  8
0
  6
ByBlock
 62
     1
100
AcDbLine
 10
7.003874999999999
 20
5.09375
 30
0.0
 11
6.623232142857142
 21
5.09375
 31
0.0
  0
SOLID
  5
54E
330
6F
100
AcDbEntity
  8
0
  6
ByBlock
 62
     1
100
AcDbTrace
 10
5.766874999999999
 20
5.108749999999999
 30
0.0
 11
5.766874999999999
 21
5.07875
 31
0.0
 12
5.676874999999999
 22
5.09375
 32
0.0
 13
5.676874999999999
 23
5.09375
 33
0.0
  0
SOLID
  5
54F
330
6F
100
AcDbEntity
  8
0
  6
ByBlock
 62
     1
100
AcDbTrace
 10
7.003874999999999
 20
5.108749999999999
 30
0.0
 11
7.003874999999999
 21
5.07875
 31
0.0
 12
7.093874999999999
 22
5.09375
 32
0.0
 13
7.093874999999999
 23
5.09375
 33
0.0
  0
TEXT
  5
550
330
6F
100
AcDbEntity
  8
0
  6
ByBlock
 62
     1
100
AcDbText
 10
6.192517857142856
 20
5.04875
 30
0.0
 40
0.09
  1
1.417"
 72
     1
 11
6.385374999999999
 21
5.09375
 31
0.0
100
AcDbText
 73
     2
  0
POINT
  5
551
330
6F
100
AcDbEntity
  8
DEFPOINTS
  6
ByBlock
 62
     0
100
AcDbPoint
 10
5.676874999999999
 20
3.680474999999999
 30
0.0
  0
POINT
  5
552
330
6F
100
AcDbEntity
  8
DEFPOINTS
  6
ByBlock
 62
     0
100
AcDbPoint
 10
7.093874999999999
 20
3.680474999999999
 30
0.0
  0
POINT
  5
553
330
6F
100
AcDbEntity
  8
DEFPOINTS
  6
ByBlock
 62
     0
100
AcDbPoint
 10
7.093874999999999
 20
5.09375
 30
0.0
  0
LINE
  5
554
330
6F
100
AcDbEntity
  8
0
  6
ByBlock
 62
     1
100
AcDbLine
 10
6.168874999999999
 20
3.609375
 30
0.0
 11
6.168874999999999
 21
4.683749999999999
 31
0.0
  0
LINE
  5
555
330
6F
100
AcDbEntity
  8
0
  6
ByBlock
 62
     1
100
AcDbLine
 10
5.184874999999999
 20
3.609375
 30
0.0
 11
5.184874999999999
 21
4.683749999999999
 31
0.0
  0
LINE
  5
556
330
6F
100
AcDbEntity
  8
0
  6
ByBlock
 62
     1
100
AcDbLine
 10
6.078875
 20
4.59375
 30
0.0
 11
5.931874999999999
 21
4.59375
 31
0.0
  0
LINE
  5
557
330
6F
100
AcDbEntity
  8
0
  6
ByBlock
 62
     1
100
AcDbLine
 10
5.274874999999999
 20
4.59375
 30
0.0
 11
5.421875
 21
4.59375
 31
0.0
  0
SOLID
  5
558
330
6F
100
AcDbEntity
  8
0
  6
ByBlock
 62
     1
100
AcDbTrace
 10
6.078875
 20
4.608749999999999
 30
0.0
 11
6.078875
 21
4.57875
 31
0.0
 12
6.168874999999999
 22
4.59375
 32
0.0
 13
6.168874999999999
 23
4.59375
 33
0.0
  0
SOLID
  5
559
330
6F
100
AcDbEntity
  8
0
  6
ByBlock
 62
     1
100
AcDbTrace
 10
5.274874999999999
 20
4.608749999999999
 30
0.0
 11
5.274874999999999
 21
4.57875
 31
0.0
 12
5.184874999999999
 22
4.59375
 32
0.0
 13
5.184874999999999
 23
4.59375
 33
0.0
  0
TEXT
  5
55A
330
6F
100
AcDbEntity
  8
0
  6
ByBlock
 62
     1
100
AcDbText
 10
5.466874999999999
 20
4.54875
 30
0.0
 40
0.09
  1
0.984"
 72
     1
 11
5.676874999999999
 21
4.59375
 31
0.0
100
AcDbText
 73
     2
  0
POINT
  5
55B
330
6F
100
AcDbEntity
  8
DEFPOINTS
  6
ByBlock
 62
     0
100
AcDbPoint
 10
6.168874999999999
 20
3.578125
 30
0.0
  0
POINT
  5
55C
330
6F
100
AcDbEntity
  8
DEFPOINTS
  6
ByBlock
 62
     0
100
AcDbPoint
 10
5.184874999999999
 20
3.578125
 30
0.0
  0
POINT
  5
55D
330
6F
100
AcDbEntity
  8
DEFPOINTS
  6
ByBlock
 62
     0
100
AcDbPoint
 10
5.184874999999999
 20
4.59375
 30
0.0
  0
LINE
  5
55E
330
6F
100
AcDbEntity
  8
0
  6
ByBlock
 62
     1
100
AcDbLine
 10
5.676874999999999
 20
4.71875
 30
0.0
 11
5.676874999999999
 21
5.183749999999999
 31
0.0
  0
TEXT
  5
55F
330
6F
100
AcDbEntity
  8
0
  6
ByBlock
 62
     1
100
AcDbText
 10
5.417589285714285
 20
4.408125
 30
0.0
 40
0.09
  1
(25mm)
 72
     1
 11
5.676874999999999
 21
4.453125
 31
0.0
100
AcDbText
 73
     2
  0
TEXT
  5
560
330
6F
100
AcDbEntity
  8
0
  6
ByBlock
 62
     1
100
AcDbText
 10
6.126089285714285
 20
4.908125
 30
0.0
 40
0.09
  1
(36mm)
 72
     1
 11
6.385374999999999
 21
4.953125
 31
0.0
100
AcDbText
 73
     2
  0
TEXT
  5
561
330
6F
100
AcDbEntity
  8
0
  6
ByBlock
 62
     1
100
AcDbText
 10
7.543089285714285
 20
4.908125
 30
0.0
 40
0.09
  1
(36mm)
 72
     1
 11
7.802374999999999
 21
4.953125
 31
0.0
100
AcDbText
 73
     2
  0
TEXT
  5
562
330
6F
100
AcDbEntity
  8
0
  6
ByBlock
 62
     1
100
AcDbText
 10
4.436785714285714
 20
2.516399999999999
 30
0.0
 40
0.09
  1
(5.2mm)
 72
     1
 11
4.7175
 21
2.561399999999999
 31
0.0
100
AcDbText
 73
     2
  0
ENDSEC
  0
SECTION
  2
OBJECTS
  0
DICTIONARY
  5
C
330
0
100
AcDbDictionary
281
     1
  3
ACAD_CIP_PREVIOUS_PRODUCT_INFO
350
565
  3
ACAD_COLOR
350
62
  3
ACAD_DETAILVIEWSTYLE
350
69
  3
ACAD_GROUP
350
D
  3
ACAD_LAYOUT
350
61
  3
ACAD_MATERIAL
350
10
  3
ACAD_MLEADERSTYLE
350
65
  3
ACAD_MLINESTYLE
350
5E
  3
ACAD_PLOTSETTINGS
350
60
  3
ACAD_PLOTSTYLENAME
350
E
  3
ACAD_SCALELIST
350
42
  3
ACAD_SECTIONVIEWSTYLE
350
67
  3
ACAD_TABLESTYLE
350
63
  3
ACAD_VISUALSTYLE
350
29
  3
ACDB_RECOMPOSE_DATA
350
5C5
  3
AcDbVariableDictionary
350
5B8
  0
XRECORD
  5
565
102
{ACAD_REACTORS
330
C
102
}
330
C
100
AcDbXrecord
280
     1
300
ACAD_E
300
2018
300
ACAD_E_F_S
  0
DICTIONARY
  5
62
102
{ACAD_REACTORS
330
C
102
}
330
C
100
AcDbDictionary
281
     1
  0
DICTIONARY
  5
69
102
{ACAD_REACTORS
330
C
102
}
330
C
100
AcDbDictionary
281
     1
  3
Imperial24
350
6A
  0
DICTIONARY
  5
D
102
{ACAD_REACTORS
330
C
102
}
330
C
100
AcDbDictionary
281
     1
  0
DICTIONARY
  5
61
102
{ACAD_REACTORS
330
C
102
}
330
C
100
AcDbDictionary
281
     1
  3
Layout1
350
6E
  3
Model
350
72
  0
DICTIONARY
  5
10
102
{ACAD_REACTORS
330
C
102
}
330
C
100
AcDbDictionary
281
     1
  3
ByBlock
350
19
  3
ByLayer
350
11
  3
Global
350
21
  0
DICTIONARY
  5
65
102
{ACAD_REACTORS
330
C
102
}
330
C
100
AcDbDictionary
281
     1
  3
Standard
350
66
  0
DICTIONARY
  5
5E
102
{ACAD_REACTORS
330
C
102
}
330
C
100
AcDbDictionary
281
     1
  3
Standard
350
5F
  0
DICTIONARY
  5
60
102
{ACAD_REACTORS
330
C
102
}
330
C
100
AcDbDictionary
281
     1
  0
ACDBDICTIONARYWDFLT
  5
E
102
{ACAD_REACTORS
330
C
102
}
330
C
100
AcDbDictionary
281
     1
  3
Normal
350
F
100
AcDbDictionaryWithDefault
340
F
  0
DICTIONARY
  5
42
102
{ACAD_REACTORS
330
C
102
}
330
C
100
AcDbDictionary
281
     1
  3
A0
350
43
  3
A1
350
44
  3
A2
350
45
  3
A3
350
46
  3
A4
350
47
  3
A5
350
48
  3
A6
350
49
  3
A7
350
4A
  3
A8
350
4B
  3
A9
350
4C
  3
B0
350
4D
  3
B1
350
4E
  3
B2
350
4F
  3
B3
350
50
  3
B4
350
51
  3
B5
350
52
  3
B6
350
53
  0
DICTIONARY
  5
67
102
{ACAD_REACTORS
330
C
102
}
330
C
100
AcDbDictionary
281
     1
  3
Imperial24
350
68
  0
DICTIONARY
  5
63
102
{ACAD_REACTORS
330
C
102
}
330
C
100
AcDbDictionary
281
     1
  3
Standard
350
64
  0
DICTIONARY
  5
29
102
{ACAD_REACTORS
330
C
102
}
330
C
100
AcDbDictionary
281
     1
  3
2dWireframe
350
2F
  3
Basic
350
2E
  3
Brighten
350
35
  3
ColorChange
350
39
  3
Conceptual
350
32
  3
Dim
350
34
  3
EdgeColorOff
350
41
  3
Facepattern
350
38
  3
Flat
350
2A
  3
FlatWithEdges
350
2B
  3
Gouraud
350
2C
  3
GouraudWithEdges
350
2D
  3
Hidden
350
31
  3
JitterOff
350
3F
  3
Linepattern
350
37
  3
OverhangOff
350
40
  3
Realistic
350
33
  3
Shaded
350
3E
  3
Shaded with edges
350
3D
  3
Shades of Gray
350
3A
  3
Sketchy
350
3B
  3
Thicken
350
36
  3
Wireframe
350
30
  3
X-Ray
350
3C
  0
XRECORD
  5
5C5
102
{ACAD_REACTORS
330
C
102
}
330
C
100
AcDbXrecord
280
     1
 90
        1
330
64
  0
DICTIONARY
  5
5B8
102
{ACAD_REACTORS
330
C
102
}
330
C
100
AcDbDictionary
281
     1
  3
CANNOSCALE
350
5BE
  3
CMLEADERSTYLE
350
5BA
  3
CTABLESTYLE
350
5B9
  3
CVIEWDETAILSTYLE
350
5BB
  3
CVIEWSECTIONSTYLE
350
5BC
  3
LAYEREVAL
350
5C0
  3
LAYERNOTIFY
350
5C1
  3
LIGHTINGUNITS
350
5BF
  3
MSLTSCALE
350
5BD
  3
XCLIPFRAME
350
5C2
  0
ACDBDETAILVIEWSTYLE
  5
6A
102
{ACAD_XDICTIONARY
360
5FF
102
}
102
{ACAD_REACTORS
330
69
102
}
330
69
100
AcDbModelDocViewStyle
 70
     0
  3
Imperial24
290
     0
100
AcDbDetailViewStyle
 70
     0
 71
     0
 90
        3
 71
     1
340
55
 62
   256
 40
0.24
340
0
 62
   256
 40
0.24
300

 40
0.36
280
     3
 71
     2
340
5C
 90
       25
 62
   256
 71
     3
340
55
 62
   256
 40
0.24
 90
        1
 40
0.75
 90
        1
300
%<\AcVar ViewType \f "%tc1">% %<\AcVar ViewDetailId>%\PSCALE %<\AcVar ViewScale \f "%sn">%
 71
     4
340
5C
 90
       25
 62
   256
340
5C
 90
       25
 62
   256
280
     0
  0
LAYOUT
  5
6E
102
{ACAD_REACTORS
330
61
102
}
330
61
100
AcDbPlotSettings
  1

  2
Microsoft Print to PDF
  4

  6

 40
0.0
 41
0.0
 42
0.0
 43
0.0
 44
0.0
 45
0.0
 46
0.0
 47
0.0
 48
0.0
 49
0.0
140
0.0
141
0.0
142
1.0
143
1.0
 70
   688
 72
     0
 73
     0
 74
     5
  7

 75
    16
147
1.0
 76
     0
 77
     2
 78
   300
148
0.0
149
0.0
100
AcDbLayout
  1
Layout1
 70
     0
 71
     1
 10
0.0
 20
0.0
 11
12.0
 21
9.0
 12
0.0
 22
0.0
 32
0.0
 14
1.000000000000000E+20
 24
1.000000000000000E+20
 34
1.000000000000000E+20
 15
-1.000000000000000E+20
 25
-1.000000000000000E+20
 35
-1.000000000000000E+20
146
0.0
 13
0.0
 23
0.0
 33
0.0
 16
1.0
 26
0.0
 36
0.0
 17
0.0
 27
1.0
 37
0.0
 76
     0
330
6B
  0
LAYOUT
  5
72
102
{ACAD_REACTORS
330
61
102
}
330
61
100
AcDbPlotSettings
  1

  2
Microsoft Print to PDF
  4

  6

 40
0.0
 41
0.0
 42
0.0
 43
0.0
 44
0.0
 45
0.0
 46
0.0
 47
0.0
 48
0.0
 49
0.0
140
0.0
141
0.0
142
1.0
143
1.0
 70
  1712
 72
     0
 73
     0
 74
     0
  7

 75
     0
147
1.0
 76
     0
 77
     2
 78
   300
148
0.0
149
0.0
100
AcDbLayout
  1
Model
 70
     1
 71
     0
 10
0.0
 20
0.0
 11
12.0
 21
9.0
 12
0.0
 22
0.0
 32
0.0
 14
0.0
 24
0.0
 34
0.0
 15
0.0
 25
0.0
 35
0.0
146
0.0
 13
0.0
 23
0.0
 33
0.0
 16
1.0
 26
0.0
 36
0.0
 17
0.0
 27
1.0
 37
0.0
 76
     0
330
6F
331
78
  0
MATERIAL
  5
19
102
{ACAD_XDICTIONARY
360
1A
102
}
102
{ACAD_REACTORS
330
10
102
}
330
10
100
AcDbMaterial
  1
ByBlock
 72
     0
 43
0.0208333333333333
 43
0.0
 43
0.0
 43
0.0
 43
0.0
 43
0.0208333333333333
 43
0.0
 43
0.0
 43
0.0
 43
0.0
 43
1.0
 43
0.0
 43
0.0
 43
0.0
 43
0.0
 43
1.0
 77
     0
 47
0.0208333333333333
 47
0.0
 47
0.0
 47
0.0
 47
0.0
 47
0.0208333333333333
 47
0.0
 47
0.0
 47
0.0
 47
0.0
 47
1.0
 47
0.0
 47
0.0
 47
0.0
 47
0.0
 47
1.0
171
     0
 49
0.0208333333333333
 49
0.0
 49
0.0
 49
0.0
 49
0.0
 49
0.0208333333333333
 49
0.0
 49
0.0
 49
0.0
 49
0.0
 49
1.0
 49
0.0
 49
0.0
 49
0.0
 49
0.0
 49
1.0
175
     0
142
0.0208333333333333
142
0.0
142
0.0
142
0.0
142
0.0
142
0.0208333333333333
142
0.0
142
0.0
142
0.0
142
0.0
142
1.0
142
0.0
142
0.0
142
0.0
142
0.0
142
1.0
179
     0
144
0.0208333333333333
144
0.0
144
0.0
144
0.0
144
0.0
144
0.0208333333333333
144
0.0
144
0.0
144
0.0
144
0.0
144
1.0
144
0.0
144
0.0
144
0.0
144
0.0
144
1.0
147
0.0208333333333333
147
0.0
147
0.0
147
0.0
147
0.0
147
0.0208333333333333
147
0.0
147
0.0
147
0.0
147
0.0
147
1.0
147
0.0
147
0.0
147
0.0
147
0.0
147
1.0
  0
MATERIAL
  5
11
102
{ACAD_XDICTIONARY
360
12
102
}
102
{ACAD_REACTORS
330
10
102
}
330
10
100
AcDbMaterial
  1
ByLayer
 72
     0
 43
0.0208333333333333
 43
0.0
 43
0.0
 43
0.0
 43
0.0
 43
0.0208333333333333
 43
0.0
 43
0.0
 43
0.0
 43
0.0
 43
1.0
 43
0.0
 43
0.0
 43
0.0
 43
0.0
 43
1.0
 77
     0
 47
0.0208333333333333
 47
0.0
 47
0.0
 47
0.0
 47
0.0
 47
0.0208333333333333
 47
0.0
 47
0.0
 47
0.0
 47
0.0
 47
1.0
 47
0.0
 47
0.0
 47
0.0
 47
0.0
 47
1.0
171
     0
 49
0.0208333333333333
 49
0.0
 49
0.0
 49
0.0
 49
0.0
 49
0.0208333333333333
 49
0.0
 49
0.0
 49
0.0
 49
0.0
 49
1.0
 49
0.0
 49
0.0
 49
0.0
 49
0.0
 49
1.0
175
     0
142
0.0208333333333333
142
0.0
142
0.0
142
0.0
142
0.0
142
0.0208333333333333
142
0.0
142
0.0
142
0.0
142
0.0
142
1.0
142
0.0
142
0.0
142
0.0
142
0.0
142
1.0
179
     0
144
0.0208333333333333
144
0.0
144
0.0
144
0.0
144
0.0
144
0.0208333333333333
144
0.0
144
0.0
144
0.0
144
0.0
144
1.0
144
0.0
144
0.0
144
0.0
144
0.0
144
1.0
147
0.0208333333333333
147
0.0
147
0.0
147
0.0
147
0.0
147
0.0208333333333333
147
0.0
147
0.0
147
0.0
147
0.0
147
1.0
147
0.0
147
0.0
147
0.0
147
0.0
147
1.0
  0
MATERIAL
  5
21
102
{ACAD_XDICTIONARY
360
22
102
}
102
{ACAD_REACTORS
330
10
102
}
330
10
100
AcDbMaterial
  1
Global
 72
     0
 43
0.0208333333333333
 43
0.0
 43
0.0
 43
0.0
 43
0.0
 43
0.0208333333333333
 43
0.0
 43
0.0
 43
0.0
 43
0.0
 43
1.0
 43
0.0
 43
0.0
 43
0.0
 43
0.0
 43
1.0
 77
     0
 47
0.0208333333333333
 47
0.0
 47
0.0
 47
0.0
 47
0.0
 47
0.0208333333333333
 47
0.0
 47
0.0
 47
0.0
 47
0.0
 47
1.0
 47
0.0
 47
0.0
 47
0.0
 47
0.0
 47
1.0
171
     0
 49
0.0208333333333333
 49
0.0
 49
0.0
 49
0.0
 49
0.0
 49
0.0208333333333333
 49
0.0
 49
0.0
 49
0.0
 49
0.0
 49
1.0
 49
0.0
 49
0.0
 49
0.0
 49
0.0
 49
1.0
175
     0
142
0.0208333333333333
142
0.0
142
0.0
142
0.0
142
0.0
142
0.0208333333333333
142
0.0
142
0.0
142
0.0
142
0.0
142
1.0
142
0.0
142
0.0
142
0.0
142
0.0
142
1.0
179
     0
144
0.0208333333333333
144
0.0
144
0.0
144
0.0
144
0.0
144
0.0208333333333333
144
0.0
144
0.0
144
0.0
144
0.0
144
1.0
144
0.0
144
0.0
144
0.0
144
0.0
144
1.0
147
0.0208333333333333
147
0.0
147
0.0
147
0.0
147
0.0
147
0.0208333333333333
147
0.0
147
0.0
147
0.0
147
0.0
147
1.0
147
0.0
147
0.0
147
0.0
147
0.0
147
1.0
  0
MLEADERSTYLE
  5
66
102
{ACAD_XDICTIONARY
360
5FB
102
}
102
{ACAD_REACTORS
330
65
102
}
330
65
100
AcDbMLeaderStyle
170
     2
171
     1
172
     0
 90
        2
 40
0.0
 41
0.0
173
     1
 91
-1056964608
340
5A
 92
       -2
290
     1
 42
0.09
291
     1
 43
0.36
  3
Standard
 44
0.18
300

342
55
174
     1
178
     6
175
     1
176
     0
 93
-1056964608
 45
0.18
292
     0
297
     0
 46
0.18
 94
-1056964608
 47
1.0
 49
1.0
140
1.0
293
     1
141
0.0
294
     1
177
     0
142
1.0
295
     0
296
     0
143
0.125
1001
ACAD_MLEADERVER
1070
     2
  0
MLINESTYLE
  5
5F
102
{ACAD_REACTORS
330
5E
102
}
330
5E
100
AcDbMlineStyle
  2
STANDARD
 70
     0
  3

 62
   256
 51
90.0
 52
90.0
 71
     2
 49
0.5
 62
   256
  6
BYLAYER
 49
-0.5
 62
   256
  6
BYLAYER
  0
ACDBPLACEHOLDER
  5
F
102
{ACAD_REACTORS
330
E
102
}
330
E
  0
SCALE
  5
43
102
{ACAD_REACTORS
330
42
102
}
330
42
100
AcDbScale
 70
     0
300
1:1
140
1.0
141
1.0
290
     1
  0
SCALE
  5
44
102
{ACAD_REACTORS
330
42
102
}
330
42
100
AcDbScale
 70
     0
300
1/128" = 1'-0"
140
0.0078125
141
12.0
290
     0
  0
SCALE
  5
45
102
{ACAD_REACTORS
330
42
102
}
330
42
100
AcDbScale
 70
     0
300
1/64" = 1'-0"
140
0.015625
141
12.0
290
     0
  0
SCALE
  5
46
102
{ACAD_REACTORS
330
42
102
}
330
42
100
AcDbScale
 70
     0
300
1/32" = 1'-0"
140
0.03125
141
12.0
290
     0
  0
SCALE
  5
47
102
{ACAD_REACTORS
330
42
102
}
330
42
100
AcDbScale
 70
     0
300
1/16" = 1'-0"
140
0.0625
141
12.0
290
     0
  0
SCALE
  5
48
102
{ACAD_REACTORS
330
42
102
}
330
42
100
AcDbScale
 70
     0
300
3/32" = 1'-0"
140
0.09375
141
12.0
290
     0
  0
SCALE
  5
49
102
{ACAD_REACTORS
330
42
102
}
330
42
100
AcDbScale
 70
     0
300
1/8" = 1'-0"
140
0.125
141
12.0
290
     0
  0
SCALE
  5
4A
102
{ACAD_REACTORS
330
42
102
}
330
42
100
AcDbScale
 70
     0
300
3/16" = 1'-0"
140
0.1875
141
12.0
290
     0
  0
SCALE
  5
4B
102
{ACAD_REACTORS
330
42
102
}
330
42
100
AcDbScale
 70
     0
300
1/4" = 1'-0"
140
0.25
141
12.0
290
     0
  0
SCALE
  5
4C
102
{ACAD_REACTORS
330
42
102
}
330
42
100
AcDbScale
 70
     0
300
3/8" = 1'-0"
140
0.375
141
12.0
290
     0
  0
SCALE
  5
4D
102
{ACAD_REACTORS
330
42
102
}
330
42
100
AcDbScale
 70
     0
300
1/2" = 1'-0"
140
0.5
141
12.0
290
     0
  0
SCALE
  5
4E
102
{ACAD_REACTORS
330
42
102
}
330
42
100
AcDbScale
 70
     0
300
3/4" = 1'-0"
140
0.75
141
12.0
290
     0
  0
SCALE
  5
4F
102
{ACAD_REACTORS
330
42
102
}
330
42
100
AcDbScale
 70
     0
300
1" = 1'-0"
140
1.0
141
12.0
290
     0
  0
SCALE
  5
50
102
{ACAD_REACTORS
330
42
102
}
330
42
100
AcDbScale
 70
     0
300
1-1/2" = 1'-0"
140
1.5
141
12.0
290
     0
  0
SCALE
  5
51
102
{ACAD_REACTORS
330
42
102
}
330
42
100
AcDbScale
 70
     0
300
3" = 1'-0"
140
3.0
141
12.0
290
     0
  0
SCALE
  5
52
102
{ACAD_REACTORS
330
42
102
}
330
42
100
AcDbScale
 70
     0
300
6" = 1'-0"
140
6.0
141
12.0
290
     0
  0
SCALE
  5
53
102
{ACAD_REACTORS
330
42
102
}
330
42
100
AcDbScale
 70
     0
300
1'-0" = 1'-0"
140
12.0
141
12.0
290
     0
  0
ACDBSECTIONVIEWSTYLE
  5
68
102
{ACAD_XDICTIONARY
360
5FD
102
}
102
{ACAD_REACTORS
330
67
102
}
330
67
100
AcDbModelDocViewStyle
 70
     0
  3
Imperial24
290
     0
100
AcDbSectionViewStyle
 70
     0
 71
     0
 90
       78
 71
     1
340
55
 62
   256
 40
0.24
340
0
340
0
 62
   256
 40
0.24
300
I, O, Q, S, X, Z
 40
0.48
 90
        3
 40
0.18
 90
        1
 71
     2
340
5C
 90
       25
 62
   256
340
5C
 90
       50
 62
   256
 40
0.24
 40
0.0
 40
0.24
 71
     3
340
55
 62
   256
 40
0.24
 90
        1
 40
0.75
 90
        1
300
%<\AcVar ViewType \f "%tc1">% %<\AcVar ViewSectionStartId>%-%<\AcVar ViewSectionEndId>%\PSCALE %<\AcVar ViewScale \f "%sn">%
 71
     4
 62
   256
 62
   257
300
ANSI31
 40
1.0
 90
        0
290
     0
290
     0
 90
        6
 40
0.0
 40
1.570796326794896
 40
0.2617993877991494
 40
1.308996938995747
 40
-0.2617993877991494
 40
1.832595714594046
  0
TABLESTYLE
  5
64
102
{ACAD_XDICTIONARY
360
5C3
102
}
102
{ACAD_REACTORS
330
63
102
}
330
63
100
AcDbTableStyle
  3
Standard
 70
     0
 71
     0
 40
0.06
 41
0.06
280
     0
281
     0
  7
STANDARD
140
0.18
170
     2
 62
     0
 63
     7
283
     0
274
    -2
284
     1
 64
     0
275
    -2
285
     1
 65
     0
276
    -2
286
     1
 66
     0
277
    -2
287
     1
 67
     0
278
    -2
288
     1
 68
     0
279
    -2
289
     1
 69
     0
  7
STANDARD
140
0.25
170
     5
 62
     0
 63
     7
283
     0
274
    -2
284
     1
 64
     0
275
    -2
285
     1
 65
     0
276
    -2
286
     1
 66
     0
277
    -2
287
     1
 67
     0
278
    -2
288
     1
 68
     0
279
    -2
289
     1
 69
     0
  7
STANDARD
140
0.18
170
     5
 62
     0
 63
     7
283
     0
274
    -2
284
     1
 64
     0
275
    -2
285
     1
 65
     0
276
    -2
286
     1
 66
     0
277
    -2
287
     1
 67
     0
278
    -2
288
     1
 68
     0
279
    -2
289
     1
 69
     0
  0
VISUALSTYLE
  5
2F
102
{ACAD_XDICTIONARY
360
5D3
102
}
102
{ACAD_REACTORS
330
29
102
}
330
29
100
AcDbVisualStyle
  2
2dWireframe
 70
     4
 71
     0
 72
     2
 73
     0
 90
        0
 40
-0.6
 41
-30.0
 62
     5
 63
     7
421
 16777215
 74
     1
 91
        4
 64
     7
 65
   257
 75
     1
175
     1
 42
1.0
 92
        0
 66
   257
 43
1.0
 76
     1
 77
     6
 78
     2
 67
     7
 79
     5
170
     0
171
     0
290
     0
174
     0
 93
        1
 44
0.0
173
     0
291
     0
 45
0.0
1001
ACAD
1000
AcDbSavedByObjectVersion
1070
     0
  0
VISUALSTYLE
  5
2E
102
{ACAD_XDICTIONARY
360
5D1
102
}
102
{ACAD_REACTORS
330
29
102
}
330
29
100
AcDbVisualStyle
  2
Basic
 70
     7
 71
     1
 72
     0
 73
     1
 90
        0
 40
-0.6
 41
-30.0
 62
     5
 63
     7
421
 16777215
 74
     0
 91
        4
 64
     7
 65
   257
 75
     1
175
     1
 42
1.0
 92
        8
 66
     7
 43
1.0
 76
     1
 77
     6
 78
     2
 67
     7
 79
     5
170
     0
171
     0
290
     0
174
     0
 93
        1
 44
0.0
173
     0
291
     1
 45
0.0
1001
ACAD
1000
AcDbSavedByObjectVersion
1070
     0
  0
VISUALSTYLE
  5
35
102
{ACAD_XDICTIONARY
360
5DF
102
}
102
{ACAD_REACTORS
330
29
102
}
330
29
100
AcDbVisualStyle
  2
Brighten
 70
    12
 71
     2
 72
     2
 73
     0
 90
        0
 40
-0.6
 41
-30.0
 62
     5
 63
     7
421
 16777215
 74
     1
 91
        4
 64
     7
 65
   257
 75
     1
175
     1
 42
1.0
 92
        8
 66
     7
 43
1.0
 76
     1
 77
     6
 78
     2
 67
     7
 79
     5
170
     0
171
     0
290
     0
174
     0
 93
        1
 44
50.0
173
     0
291
     1
 45
0.0
1001
ACAD
1000
AcDbSavedByObjectVersion
1070
     0
  0
VISUALSTYLE
  5
39
102
{ACAD_XDICTIONARY
360
5E7
102
}
102
{ACAD_REACTORS
330
29
102
}
330
29
100
AcDbVisualStyle
  2
ColorChange
 70
    16
 71
     2
 72
     2
 73
     3
 90
        0
 40
-0.6
 41
-30.0
 62
     5
 63
     8
421
  8421504
 74
     1
 91
        4
 64
     7
 65
   257
 75
     1
175
     1
 42
1.0
 92
        8
 66
     8
424
  8421504
 43
1.0
 76
     1
 77
     6
 78
     2
 67
     7
 79
     5
170
     0
171
     0
290
     0
174
     0
 93
        1
 44
0.0
173
     0
291
     1
 45
0.0
1001
ACAD
1000
AcDbSavedByObjectVersion
1070
     0
  0
VISUALSTYLE
  5
32
102
{ACAD_XDICTIONARY
360
5D9
102
}
102
{ACAD_REACTORS
330
29
102
}
330
29
100
AcDbVisualStyle
  2
Conceptual
 70
     9
 71
     3
 72
     2
 73
     0
 90
        0
 40
-0.6
 41
-30.0
 62
     5
 63
     7
421
 16777215
 74
     2
 91
        2
 64
     7
 65
   257
 75
     1
175
     1
 42
179.0
 92
        8
 66
     7
 43
1.0
 76
     1
 77
     6
 78
     2
 67
     7
 79
     3
170
     0
171
     0
290
     0
174
     0
 93
        1
 44
0.0
173
     0
291
     0
 45
0.0
1001
ACAD
1000
AcDbSavedByObjectVersion
1070
     0
  0
VISUALSTYLE
  5
34
102
{ACAD_XDICTIONARY
360
5DD
102
}
102
{ACAD_REACTORS
330
29
102
}
330
29
100
AcDbVisualStyle
  2
Dim
 70
    11
 71
     2
 72
     2
 73
     0
 90
        0
 40
-0.6
 41
-30.0
 62
     5
 63
     7
421
 16777215
 74
     1
 91
        4
 64
     7
 65
   257
 75
     1
175
     1
 42
1.0
 92
        8
 66
     7
 43
1.0
 76
     1
 77
     6
 78
     2
 67
     7
 79
     5
170
     0
171
     0
290
     0
174
     0
 93
        1
 44
-50.0
173
     0
291
     1
 45
0.0
1001
ACAD
1000
AcDbSavedByObjectVersion
1070
     0
  0
VISUALSTYLE
  5
41
102
{ACAD_XDICTIONARY
360
5F7
102
}
102
{ACAD_REACTORS
330
29
102
}
330
29
100
AcDbVisualStyle
  2
EdgeColorOff
 70
    22
 71
     2
 72
     2
 73
     0
 90
        0
 40
-0.6
 41
-30.0
 62
     5
 63
     7
421
 16777215
 74
     1
 91
        4
 64
     7
 65
   257
 75
     1
175
     1
 42
1.0
 92
        8
 66
     7
 43
1.0
 76
     1
 77
     6
 78
     2
 67
     7
 79
     5
170
     0
171
     0
290
     0
174
     0
 93
        1
 44
0.0
173
     0
291
     1
 45
0.0
1001
ACAD
1000
AcDbSavedByObjectVersion
1070
     0
  0
VISUALSTYLE
  5
38
102
{ACAD_XDICTIONARY
360
5E5
102
}
102
{ACAD_REACTORS
330
29
102
}
330
29
100
AcDbVisualStyle
  2
Facepattern
 70
    15
 71
     2
 72
     2
 73
     0
 90
        0
 40
-0.6
 41
-30.0
 62
     5
 63
     7
421
 16777215
 74
     1
 91
        4
 64
     7
 65
   257
 75
     1
175
     1
 42
1.0
 92
        8
 66
     7
 43
1.0
 76
     1
 77
     6
 78
     2
 67
     7
 79
     5
170
     0
171
     0
290
     0
174
     0
 93
        1
 44
0.0
173
     0
291
     1
 45
0.0
1001
ACAD
1000
AcDbSavedByObjectVersion
1070
     0
  0
VISUALSTYLE
  5
2A
102
{ACAD_XDICTIONARY
360
5C9
102
}
102
{ACAD_REACTORS
330
29
102
}
330
29
100
AcDbVisualStyle
  2
Flat
 70
     0
 71
     2
 72
     1
 73
     1
 90
        2
 40
-0.6
 41
30.0
 62
     5
 63
     7
421
 16777215
 74
     0
 91
        0
 64
     7
 65
   257
 75
     1
175
     1
 42
1.0
 92
        8
 66
     7
 43
1.0
 76
     1
 77
     6
 78
     2
 67
     7
 79
     5
170
     0
171
     0
290
     0
174
     0
 93
       13
 44
0.0
173
     0
291
     1
 45
0.0
1001
ACAD
1000
AcDbSavedByObjectVersion
1070
     0
  0
VISUALSTYLE
  5
2B
102
{ACAD_XDICTIONARY
360
5CB
102
}
102
{ACAD_REACTORS
330
29
102
}
330
29
100
AcDbVisualStyle
  2
FlatWithEdges
 70
     1
 71
     2
 72
     1
 73
     1
 90
        2
 40
-0.6
 41
30.0
 62
     5
 63
     7
421
 16777215
 74
     1
 91
        0
 64
     7
 65
   257
 75
     1
175
     1
 42
1.0
 92
        0
 66
   257
 43
1.0
 76
     1
 77
     6
 78
     2
 67
     7
 79
     5
170
     0
171
     0
290
     0
174
     0
 93
       13
 44
0.0
173
     0
291
     1
 45
0.0
1001
ACAD
1000
AcDbSavedByObjectVersion
1070
     0
  0
VISUALSTYLE
  5
2C
102
{ACAD_XDICTIONARY
360
5CD
102
}
102
{ACAD_REACTORS
330
29
102
}
330
29
100
AcDbVisualStyle
  2
Gouraud
 70
     2
 71
     2
 72
     2
 73
     1
 90
        2
 40
-0.6
 41
30.0
 62
     5
 63
     7
421
 16777215
 74
     0
 91
        0
 64
     7
 65
   257
 75
     1
175
     1
 42
1.0
 92
        0
 66
     7
 43
1.0
 76
     1
 77
     6
 78
     2
 67
     7
 79
     5
170
     0
171
     0
290
     0
174
     0
 93
       13
 44
0.0
173
     0
291
     1
 45
0.0
1001
ACAD
1000
AcDbSavedByObjectVersion
1070
     0
  0
VISUALSTYLE
  5
2D
102
{ACAD_XDICTIONARY
360
5CF
102
}
102
{ACAD_REACTORS
330
29
102
}
330
29
100
AcDbVisualStyle
  2
GouraudWithEdges
 70
     3
 71
     2
 72
     2
 73
     1
 90
        2
 40
-0.6
 41
30.0
 62
     5
 63
     7
421
 16777215
 74
     1
 91
        0
 64
     7
 65
   257
 75
     1
175
     1
 42
1.0
 92
        0
 66
   257
 43
1.0
 76
     1
 77
     6
 78
     2
 67
     7
 79
     5
170
     0
171
     0
290
     0
174
     0
 93
       13
 44
0.0
173
     0
291
     1
 45
0.0
1001
ACAD
1000
AcDbSavedByObjectVersion
1070
     0
  0
VISUALSTYLE
  5
31
102
{ACAD_XDICTIONARY
360
5D7
102
}
102
{ACAD_REACTORS
330
29
102
}
330
29
100
AcDbVisualStyle
  2
Hidden
 70
     6
 71
     1
 72
     2
 73
     2
 90
        0
 40
-0.6
 41
-30.0
 62
     5
 63
     7
421
 16777215
 74
     2
 91
        2
 64
     7
 65
   257
 75
     2
175
     1
 42
40.0
 92
        0
 66
   257
 43
1.0
 76
     1
 77
     6
 78
     2
 67
     7
 79
     3
170
     0
171
     0
290
     0
174
     0
 93
        1
 44
0.0
173
     0
291
     0
 45
0.0
1001
ACAD
1000
AcDbSavedByObjectVersion
1070
     0
  0
VISUALSTYLE
  5
3F
102
{ACAD_XDICTIONARY
360
5F3
102
}
102
{ACAD_REACTORS
330
29
102
}
330
29
100
AcDbVisualStyle
  2
JitterOff
 70
    20
 71
     2
 72
     2
 73
     0
 90
        0
 40
-0.6
 41
-30.0
 62
     5
 63
     7
421
 16777215
 74
     1
 91
        4
 64
     7
 65
   257
 75
     1
175
     1
 42
1.0
 92
       10
 66
     7
 43
1.0
 76
     1
 77
     6
 78
     2
 67
     7
 79
     5
170
     0
171
     0
290
     0
174
     0
 93
        1
 44
0.0
173
     0
291
     1
 45
0.0
1001
ACAD
1000
AcDbSavedByObjectVersion
1070
     0
  0
VISUALSTYLE
  5
37
102
{ACAD_XDICTIONARY
360
5E3
102
}
102
{ACAD_REACTORS
330
29
102
}
330
29
100
AcDbVisualStyle
  2
Linepattern
 70
    14
 71
     2
 72
     2
 73
     0
 90
        0
 40
-0.6
 41
-30.0
 62
     5
 63
     7
421
 16777215
 74
     1
 91
        4
 64
     7
 65
   257
 75
     7
175
     7
 42
1.0
 92
        8
 66
     7
 43
1.0
 76
     1
 77
     6
 78
     2
 67
     7
 79
     5
170
     0
171
     0
290
     0
174
     0
 93
        1
 44
0.0
173
     0
291
     1
 45
0.0
1001
ACAD
1000
AcDbSavedByObjectVersion
1070
     0
  0
VISUALSTYLE
  5
40
102
{ACAD_XDICTIONARY
360
5F5
102
}
102
{ACAD_REACTORS
330
29
102
}
330
29
100
AcDbVisualStyle
  2
OverhangOff
 70
    21
 71
     2
 72
     2
 73
     0
 90
        0
 40
-0.6
 41
-30.0
 62
     5
 63
     7
421
 16777215
 74
     1
 91
        4
 64
     7
 65
   257
 75
     1
175
     1
 42
1.0
 92
        9
 66
     7
 43
1.0
 76
     1
 77
     6
 78
     2
 67
     7
 79
     5
170
     0
171
     0
290
     0
174
     0
 93
        1
 44
0.0
173
     0
291
     1
 45
0.0
1001
ACAD
1000
AcDbSavedByObjectVersion
1070
     0
  0
VISUALSTYLE
  5
33
102
{ACAD_XDICTIONARY
360
5DB
102
}
102
{ACAD_REACTORS
330
29
102
}
330
29
100
AcDbVisualStyle
  2
Realistic
 70
     8
 71
     2
 72
     3
 73
     0
 90
        2
 40
-0.6
 41
30.0
 62
     5
 63
     7
421
 16777215
 74
     0
 91
        0
 64
     7
 65
   257
 75
     1
175
     1
 42
1.0
 92
        8
 66
   257
 43
1.0
 76
     1
 77
     6
 78
     2
 67
     7
 79
     3
170
     0
171
     0
290
     0
174
     0
 93
       13
 44
0.0
173
     0
291
     0
 45
0.0
1001
ACAD
1000
AcDbSavedByObjectVersion
1070
     0
  0
VISUALSTYLE
  5
3E
102
{ACAD_XDICTIONARY
360
5F1
102
}
102
{ACAD_REACTORS
330
29
102
}
330
29
100
AcDbVisualStyle
  2
Shaded
 70
    27
 71
     2
 72
     2
 73
     1
 90
        2
 40
-0.6
 41
30.0
 62
     5
 63
     7
421
 16777215
 74
     0
 91
        4
 64
     7
 65
   257
 75
     1
175
     1
 42
1.0
 92
        8
 66
   257
 43
1.0
 76
     1
 77
     6
 78
     2
 67
     8
425
  7895160
 79
     3
170
     0
171
     0
290
     0
174
     0
 93
        5
 44
0.0
173
     0
291
     0
 45
0.0
1001
ACAD
1000
AcDbSavedByObjectVersion
1070
     0
  0
VISUALSTYLE
  5
3D
102
{ACAD_XDICTIONARY
360
5EF
102
}
102
{ACAD_REACTORS
330
29
102
}
330
29
100
AcDbVisualStyle
  2
Shaded with edges
 70
    26
 71
     2
 72
     2
 73
     1
 90
        2
 40
-0.6
 41
30.0
 62
     5
 63
     7
421
 16777215
 74
     1
 91
        2
 64
     7
 65
   257
 75
     2
175
     1
 42
1.0
 92
        8
 66
   257
 43
1.0
 76
     1
 77
     6
 78
     2
 67
     7
 79
     3
170
     0
171
     0
290
     0
174
     0
 93
        5
 44
0.0
173
     0
291
     0
 45
0.0
1001
ACAD
1000
AcDbSavedByObjectVersion
1070
     0
  0
VISUALSTYLE
  5
3A
102
{ACAD_XDICTIONARY
360
5E9
102
}
102
{ACAD_REACTORS
330
29
102
}
330
29
100
AcDbVisualStyle
  2
Shades of Gray
 70
    23
 71
     2
 72
     2
 73
     3
 90
        0
 40
-0.6
 41
-30.0
 62
     5
 63
     7
421
 16777215
 74
     2
 91
        2
 64
     7
 65
     7
 75
     1
175
     1
 42
40.0
 92
        8
 66
     7
 43
1.0
 76
     1
 77
     6
 78
     2
 67
     7
 79
     3
170
     0
171
     0
290
     0
174
     0
 93
        1
 44
0.0
173
     0
291
     0
 45
0.0
1001
ACAD
1000
AcDbSavedByObjectVersion
1070
     0
  0
VISUALSTYLE
  5
3B
102
{ACAD_XDICTIONARY
360
5EB
102
}
102
{ACAD_REACTORS
330
29
102
}
330
29
100
AcDbVisualStyle
  2
Sketchy
 70
    24
 71
     1
 72
     2
 73
     2
 90
        0
 40
-0.6
 41
-30.0
 62
     5
 63
     7
421
 16777215
 74
     2
 91
        2
 64
     7
 65
     7
 75
     1
175
     1
 42
40.0
 92
       11
 66
     7
 43
1.0
 76
     1
 77
     6
 78
     2
 67
     7
 79
     6
170
     0
171
     0
290
     0
174
     0
 93
        1
 44
0.0
173
     0
291
     0
 45
0.0
1001
ACAD
1000
AcDbSavedByObjectVersion
1070
     0
  0
VISUALSTYLE
  5
36
102
{ACAD_XDICTIONARY
360
5E1
102
}
102
{ACAD_REACTORS
330
29
102
}
330
29
100
AcDbVisualStyle
  2
Thicken
 70
    13
 71
     2
 72
     2
 73
     0
 90
        0
 40
-0.6
 41
-30.0
 62
     5
 63
     7
421
 16777215
 74
     1
 91
        4
 64
     7
 65
   257
 75
     1
175
     1
 42
1.0
 92
       12
 66
     7
 43
1.0
 76
     1
 77
     6
 78
     2
 67
     7
 79
     5
170
     0
171
     0
290
     0
174
     0
 93
        1
 44
0.0
173
     0
291
     1
 45
0.0
1001
ACAD
1000
AcDbSavedByObjectVersion
1070
     0
  0
VISUALSTYLE
  5
30
102
{ACAD_XDICTIONARY
360
5D5
102
}
102
{ACAD_REACTORS
330
29
102
}
330
29
100
AcDbVisualStyle
  2
Wireframe
 70
     5
 71
     0
 72
     2
 73
     0
 90
        0
 40
-0.6
 41
-30.0
 62
     5
 63
     7
421
 16777215
 74
     1
 91
        4
 64
     7
 65
   257
 75
     1
175
     1
 42
1.0
 92
        0
 66
   257
 43
1.0
 76
     1
 77
     6
 78
     2
 67
     7
 79
     3
170
     0
171
     0
290
     0
174
     0
 93
        1
 44
0.0
173
     0
291
     0
 45
0.0
1001
ACAD
1000
AcDbSavedByObjectVersion
1070
     0
  0
VISUALSTYLE
  5
3C
102
{ACAD_XDICTIONARY
360
5ED
102
}
102
{ACAD_REACTORS
330
29
102
}
330
29
100
AcDbVisualStyle
  2
X-Ray
 70
    25
 71
     2
 72
     2
 73
     1
 90
        1
 40
0.5
 41
-30.0
 62
     5
 63
     7
421
 16777215
 74
     1
 91
        0
 64
     7
 65
   257
 75
     1
175
     1
 42
1.0
 92
        8
 66
     7
 43
1.0
 76
     1
 77
     6
 78
     2
 67
     7
 79
     3
170
     0
171
     0
290
     0
174
     0
 93
       13
 44
0.0
173
     0
291
     0
 45
0.0
1001
ACAD
1000
AcDbSavedByObjectVersion
1070
     0
  0
DICTIONARYVAR
  5
5BE
102
{ACAD_REACTORS
330
5B8
102
}
330
5B8
100
DictionaryVariables
280
     0
  1
1:1
  0
DICTIONARYVAR
  5
5BA
102
{ACAD_REACTORS
330
5B8
102
}
330
5B8
100
DictionaryVariables
280
     0
  1
STANDARD
  0
DICTIONARYVAR
  5
5B9
102
{ACAD_REACTORS
330
5B8
102
}
330
5B8
100
DictionaryVariables
280
     0
  1
STANDARD
  0
DICTIONARYVAR
  5
5BB
102
{ACAD_REACTORS
330
5B8
102
}
330
5B8
100
DictionaryVariables
280
     0
  1
Imperial24
  0
DICTIONARYVAR
  5
5BC
102
{ACAD_REACTORS
330
5B8
102
}
330
5B8
100
DictionaryVariables
280
     0
  1
Imperial24
  0
DICTIONARYVAR
  5
5C0
102
{ACAD_REACTORS
330
5B8
102
}
330
5B8
100
DictionaryVariables
280
     0
  1
0
  0
DICTIONARYVAR
  5
5C1
102
{ACAD_REACTORS
330
5B8
102
}
330
5B8
100
DictionaryVariables
280
     0
  1
0
  0
DICTIONARYVAR
  5
5BF
102
{ACAD_REACTORS
330
5B8
102
}
330
5B8
100
DictionaryVariables
280
     0
  1
2
  0
DICTIONARYVAR
  5
5BD
102
{ACAD_REACTORS
330
5B8
102
}
330
5B8
100
DictionaryVariables
280
     0
  1
1
  0
DICTIONARYVAR
  5
5C2
102
{ACAD_REACTORS
330
5B8
102
}
330
5B8
100
DictionaryVariables
280
     0
  1
2
  0
DICTIONARY
  5
5FF
330
6A
100
AcDbDictionary
280
     1
281
     1
  3
ACAD_XREC_ROUNDTRIP
360
600
  0
DICTIONARY
  5
1A
330
19
100
AcDbDictionary
280
     1
281
     1
  3
ACAD_XREC_ROUNDTRIP
360
5C7
  3
BUMPTILE
360
1C
  3
DIFFUSETILE
360
1B
  3
OPACITYTILE
360
1F
  3
REFLECTIONTILE
360
1E
  3
REFRACTIONTILE
360
20
  3
SPECULARTILE
360
1D
  0
DICTIONARY
  5
12
330
11
100
AcDbDictionary
280
     1
281
     1
  3
ACAD_XREC_ROUNDTRIP
360
5C6
  3
BUMPTILE
360
14
  3
DIFFUSETILE
360
13
  3
OPACITYTILE
360
17
  3
REFLECTIONTILE
360
16
  3
REFRACTIONTILE
360
18
  3
SPECULARTILE
360
15
  0
DICTIONARY
  5
22
330
21
100
AcDbDictionary
280
     1
281
     1
  3
ACAD_XREC_ROUNDTRIP
360
5C8
  3
BUMPTILE
360
24
  3
DIFFUSETILE
360
23
  3
OPACITYTILE
360
27
  3
REFLECTIONTILE
360
26
  3
REFRACTIONTILE
360
28
  3
SPECULARTILE
360
25
  0
DICTIONARY
  5
5FB
330
66
100
AcDbDictionary
280
     1
281
     1
  3
ACAD_XREC_ROUNDTRIP
360
5FC
  0
DICTIONARY
  5
5FD
330
68
100
AcDbDictionary
280
     1
281
     1
  3
ACAD_XREC_ROUNDTRIP
360
5FE
  0
DICTIONARY
  5
5C3
330
64
100
AcDbDictionary
280
     1
281
     1
  3
ACAD_ROUNDTRIP_2008_TABLESTYLE_CELLSTYLEMAP
360
5C4
  3
ACAD_XREC_ROUNDTRIP
360
5F9
  0
DICTIONARY
  5
5D3
330
2F
100
AcDbDictionary
280
     1
281
     1
  3
ACAD_XREC_ROUNDTRIP
360
5D4
  0
DICTIONARY
  5
5D1
330
2E
100
AcDbDictionary
280
     1
281
     1
  3
ACAD_XREC_ROUNDTRIP
360
5D2
  0
DICTIONARY
  5
5DF
330
35
100
AcDbDictionary
280
     1
281
     1
  3
ACAD_XREC_ROUNDTRIP
360
5E0
  0
DICTIONARY
  5
5E7
330
39
100
AcDbDictionary
280
     1
281
     1
  3
ACAD_XREC_ROUNDTRIP
360
5E8
  0
DICTIONARY
  5
5D9
330
32
100
AcDbDictionary
280
     1
281
     1
  3
ACAD_XREC_ROUNDTRIP
360
5DA
  0
DICTIONARY
  5
5DD
330
34
100
AcDbDictionary
280
     1
281
     1
  3
ACAD_XREC_ROUNDTRIP
360
5DE
  0
DICTIONARY
  5
5F7
330
41
100
AcDbDictionary
280
     1
281
     1
  3
ACAD_XREC_ROUNDTRIP
360
5F8
  0
DICTIONARY
  5
5E5
330
38
100
AcDbDictionary
280
     1
281
     1
  3
ACAD_XREC_ROUNDTRIP
360
5E6
  0
DICTIONARY
  5
5C9
330
2A
100
AcDbDictionary
280
     1
281
     1
  3
ACAD_XREC_ROUNDTRIP
360
5CA
  0
DICTIONARY
  5
5CB
330
2B
100
AcDbDictionary
280
     1
281
     1
  3
ACAD_XREC_ROUNDTRIP
360
5CC
  0
DICTIONARY
  5
5CD
330
2C
100
AcDbDictionary
280
     1
281
     1
  3
ACAD_XREC_ROUNDTRIP
360
5CE
  0
DICTIONARY
  5
5CF
330
2D
100
AcDbDictionary
280
     1
281
     1
  3
ACAD_XREC_ROUNDTRIP
360
5D0
  0
DICTIONARY
  5
5D7
330
31
100
AcDbDictionary
280
     1
281
     1
  3
ACAD_XREC_ROUNDTRIP
360
5D8
  0
DICTIONARY
  5
5F3
330
3F
100
AcDbDictionary
280
     1
281
     1
  3
ACAD_XREC_ROUNDTRIP
360
5F4
  0
DICTIONARY
  5
5E3
330
37
100
AcDbDictionary
280
     1
281
     1
  3
ACAD_XREC_ROUNDTRIP
360
5E4
  0
DICTIONARY
  5
5F5
330
40
100
AcDbDictionary
280
     1
281
     1
  3
ACAD_XREC_ROUNDTRIP
360
5F6
  0
DICTIONARY
  5
5DB
330
33
100
AcDbDictionary
280
     1
281
     1
  3
ACAD_XREC_ROUNDTRIP
360
5DC
  0
DICTIONARY
  5
5F1
330
3E
100
AcDbDictionary
280
     1
281
     1
  3
ACAD_XREC_ROUNDTRIP
360
5F2
  0
DICTIONARY
  5
5EF
330
3D
100
AcDbDictionary
280
     1
281
     1
  3
ACAD_XREC_ROUNDTRIP
360
5F0
  0
DICTIONARY
  5
5E9
330
3A
100
AcDbDictionary
280
     1
281
     1
  3
ACAD_XREC_ROUNDTRIP
360
5EA
  0
DICTIONARY
  5
5EB
330
3B
100
AcDbDictionary
280
     1
281
     1
  3
ACAD_XREC_ROUNDTRIP
360
5EC
  0
DICTIONARY
  5
5E1
330
36
100
AcDbDictionary
280
     1
281
     1
  3
ACAD_XREC_ROUNDTRIP
360
5E2
  0
DICTIONARY
  5
5D5
330
30
100
AcDbDictionary
280
     1
281
     1
  3
ACAD_XREC_ROUNDTRIP
360
5D6
  0
DICTIONARY
  5
5ED
330
3C
100
AcDbDictionary
280
     1
281
     1
  3
ACAD_XREC_ROUNDTRIP
360
5EE
  0
XRECORD
  5
600
102
{ACAD_REACTORS
330
5FF
102
}
330
5FF
100
AcDbXrecord
280
     1
102
DISPLAYNAME
  1
Imperial24
102
FLAGS
 90
        0
  0
XRECORD
  5
5C7
102
{ACAD_REACTORS
330
1A
102
}
330
1A
100
AcDbXrecord
280
     1
102
MATERIAL
148
0.0
149
0.0
149
0.0
 93
        0
 94
      127
282
     0
 72
     0
 77
     0
171
     0
175
     0
179
     0
273
     0
  0
XRECORD
  5
1C
102
{ACAD_REACTORS
330
1A
102
}
330
1A
100
AcDbXrecord
280
     1
270
     1
271
     1
  0
XRECORD
  5
1B
102
{ACAD_REACTORS
330
1A
102
}
330
1A
100
AcDbXrecord
280
     1
270
     1
271
     1
  0
XRECORD
  5
1F
102
{ACAD_REACTORS
330
1A
102
}
330
1A
100
AcDbXrecord
280
     1
270
     1
271
     1
  0
XRECORD
  5
1E
102
{ACAD_REACTORS
330
1A
102
}
330
1A
100
AcDbXrecord
280
     1
270
     1
271
     1
  0
XRECORD
  5
20
102
{ACAD_REACTORS
330
1A
102
}
330
1A
100
AcDbXrecord
280
     1
270
     1
271
     1
  0
XRECORD
  5
1D
102
{ACAD_REACTORS
330
1A
102
}
330
1A
100
AcDbXrecord
280
     1
270
     1
271
     1
  0
XRECORD
  5
5C6
102
{ACAD_REACTORS
330
12
102
}
330
12
100
AcDbXrecord
280
     1
102
MATERIAL
148
0.0
149
0.0
149
0.0
 93
        0
 94
      127
282
     0
 72
     0
 77
     0
171
     0
175
     0
179
     0
273
     0
  0
XRECORD
  5
14
102
{ACAD_REACTORS
330
12
102
}
330
12
100
AcDbXrecord
280
     1
270
     1
271
     1
  0
XRECORD
  5
13
102
{ACAD_REACTORS
330
12
102
}
330
12
100
AcDbXrecord
280
     1
270
     1
271
     1
  0
XRECORD
  5
17
102
{ACAD_REACTORS
330
12
102
}
330
12
100
AcDbXrecord
280
     1
270
     1
271
     1
  0
XRECORD
  5
16
102
{ACAD_REACTORS
330
12
102
}
330
12
100
AcDbXrecord
280
     1
270
     1
271
     1
  0
XRECORD
  5
18
102
{ACAD_REACTORS
330
12
102
}
330
12
100
AcDbXrecord
280
     1
270
     1
271
     1
  0
XRECORD
  5
15
102
{ACAD_REACTORS
330
12
102
}
330
12
100
AcDbXrecord
280
     1
270
     1
271
     1
  0
XRECORD
  5
5C8
102
{ACAD_REACTORS
330
22
102
}
330
22
100
AcDbXrecord
280
     1
102
MATERIAL
148
0.0
149
0.0
149
0.0
 93
        0
 94
      127
282
     0
 72
     0
 77
     0
171
     0
175
     0
179
     0
273
     0
  0
XRECORD
  5
24
102
{ACAD_REACTORS
330
22
102
}
330
22
100
AcDbXrecord
280
     1
270
     1
271
     1
  0
XRECORD
  5
23
102
{ACAD_REACTORS
330
22
102
}
330
22
100
AcDbXrecord
280
     1
270
     1
271
     1
  0
XRECORD
  5
27
102
{ACAD_REACTORS
330
22
102
}
330
22
100
AcDbXrecord
280
     1
270
     1
271
     1
  0
XRECORD
  5
26
102
{ACAD_REACTORS
330
22
102
}
330
22
100
AcDbXrecord
280
     1
270
     1
271
     1
  0
XRECORD
  5
28
102
{ACAD_REACTORS
330
22
102
}
330
22
100
AcDbXrecord
280
     1
270
     1
271
     1
  0
XRECORD
  5
25
102
{ACAD_REACTORS
330
22
102
}
330
22
100
AcDbXrecord
280
     1
270
     1
271
     1
  0
XRECORD
  5
5FC
102
{ACAD_REACTORS
330
5FB
102
}
330
5FB
100
AcDbXrecord
280
     1
102
ACAD_ROUNDTRIP_2012_MLEADER_STYLE
298
     1
  0
XRECORD
  5
5FE
102
{ACAD_REACTORS
330
5FD
102
}
330
5FD
100
AcDbXrecord
280
     1
102
DISPLAYNAME
  1
Imperial24
102
FLAGS
 90
        0
  0
CELLSTYLEMAP
  5
5C4
102
{ACAD_REACTORS
330
5C3
102
}
330
5C3
100
AcDbCellStyleMap
 90
        3
300
CELLSTYLE
  1
TABLEFORMAT_BEGIN
 90
        5
170
     1
 91
        0
 92
    32768
 62
   257
 93
        1
300
CONTENTFORMAT
  1
CONTENTFORMAT_BEGIN
 90
        0
 91
        0
 92
      512
 93
        0
300

 40
0.0
140
1.0
 94
        5
 62
     0
340
55
144
0.25
309
CONTENTFORMAT_END
171
     0
 94
        0
309
TABLEFORMAT_END
  1
CELLSTYLE_BEGIN
 90
        1
 91
        1
300
_TITLE
309
CELLSTYLE_END
300
CELLSTYLE
  1
TABLEFORMAT_BEGIN
 90
        5
170
     1
 91
        0
 92
        0
 62
   257
 93
        1
300
CONTENTFORMAT
  1
CONTENTFORMAT_BEGIN
 90
        0
 91
        0
 92
      512
 93
        0
300

 40
0.0
140
1.0
 94
        5
 62
     0
340
55
144
0.18
309
CONTENTFORMAT_END
171
     0
 94
        0
309
TABLEFORMAT_END
  1
CELLSTYLE_BEGIN
 90
        2
 91
        1
300
_HEADER
309
CELLSTYLE_END
300
CELLSTYLE
  1
TABLEFORMAT_BEGIN
 90
        5
170
     1
 91
        0
 92
        0
 62
   257
 93
        1
300
CONTENTFORMAT
  1
CONTENTFORMAT_BEGIN
 90
        0
 91
        0
 92
      512
 93
        0
300

 40
0.0
140
1.0
 94
        2
 62
     0
340
55
144
0.18
309
CONTENTFORMAT_END
171
     0
 94
        0
309
TABLEFORMAT_END
  1
CELLSTYLE_BEGIN
 90
        3
 91
        2
300
_DATA
309
CELLSTYLE_END
  0
XRECORD
  5
5F9
102
{ACAD_REACTORS
330
5C3
102
}
330
5C3
100
AcDbXrecord
280
     1
102
ACAD_ROUNDTRIP_PRE2007_TABLESTYLE
 90
      512
 91
        0
  1

 92
      512
 93
        0
  2

 94
      512
 95
        0
  3

  0
XRECORD
  5
5D4
102
{ACAD_REACTORS
330
5D3
102
}
330
5D3
100
AcDbXrecord
280
     1
102
RTVSPost2010Prop28
280
     1
102
RTVSPost2010PropOp28
 70
     1
102
RTVSPost2010Prop29
280
     1
102
RTVSPost2010PropOp29
 70
     1
102
RTVSPost2010Prop30
280
     0
102
RTVSPost2010PropOp30
 70
     1
102
RTVSPost2010Prop31
280
     0
102
RTVSPost2010PropOp31
 70
     1
102
RTVSPost2010Prop32
280
     0
102
RTVSPost2010PropOp32
 70
     1
102
RTVSPost2010Prop33
280
     0
102
RTVSPost2010PropOp33
 70
     1
102
RTVSPost2010Prop34
280
     0
102
RTVSPost2010PropOp34
 70
     1
102
RTVSPost2010Prop35
280
     0
102
RTVSPost2010PropOp35
 70
     1
102
RTVSPost2010Prop36
280
     0
102
RTVSPost2010PropOp36
 70
     1
102
RTVSPost2010Prop37
 90
       50
102
RTVSPost2010PropOp37
 70
     1
102
RTVSPost2010Prop38
140
0.0
102
RTVSPost2010PropOp38
 70
     1
102
RTVSPost2010Prop39
140
1.0
102
RTVSPost2010PropOp39
 70
     1
102
RTVSPost2010Prop40
 90
        0
102
RTVSPost2010PropOp40
 70
     1
102
RTVSPost2010Prop41ColorIndex
 90
       18
102
RTVSPost2010Prop41ColorRGB
 90
        0
102
RTVSPost2010PropOp41
 70
     1
102
RTVSPost2010Prop42
 90
       50
102
RTVSPost2010PropOp42
 70
     1
102
RTVSPost2010Prop43
 90
        3
102
RTVSPost2010PropOp43
 70
     1
102
RTVSPost2010Prop44ColorIndex
 90
        5
102
RTVSPost2010Prop44ColorRGB
 90
      255
102
RTVSPost2010PropOp44
 70
     1
102
RTVSPost2010Prop45
280
     0
102
RTVSPost2010PropOp45
 70
     1
102
RTVSPost2010Prop46
 90
       50
102
RTVSPost2010PropOp46
 70
     1
102
RTVSPost2010Prop47
 90
       50
102
RTVSPost2010PropOp47
 70
     1
102
RTVSPost2010Prop48
 90
       50
102
RTVSPost2010PropOp48
 70
     1
102
RTVSPost2010Prop49
280
     0
102
RTVSPost2010PropOp49
 70
     1
102
RTVSPost2010Prop50
 90
       50
102
RTVSPost2010PropOp50
 70
     1
102
RTVSPost2010Prop51ColorIndex
 90
      256
102
RTVSPost2010Prop51ColorRGB
 90
-16777216
102
RTVSPost2010PropOp51
 70
     0
102
RTVSPost2010Prop52
140
1.0
102
RTVSPost2010PropOp52
 70
     0
102
RTVSPost2010Prop53
 90
        2
102
RTVSPost2010PropOp53
 70
     1
102
RTVSPost2010Prop54
  1
strokes_ogs.tif
102
RTVSPost2010PropOp54
 70
     1
102
RTVSPost2010Prop55
280
     0
102
RTVSPost2010PropOp55
 70
     1
102
RTVSPost2010Prop56
140
1.0
102
RTVSPost2010PropOp56
 70
     1
102
RTVSPost2010Prop57
140
1.0
102
RTVSPost2010PropOp57
 70
     1
102
RTVSPropertyOp0
 70
     1
102
RTVSPropertyOp1
 70
     1
102
RTVSPropertyOp2
 70
     1
102
RTVSPropertyOp3
 70
     1
102
RTVSPropertyOp4
 70
     1
102
RTVSPropertyOp5
 70
     1
102
RTVSPropertyOp6
 70
     1
102
RTVSPropertyOp7
 70
     1
102
RTVSPropertyOp8
 70
     1
102
RTVSPropertyOp9
 70
     1
102
RTVSPropertyOp10
 70
     1
102
RTVSPropertyOp11
 70
     1
102
RTVSPropertyOp12
 70
     1
102
RTVSPropertyOp13
 70
     1
102
RTVSPropertyOp14
 70
     1
102
RTVSPropertyOp15
 70
     1
102
RTVSPropertyOp16
 70
     1
102
RTVSPropertyOp17
 70
     1
102
RTVSPropertyOp18
 70
     1
102
RTVSPropertyOp19
 70
     1
102
RTVSPropertyOp20
 70
     1
102
RTVSPropertyOp21
 70
     1
102
RTVSPropertyOp22
 70
     1
102
RTVSPropertyOp23
 70
     1
102
RTVSPropertyOp24
 70
     1
102
RTVSPropertyOp25
 70
     1
102
RTVSPropertyOp26
 70
     1
102
RTVSPropertyOp27
 70
     1
102
RTVSPropertyOp28
 70
     1
102
RTVSPropertyOp29
 70
     1
102
RTVSPropertyOp30
 70
     1
102
RTVSPropertyOp31
 70
     1
102
RTVSPropertyOp32
 70
     1
102
RTVSPropertyOp33
 70
     1
102
RTVSPropertyOp34
 70
     1
102
RTVSPropertyOp35
 70
     1
102
RTVSPropertyOp36
 70
     1
102
RTVSPropertyOp37
 70
     1
102
RTVSPropertyOp38
 70
     1
102
RTVSPropertyOp39
 70
     1
102
RTVSPropertyOp40
 70
     1
102
RTVSPropertyOp41
 70
     1
102
RTVSPropertyOp42
 70
     1
102
RTVSPropertyOp43
 70
     1
102
RTVSPropertyOp44
 70
     1
102
RTVSPropertyOp45
 70
     1
102
RTVSPropertyOp46
 70
     1
102
RTVSPropertyOp47
 70
     1
102
RTVSPropertyOp48
 70
     1
102
RTVSPropertyOp49
 70
     1
102
RTVSPropertyOp50
 70
     1
102
RTVSPropertyOp51
 70
     0
102
RTVSPropertyOp52
 70
     0
102
RTVSPropertyOp53
 70
     1
102
RTVSPropertyOp54
 70
     1
102
RTVSPropertyOp55
 70
     1
102
RTVSPropertyOp56
 70
     1
102
RTVSPropertyOp57
 70
     1
102
RTVSPropertyOp58
 70
     1
102
RTVSPropertyOp59
 70
     1
102
RTVSPropertyOp60
 70
     1
102
RTVSPropertyOp61
 70
     1
102
RTVSPropertyOp62
 70
     1
  0
XRECORD
  5
5D2
102
{ACAD_REACTORS
330
5D1
102
}
330
5D1
100
AcDbXrecord
280
     1
102
RTVSPost2010Prop28
280
     0
102
RTVSPost2010PropOp28
 70
     1
102
RTVSPost2010Prop29
280
     1
102
RTVSPost2010PropOp29
 70
     1
102
RTVSPost2010Prop30
280
     1
102
RTVSPost2010PropOp30
 70
     1
102
RTVSPost2010Prop31
280
     0
102
RTVSPost2010PropOp31
 70
     1
102
RTVSPost2010Prop32
280
     0
102
RTVSPost2010PropOp32
 70
     1
102
RTVSPost2010Prop33
280
     0
102
RTVSPost2010PropOp33
 70
     1
102
RTVSPost2010Prop34
280
     0
102
RTVSPost2010PropOp34
 70
     1
102
RTVSPost2010Prop35
280
     0
102
RTVSPost2010PropOp35
 70
     1
102
RTVSPost2010Prop36
280
     0
102
RTVSPost2010PropOp36
 70
     1
102
RTVSPost2010Prop37
 90
       50
102
RTVSPost2010PropOp37
 70
     1
102
RTVSPost2010Prop38
140
0.0
102
RTVSPost2010PropOp38
 70
     1
102
RTVSPost2010Prop39
140
1.0
102
RTVSPost2010PropOp39
 70
     1
102
RTVSPost2010Prop40
 90
        0
102
RTVSPost2010PropOp40
 70
     1
102
RTVSPost2010Prop41ColorIndex
 90
       18
102
RTVSPost2010Prop41ColorRGB
 90
        0
102
RTVSPost2010PropOp41
 70
     1
102
RTVSPost2010Prop42
 90
       50
102
RTVSPost2010PropOp42
 70
     1
102
RTVSPost2010Prop43
 90
        3
102
RTVSPost2010PropOp43
 70
     1
102
RTVSPost2010Prop44ColorIndex
 90
        5
102
RTVSPost2010Prop44ColorRGB
 90
      255
102
RTVSPost2010PropOp44
 70
     1
102
RTVSPost2010Prop45
280
     0
102
RTVSPost2010PropOp45
 70
     1
102
RTVSPost2010Prop46
 90
       50
102
RTVSPost2010PropOp46
 70
     1
102
RTVSPost2010Prop47
 90
       50
102
RTVSPost2010PropOp47
 70
     1
102
RTVSPost2010Prop48
 90
       50
102
RTVSPost2010PropOp48
 70
     1
102
RTVSPost2010Prop49
280
     0
102
RTVSPost2010PropOp49
 70
     1
102
RTVSPost2010Prop50
 90
       50
102
RTVSPost2010PropOp50
 70
     1
102
RTVSPost2010Prop51ColorIndex
 90
      256
102
RTVSPost2010Prop51ColorRGB
 90
-16777216
102
RTVSPost2010PropOp51
 70
     0
102
RTVSPost2010Prop52
140
1.0
102
RTVSPost2010PropOp52
 70
     0
102
RTVSPost2010Prop53
 90
        2
102
RTVSPost2010PropOp53
 70
     1
102
RTVSPost2010Prop54
  1
strokes_ogs.tif
102
RTVSPost2010PropOp54
 70
     1
102
RTVSPost2010Prop55
280
     0
102
RTVSPost2010PropOp55
 70
     1
102
RTVSPost2010Prop56
140
1.0
102
RTVSPost2010PropOp56
 70
     1
102
RTVSPost2010Prop57
140
1.0
102
RTVSPost2010PropOp57
 70
     1
102
RTVSPropertyOp0
 70
     1
102
RTVSPropertyOp1
 70
     1
102
RTVSPropertyOp2
 70
     1
102
RTVSPropertyOp3
 70
     1
102
RTVSPropertyOp4
 70
     1
102
RTVSPropertyOp5
 70
     1
102
RTVSPropertyOp6
 70
     1
102
RTVSPropertyOp7
 70
     1
102
RTVSPropertyOp8
 70
     1
102
RTVSPropertyOp9
 70
     1
102
RTVSPropertyOp10
 70
     1
102
RTVSPropertyOp11
 70
     1
102
RTVSPropertyOp12
 70
     1
102
RTVSPropertyOp13
 70
     1
102
RTVSPropertyOp14
 70
     1
102
RTVSPropertyOp15
 70
     1
102
RTVSPropertyOp16
 70
     1
102
RTVSPropertyOp17
 70
     1
102
RTVSPropertyOp18
 70
     1
102
RTVSPropertyOp19
 70
     1
102
RTVSPropertyOp20
 70
     1
102
RTVSPropertyOp21
 70
     1
102
RTVSPropertyOp22
 70
     1
102
RTVSPropertyOp23
 70
     1
102
RTVSPropertyOp24
 70
     1
102
RTVSPropertyOp25
 70
     1
102
RTVSPropertyOp26
 70
     1
102
RTVSPropertyOp27
 70
     1
102
RTVSPropertyOp28
 70
     1
102
RTVSPropertyOp29
 70
     1
102
RTVSPropertyOp30
 70
     1
102
RTVSPropertyOp31
 70
     1
102
RTVSPropertyOp32
 70
     1
102
RTVSPropertyOp33
 70
     1
102
RTVSPropertyOp34
 70
     1
102
RTVSPropertyOp35
 70
     1
102
RTVSPropertyOp36
 70
     1
102
RTVSPropertyOp37
 70
     1
102
RTVSPropertyOp38
 70
     1
102
RTVSPropertyOp39
 70
     1
102
RTVSPropertyOp40
 70
     1
102
RTVSPropertyOp41
 70
     1
102
RTVSPropertyOp42
 70
     1
102
RTVSPropertyOp43
 70
     1
102
RTVSPropertyOp44
 70
     1
102
RTVSPropertyOp45
 70
     1
102
RTVSPropertyOp46
 70
     1
102
RTVSPropertyOp47
 70
     1
102
RTVSPropertyOp48
 70
     1
102
RTVSPropertyOp49
 70
     1
102
RTVSPropertyOp50
 70
     1
102
RTVSPropertyOp51
 70
     0
102
RTVSPropertyOp52
 70
     0
102
RTVSPropertyOp53
 70
     1
102
RTVSPropertyOp54
 70
     1
102
RTVSPropertyOp55
 70
     1
102
RTVSPropertyOp56
 70
     1
102
RTVSPropertyOp57
 70
     1
102
RTVSPropertyOp58
 70
     1
102
RTVSPropertyOp59
 70
     1
102
RTVSPropertyOp60
 70
     1
102
RTVSPropertyOp61
 70
     1
102
RTVSPropertyOp62
 70
     1
  0
XRECORD
  5
5E0
102
{ACAD_REACTORS
330
5DF
102
}
330
5DF
100
AcDbXrecord
280
     1
102
RTVSPost2010Prop28
280
     0
102
RTVSPost2010PropOp28
 70
     1
102
RTVSPost2010Prop29
280
     1
102
RTVSPost2010PropOp29
 70
     1
102
RTVSPost2010Prop30
280
     1
102
RTVSPost2010PropOp30
 70
     1
102
RTVSPost2010Prop31
280
     0
102
RTVSPost2010PropOp31
 70
     1
102
RTVSPost2010Prop32
280
     0
102
RTVSPost2010PropOp32
 70
     1
102
RTVSPost2010Prop33
280
     0
102
RTVSPost2010PropOp33
 70
     1
102
RTVSPost2010Prop34
280
     0
102
RTVSPost2010PropOp34
 70
     1
102
RTVSPost2010Prop35
280
     0
102
RTVSPost2010PropOp35
 70
     1
102
RTVSPost2010Prop36
280
     0
102
RTVSPost2010PropOp36
 70
     1
102
RTVSPost2010Prop37
 90
       50
102
RTVSPost2010PropOp37
 70
     1
102
RTVSPost2010Prop38
140
0.0
102
RTVSPost2010PropOp38
 70
     1
102
RTVSPost2010Prop39
140
1.0
102
RTVSPost2010PropOp39
 70
     1
102
RTVSPost2010Prop40
 90
        0
102
RTVSPost2010PropOp40
 70
     1
102
RTVSPost2010Prop41ColorIndex
 90
       18
102
RTVSPost2010Prop41ColorRGB
 90
        0
102
RTVSPost2010PropOp41
 70
     1
102
RTVSPost2010Prop42
 90
       50
102
RTVSPost2010PropOp42
 70
     1
102
RTVSPost2010Prop43
 90
        3
102
RTVSPost2010PropOp43
 70
     1
102
RTVSPost2010Prop44ColorIndex
 90
        5
102
RTVSPost2010Prop44ColorRGB
 90
      255
102
RTVSPost2010PropOp44
 70
     1
102
RTVSPost2010Prop45
280
     0
102
RTVSPost2010PropOp45
 70
     1
102
RTVSPost2010Prop46
 90
       50
102
RTVSPost2010PropOp46
 70
     1
102
RTVSPost2010Prop47
 90
       50
102
RTVSPost2010PropOp47
 70
     1
102
RTVSPost2010Prop48
 90
       50
102
RTVSPost2010PropOp48
 70
     1
102
RTVSPost2010Prop49
280
     0
102
RTVSPost2010PropOp49
 70
     1
102
RTVSPost2010Prop50
 90
       50
102
RTVSPost2010PropOp50
 70
     1
102
RTVSPost2010Prop51ColorIndex
 90
      256
102
RTVSPost2010Prop51ColorRGB
 90
-16777216
102
RTVSPost2010PropOp51
 70
     0
102
RTVSPost2010Prop52
140
1.0
102
RTVSPost2010PropOp52
 70
     0
102
RTVSPost2010Prop53
 90
        2
102
RTVSPost2010PropOp53
 70
     1
102
RTVSPost2010Prop54
  1
strokes_ogs.tif
102
RTVSPost2010PropOp54
 70
     1
102
RTVSPost2010Prop55
280
     0
102
RTVSPost2010PropOp55
 70
     1
102
RTVSPost2010Prop56
140
1.0
102
RTVSPost2010PropOp56
 70
     1
102
RTVSPost2010Prop57
140
1.0
102
RTVSPost2010PropOp57
 70
     1
102
RTVSPropertyOp0
 70
     1
102
RTVSPropertyOp1
 70
     1
102
RTVSPropertyOp2
 70
     1
102
RTVSPropertyOp3
 70
     1
102
RTVSPropertyOp4
 70
     1
102
RTVSPropertyOp5
 70
     1
102
RTVSPropertyOp6
 70
     1
102
RTVSPropertyOp7
 70
     1
102
RTVSPropertyOp8
 70
     1
102
RTVSPropertyOp9
 70
     1
102
RTVSPropertyOp10
 70
     1
102
RTVSPropertyOp11
 70
     1
102
RTVSPropertyOp12
 70
     1
102
RTVSPropertyOp13
 70
     1
102
RTVSPropertyOp14
 70
     1
102
RTVSPropertyOp15
 70
     1
102
RTVSPropertyOp16
 70
     1
102
RTVSPropertyOp17
 70
     1
102
RTVSPropertyOp18
 70
     1
102
RTVSPropertyOp19
 70
     1
102
RTVSPropertyOp20
 70
     1
102
RTVSPropertyOp21
 70
     1
102
RTVSPropertyOp22
 70
     1
102
RTVSPropertyOp23
 70
     1
102
RTVSPropertyOp24
 70
     1
102
RTVSPropertyOp25
 70
     1
102
RTVSPropertyOp26
 70
     1
102
RTVSPropertyOp27
 70
     1
102
RTVSPropertyOp28
 70
     1
102
RTVSPropertyOp29
 70
     1
102
RTVSPropertyOp30
 70
     1
102
RTVSPropertyOp31
 70
     1
102
RTVSPropertyOp32
 70
     1
102
RTVSPropertyOp33
 70
     1
102
RTVSPropertyOp34
 70
     1
102
RTVSPropertyOp35
 70
     1
102
RTVSPropertyOp36
 70
     1
102
RTVSPropertyOp37
 70
     1
102
RTVSPropertyOp38
 70
     1
102
RTVSPropertyOp39
 70
     1
102
RTVSPropertyOp40
 70
     1
102
RTVSPropertyOp41
 70
     1
102
RTVSPropertyOp42
 70
     1
102
RTVSPropertyOp43
 70
     1
102
RTVSPropertyOp44
 70
     1
102
RTVSPropertyOp45
 70
     1
102
RTVSPropertyOp46
 70
     1
102
RTVSPropertyOp47
 70
     1
102
RTVSPropertyOp48
 70
     1
102
RTVSPropertyOp49
 70
     1
102
RTVSPropertyOp50
 70
     1
102
RTVSPropertyOp51
 70
     0
102
RTVSPropertyOp52
 70
     0
102
RTVSPropertyOp53
 70
     1
102
RTVSPropertyOp54
 70
     1
102
RTVSPropertyOp55
 70
     1
102
RTVSPropertyOp56
 70
     1
102
RTVSPropertyOp57
 70
     1
102
RTVSPropertyOp58
 70
     1
102
RTVSPropertyOp59
 70
     1
102
RTVSPropertyOp60
 70
     1
102
RTVSPropertyOp61
 70
     1
102
RTVSPropertyOp62
 70
     1
  0
XRECORD
  5
5E8
102
{ACAD_REACTORS
330
5E7
102
}
330
5E7
100
AcDbXrecord
280
     1
102
RTVSPost2010Prop28
280
     0
102
RTVSPost2010PropOp28
 70
     1
102
RTVSPost2010Prop29
280
     1
102
RTVSPost2010PropOp29
 70
     1
102
RTVSPost2010Prop30
280
     1
102
RTVSPost2010PropOp30
 70
     1
102
RTVSPost2010Prop31
280
     0
102
RTVSPost2010PropOp31
 70
     1
102
RTVSPost2010Prop32
280
     0
102
RTVSPost2010PropOp32
 70
     1
102
RTVSPost2010Prop33
280
     0
102
RTVSPost2010PropOp33
 70
     1
102
RTVSPost2010Prop34
280
     0
102
RTVSPost2010PropOp34
 70
     1
102
RTVSPost2010Prop35
280
     0
102
RTVSPost2010PropOp35
 70
     1
102
RTVSPost2010Prop36
280
     0
102
RTVSPost2010PropOp36
 70
     1
102
RTVSPost2010Prop37
 90
       50
102
RTVSPost2010PropOp37
 70
     1
102
RTVSPost2010Prop38
140
0.0
102
RTVSPost2010PropOp38
 70
     1
102
RTVSPost2010Prop39
140
1.0
102
RTVSPost2010PropOp39
 70
     1
102
RTVSPost2010Prop40
 90
        0
102
RTVSPost2010PropOp40
 70
     1
102
RTVSPost2010Prop41ColorIndex
 90
       18
102
RTVSPost2010Prop41ColorRGB
 90
        0
102
RTVSPost2010PropOp41
 70
     1
102
RTVSPost2010Prop42
 90
       50
102
RTVSPost2010PropOp42
 70
     1
102
RTVSPost2010Prop43
 90
        3
102
RTVSPost2010PropOp43
 70
     1
102
RTVSPost2010Prop44ColorIndex
 90
        5
102
RTVSPost2010Prop44ColorRGB
 90
      255
102
RTVSPost2010PropOp44
 70
     1
102
RTVSPost2010Prop45
280
     0
102
RTVSPost2010PropOp45
 70
     1
102
RTVSPost2010Prop46
 90
       50
102
RTVSPost2010PropOp46
 70
     1
102
RTVSPost2010Prop47
 90
       50
102
RTVSPost2010PropOp47
 70
     1
102
RTVSPost2010Prop48
 90
       50
102
RTVSPost2010PropOp48
 70
     1
102
RTVSPost2010Prop49
280
     0
102
RTVSPost2010PropOp49
 70
     1
102
RTVSPost2010Prop50
 90
       50
102
RTVSPost2010PropOp50
 70
     1
102
RTVSPost2010Prop51ColorIndex
 90
      256
102
RTVSPost2010Prop51ColorRGB
 90
-16777216
102
RTVSPost2010PropOp51
 70
     0
102
RTVSPost2010Prop52
140
1.0
102
RTVSPost2010PropOp52
 70
     0
102
RTVSPost2010Prop53
 90
        2
102
RTVSPost2010PropOp53
 70
     1
102
RTVSPost2010Prop54
  1
strokes_ogs.tif
102
RTVSPost2010PropOp54
 70
     1
102
RTVSPost2010Prop55
280
     0
102
RTVSPost2010PropOp55
 70
     1
102
RTVSPost2010Prop56
140
1.0
102
RTVSPost2010PropOp56
 70
     1
102
RTVSPost2010Prop57
140
1.0
102
RTVSPost2010PropOp57
 70
     1
102
RTVSPropertyOp0
 70
     1
102
RTVSPropertyOp1
 70
     1
102
RTVSPropertyOp2
 70
     1
102
RTVSPropertyOp3
 70
     1
102
RTVSPropertyOp4
 70
     1
102
RTVSPropertyOp5
 70
     1
102
RTVSPropertyOp6
 70
     1
102
RTVSPropertyOp7
 70
     1
102
RTVSPropertyOp8
 70
     1
102
RTVSPropertyOp9
 70
     1
102
RTVSPropertyOp10
 70
     1
102
RTVSPropertyOp11
 70
     1
102
RTVSPropertyOp12
 70
     1
102
RTVSPropertyOp13
 70
     1
102
RTVSPropertyOp14
 70
     1
102
RTVSPropertyOp15
 70
     1
102
RTVSPropertyOp16
 70
     1
102
RTVSPropertyOp17
 70
     1
102
RTVSPropertyOp18
 70
     1
102
RTVSPropertyOp19
 70
     1
102
RTVSPropertyOp20
 70
     1
102
RTVSPropertyOp21
 70
     1
102
RTVSPropertyOp22
 70
     1
102
RTVSPropertyOp23
 70
     1
102
RTVSPropertyOp24
 70
     1
102
RTVSPropertyOp25
 70
     1
102
RTVSPropertyOp26
 70
     1
102
RTVSPropertyOp27
 70
     1
102
RTVSPropertyOp28
 70
     1
102
RTVSPropertyOp29
 70
     1
102
RTVSPropertyOp30
 70
     1
102
RTVSPropertyOp31
 70
     1
102
RTVSPropertyOp32
 70
     1
102
RTVSPropertyOp33
 70
     1
102
RTVSPropertyOp34
 70
     1
102
RTVSPropertyOp35
 70
     1
102
RTVSPropertyOp36
 70
     1
102
RTVSPropertyOp37
 70
     1
102
RTVSPropertyOp38
 70
     1
102
RTVSPropertyOp39
 70
     1
102
RTVSPropertyOp40
 70
     1
102
RTVSPropertyOp41
 70
     1
102
RTVSPropertyOp42
 70
     1
102
RTVSPropertyOp43
 70
     1
102
RTVSPropertyOp44
 70
     1
102
RTVSPropertyOp45
 70
     1
102
RTVSPropertyOp46
 70
     1
102
RTVSPropertyOp47
 70
     1
102
RTVSPropertyOp48
 70
     1
102
RTVSPropertyOp49
 70
     1
102
RTVSPropertyOp50
 70
     1
102
RTVSPropertyOp51
 70
     0
102
RTVSPropertyOp52
 70
     0
102
RTVSPropertyOp53
 70
     1
102
RTVSPropertyOp54
 70
     1
102
RTVSPropertyOp55
 70
     1
102
RTVSPropertyOp56
 70
     1
102
RTVSPropertyOp57
 70
     1
102
RTVSPropertyOp58
 70
     1
102
RTVSPropertyOp59
 70
     1
102
RTVSPropertyOp60
 70
     1
102
RTVSPropertyOp61
 70
     1
102
RTVSPropertyOp62
 70
     1
  0
XRECORD
  5
5DA
102
{ACAD_REACTORS
330
5D9
102
}
330
5D9
100
AcDbXrecord
280
     1
102
RTVSPost2010Prop28
280
     0
102
RTVSPost2010PropOp28
 70
     1
102
RTVSPost2010Prop29
280
     1
102
RTVSPost2010PropOp29
 70
     1
102
RTVSPost2010Prop30
280
     1
102
RTVSPost2010PropOp30
 70
     1
102
RTVSPost2010Prop31
280
     0
102
RTVSPost2010PropOp31
 70
     1
102
RTVSPost2010Prop32
280
     0
102
RTVSPost2010PropOp32
 70
     1
102
RTVSPost2010Prop33
280
     0
102
RTVSPost2010PropOp33
 70
     1
102
RTVSPost2010Prop34
280
     0
102
RTVSPost2010PropOp34
 70
     1
102
RTVSPost2010Prop35
280
     0
102
RTVSPost2010PropOp35
 70
     1
102
RTVSPost2010Prop36
280
     0
102
RTVSPost2010PropOp36
 70
     1
102
RTVSPost2010Prop37
 90
       50
102
RTVSPost2010PropOp37
 70
     1
102
RTVSPost2010Prop38
140
0.0
102
RTVSPost2010PropOp38
 70
     1
102
RTVSPost2010Prop39
140
1.0
102
RTVSPost2010PropOp39
 70
     1
102
RTVSPost2010Prop40
 90
        0
102
RTVSPost2010PropOp40
 70
     1
102
RTVSPost2010Prop41ColorIndex
 90
       18
102
RTVSPost2010Prop41ColorRGB
 90
        0
102
RTVSPost2010PropOp41
 70
     1
102
RTVSPost2010Prop42
 90
       50
102
RTVSPost2010PropOp42
 70
     1
102
RTVSPost2010Prop43
 90
        3
102
RTVSPost2010PropOp43
 70
     1
102
RTVSPost2010Prop44ColorIndex
 90
        5
102
RTVSPost2010Prop44ColorRGB
 90
      255
102
RTVSPost2010PropOp44
 70
     1
102
RTVSPost2010Prop45
280
     0
102
RTVSPost2010PropOp45
 70
     1
102
RTVSPost2010Prop46
 90
       50
102
RTVSPost2010PropOp46
 70
     1
102
RTVSPost2010Prop47
 90
       50
102
RTVSPost2010PropOp47
 70
     1
102
RTVSPost2010Prop48
 90
       50
102
RTVSPost2010PropOp48
 70
     1
102
RTVSPost2010Prop49
280
     0
102
RTVSPost2010PropOp49
 70
     1
102
RTVSPost2010Prop50
 90
       50
102
RTVSPost2010PropOp50
 70
     1
102
RTVSPost2010Prop51ColorIndex
 90
      256
102
RTVSPost2010Prop51ColorRGB
 90
-16777216
102
RTVSPost2010PropOp51
 70
     0
102
RTVSPost2010Prop52
140
1.0
102
RTVSPost2010PropOp52
 70
     0
102
RTVSPost2010Prop53
 90
        2
102
RTVSPost2010PropOp53
 70
     1
102
RTVSPost2010Prop54
  1
strokes_ogs.tif
102
RTVSPost2010PropOp54
 70
     1
102
RTVSPost2010Prop55
280
     0
102
RTVSPost2010PropOp55
 70
     1
102
RTVSPost2010Prop56
140
1.0
102
RTVSPost2010PropOp56
 70
     1
102
RTVSPost2010Prop57
140
1.0
102
RTVSPost2010PropOp57
 70
     1
102
RTVSPropertyOp0
 70
     1
102
RTVSPropertyOp1
 70
     1
102
RTVSPropertyOp2
 70
     1
102
RTVSPropertyOp3
 70
     1
102
RTVSPropertyOp4
 70
     1
102
RTVSPropertyOp5
 70
     1
102
RTVSPropertyOp6
 70
     1
102
RTVSPropertyOp7
 70
     1
102
RTVSPropertyOp8
 70
     1
102
RTVSPropertyOp9
 70
     1
102
RTVSPropertyOp10
 70
     1
102
RTVSPropertyOp11
 70
     1
102
RTVSPropertyOp12
 70
     1
102
RTVSPropertyOp13
 70
     1
102
RTVSPropertyOp14
 70
     1
102
RTVSPropertyOp15
 70
     1
102
RTVSPropertyOp16
 70
     1
102
RTVSPropertyOp17
 70
     1
102
RTVSPropertyOp18
 70
     1
102
RTVSPropertyOp19
 70
     1
102
RTVSPropertyOp20
 70
     1
102
RTVSPropertyOp21
 70
     1
102
RTVSPropertyOp22
 70
     1
102
RTVSPropertyOp23
 70
     1
102
RTVSPropertyOp24
 70
     1
102
RTVSPropertyOp25
 70
     1
102
RTVSPropertyOp26
 70
     1
102
RTVSPropertyOp27
 70
     1
102
RTVSPropertyOp28
 70
     1
102
RTVSPropertyOp29
 70
     1
102
RTVSPropertyOp30
 70
     1
102
RTVSPropertyOp31
 70
     1
102
RTVSPropertyOp32
 70
     1
102
RTVSPropertyOp33
 70
     1
102
RTVSPropertyOp34
 70
     1
102
RTVSPropertyOp35
 70
     1
102
RTVSPropertyOp36
 70
     1
102
RTVSPropertyOp37
 70
     1
102
RTVSPropertyOp38
 70
     1
102
RTVSPropertyOp39
 70
     1
102
RTVSPropertyOp40
 70
     1
102
RTVSPropertyOp41
 70
     1
102
RTVSPropertyOp42
 70
     1
102
RTVSPropertyOp43
 70
     1
102
RTVSPropertyOp44
 70
     1
102
RTVSPropertyOp45
 70
     1
102
RTVSPropertyOp46
 70
     1
102
RTVSPropertyOp47
 70
     1
102
RTVSPropertyOp48
 70
     1
102
RTVSPropertyOp49
 70
     1
102
RTVSPropertyOp50
 70
     1
102
RTVSPropertyOp51
 70
     0
102
RTVSPropertyOp52
 70
     0
102
RTVSPropertyOp53
 70
     1
102
RTVSPropertyOp54
 70
     1
102
RTVSPropertyOp55
 70
     1
102
RTVSPropertyOp56
 70
     1
102
RTVSPropertyOp57
 70
     1
102
RTVSPropertyOp58
 70
     1
102
RTVSPropertyOp59
 70
     1
102
RTVSPropertyOp60
 70
     1
102
RTVSPropertyOp61
 70
     1
102
RTVSPropertyOp62
 70
     1
  0
XRECORD
  5
5DE
102
{ACAD_REACTORS
330
5DD
102
}
330
5DD
100
AcDbXrecord
280
     1
102
RTVSPost2010Prop28
280
     0
102
RTVSPost2010PropOp28
 70
     1
102
RTVSPost2010Prop29
280
     1
102
RTVSPost2010PropOp29
 70
     1
102
RTVSPost2010Prop30
280
     1
102
RTVSPost2010PropOp30
 70
     1
102
RTVSPost2010Prop31
280
     0
102
RTVSPost2010PropOp31
 70
     1
102
RTVSPost2010Prop32
280
     0
102
RTVSPost2010PropOp32
 70
     1
102
RTVSPost2010Prop33
280
     0
102
RTVSPost2010PropOp33
 70
     1
102
RTVSPost2010Prop34
280
     0
102
RTVSPost2010PropOp34
 70
     1
102
RTVSPost2010Prop35
280
     0
102
RTVSPost2010PropOp35
 70
     1
102
RTVSPost2010Prop36
280
     0
102
RTVSPost2010PropOp36
 70
     1
102
RTVSPost2010Prop37
 90
       50
102
RTVSPost2010PropOp37
 70
     1
102
RTVSPost2010Prop38
140
0.0
102
RTVSPost2010PropOp38
 70
     1
102
RTVSPost2010Prop39
140
1.0
102
RTVSPost2010PropOp39
 70
     1
102
RTVSPost2010Prop40
 90
        0
102
RTVSPost2010PropOp40
 70
     1
102
RTVSPost2010Prop41ColorIndex
 90
       18
102
RTVSPost2010Prop41ColorRGB
 90
        0
102
RTVSPost2010PropOp41
 70
     1
102
RTVSPost2010Prop42
 90
       50
102
RTVSPost2010PropOp42
 70
     1
102
RTVSPost2010Prop43
 90
        3
102
RTVSPost2010PropOp43
 70
     1
102
RTVSPost2010Prop44ColorIndex
 90
        5
102
RTVSPost2010Prop44ColorRGB
 90
      255
102
RTVSPost2010PropOp44
 70
     1
102
RTVSPost2010Prop45
280
     0
102
RTVSPost2010PropOp45
 70
     1
102
RTVSPost2010Prop46
 90
       50
102
RTVSPost2010PropOp46
 70
     1
102
RTVSPost2010Prop47
 90
       50
102
RTVSPost2010PropOp47
 70
     1
102
RTVSPost2010Prop48
 90
       50
102
RTVSPost2010PropOp48
 70
     1
102
RTVSPost2010Prop49
280
     0
102
RTVSPost2010PropOp49
 70
     1
102
RTVSPost2010Prop50
 90
       50
102
RTVSPost2010PropOp50
 70
     1
102
RTVSPost2010Prop51ColorIndex
 90
      256
102
RTVSPost2010Prop51ColorRGB
 90
-16777216
102
RTVSPost2010PropOp51
 70
     0
102
RTVSPost2010Prop52
140
1.0
102
RTVSPost2010PropOp52
 70
     0
102
RTVSPost2010Prop53
 90
        2
102
RTVSPost2010PropOp53
 70
     1
102
RTVSPost2010Prop54
  1
strokes_ogs.tif
102
RTVSPost2010PropOp54
 70
     1
102
RTVSPost2010Prop55
280
     0
102
RTVSPost2010PropOp55
 70
     1
102
RTVSPost2010Prop56
140
1.0
102
RTVSPost2010PropOp56
 70
     1
102
RTVSPost2010Prop57
140
1.0
102
RTVSPost2010PropOp57
 70
     1
102
RTVSPropertyOp0
 70
     1
102
RTVSPropertyOp1
 70
     1
102
RTVSPropertyOp2
 70
     1
102
RTVSPropertyOp3
 70
     1
102
RTVSPropertyOp4
 70
     1
102
RTVSPropertyOp5
 70
     1
102
RTVSPropertyOp6
 70
     1
102
RTVSPropertyOp7
 70
     1
102
RTVSPropertyOp8
 70
     1
102
RTVSPropertyOp9
 70
     1
102
RTVSPropertyOp10
 70
     1
102
RTVSPropertyOp11
 70
     1
102
RTVSPropertyOp12
 70
     1
102
RTVSPropertyOp13
 70
     1
102
RTVSPropertyOp14
 70
     1
102
RTVSPropertyOp15
 70
     1
102
RTVSPropertyOp16
 70
     1
102
RTVSPropertyOp17
 70
     1
102
RTVSPropertyOp18
 70
     1
102
RTVSPropertyOp19
 70
     1
102
RTVSPropertyOp20
 70
     1
102
RTVSPropertyOp21
 70
     1
102
RTVSPropertyOp22
 70
     1
102
RTVSPropertyOp23
 70
     1
102
RTVSPropertyOp24
 70
     1
102
RTVSPropertyOp25
 70
     1
102
RTVSPropertyOp26
 70
     1
102
RTVSPropertyOp27
 70
     1
102
RTVSPropertyOp28
 70
     1
102
RTVSPropertyOp29
 70
     1
102
RTVSPropertyOp30
 70
     1
102
RTVSPropertyOp31
 70
     1
102
RTVSPropertyOp32
 70
     1
102
RTVSPropertyOp33
 70
     1
102
RTVSPropertyOp34
 70
     1
102
RTVSPropertyOp35
 70
     1
102
RTVSPropertyOp36
 70
     1
102
RTVSPropertyOp37
 70
     1
102
RTVSPropertyOp38
 70
     1
102
RTVSPropertyOp39
 70
     1
102
RTVSPropertyOp40
 70
     1
102
RTVSPropertyOp41
 70
     1
102
RTVSPropertyOp42
 70
     1
102
RTVSPropertyOp43
 70
     1
102
RTVSPropertyOp44
 70
     1
102
RTVSPropertyOp45
 70
     1
102
RTVSPropertyOp46
 70
     1
102
RTVSPropertyOp47
 70
     1
102
RTVSPropertyOp48
 70
     1
102
RTVSPropertyOp49
 70
     1
102
RTVSPropertyOp50
 70
     1
102
RTVSPropertyOp51
 70
     0
102
RTVSPropertyOp52
 70
     0
102
RTVSPropertyOp53
 70
     1
102
RTVSPropertyOp54
 70
     1
102
RTVSPropertyOp55
 70
     1
102
RTVSPropertyOp56
 70
     1
102
RTVSPropertyOp57
 70
     1
102
RTVSPropertyOp58
 70
     1
102
RTVSPropertyOp59
 70
     1
102
RTVSPropertyOp60
 70
     1
102
RTVSPropertyOp61
 70
     1
102
RTVSPropertyOp62
 70
     1
  0
XRECORD
  5
5F8
102
{ACAD_REACTORS
330
5F7
102
}
330
5F7
100
AcDbXrecord
280
     1
102
RTVSPost2010Prop28
280
     0
102
RTVSPost2010PropOp28
 70
     0
102
RTVSPost2010Prop29
280
     1
102
RTVSPost2010PropOp29
 70
     0
102
RTVSPost2010Prop30
280
     1
102
RTVSPost2010PropOp30
 70
     0
102
RTVSPost2010Prop31
280
     0
102
RTVSPost2010PropOp31
 70
     0
102
RTVSPost2010Prop32
280
     0
102
RTVSPost2010PropOp32
 70
     0
102
RTVSPost2010Prop33
280
     0
102
RTVSPost2010PropOp33
 70
     0
102
RTVSPost2010Prop34
280
     0
102
RTVSPost2010PropOp34
 70
     0
102
RTVSPost2010Prop35
280
     0
102
RTVSPost2010PropOp35
 70
     0
102
RTVSPost2010Prop36
280
     0
102
RTVSPost2010PropOp36
 70
     0
102
RTVSPost2010Prop37
 90
       50
102
RTVSPost2010PropOp37
 70
     0
102
RTVSPost2010Prop38
140
0.0
102
RTVSPost2010PropOp38
 70
     0
102
RTVSPost2010Prop39
140
1.0
102
RTVSPost2010PropOp39
 70
     0
102
RTVSPost2010Prop40
 90
        0
102
RTVSPost2010PropOp40
 70
     0
102
RTVSPost2010Prop41ColorIndex
 90
       18
102
RTVSPost2010Prop41ColorRGB
 90
        0
102
RTVSPost2010PropOp41
 70
     0
102
RTVSPost2010Prop42
 90
       50
102
RTVSPost2010PropOp42
 70
     0
102
RTVSPost2010Prop43
 90
        3
102
RTVSPost2010PropOp43
 70
     0
102
RTVSPost2010Prop44ColorIndex
 90
        5
102
RTVSPost2010Prop44ColorRGB
 90
      255
102
RTVSPost2010PropOp44
 70
     0
102
RTVSPost2010Prop45
280
     0
102
RTVSPost2010PropOp45
 70
     0
102
RTVSPost2010Prop46
 90
       50
102
RTVSPost2010PropOp46
 70
     0
102
RTVSPost2010Prop47
 90
       50
102
RTVSPost2010PropOp47
 70
     0
102
RTVSPost2010Prop48
 90
       50
102
RTVSPost2010PropOp48
 70
     0
102
RTVSPost2010Prop49
280
     0
102
RTVSPost2010PropOp49
 70
     0
102
RTVSPost2010Prop50
 90
       50
102
RTVSPost2010PropOp50
 70
     0
102
RTVSPost2010Prop51ColorIndex
 90
      256
102
RTVSPost2010Prop51ColorRGB
 90
-16777216
102
RTVSPost2010PropOp51
 70
     0
102
RTVSPost2010Prop52
140
1.0
102
RTVSPost2010PropOp52
 70
     0
102
RTVSPost2010Prop53
 90
        2
102
RTVSPost2010PropOp53
 70
     0
102
RTVSPost2010Prop54
  1
strokes_ogs.tif
102
RTVSPost2010PropOp54
 70
     0
102
RTVSPost2010Prop55
280
     0
102
RTVSPost2010PropOp55
 70
     0
102
RTVSPost2010Prop56
140
1.0
102
RTVSPost2010PropOp56
 70
     0
102
RTVSPost2010Prop57
140
1.0
102
RTVSPost2010PropOp57
 70
     0
102
RTVSPropertyOp0
 70
     0
102
RTVSPropertyOp1
 70
     0
102
RTVSPropertyOp2
 70
     0
102
RTVSPropertyOp3
 70
     0
102
RTVSPropertyOp4
 70
     0
102
RTVSPropertyOp5
 70
     0
102
RTVSPropertyOp6
 70
     0
102
RTVSPropertyOp7
 70
     0
102
RTVSPropertyOp8
 70
     0
102
RTVSPropertyOp9
 70
     0
102
RTVSPropertyOp10
 70
     0
102
RTVSPropertyOp11
 70
     0
102
RTVSPropertyOp12
 70
     0
102
RTVSPropertyOp13
 70
     0
102
RTVSPropertyOp14
 70
     2
102
RTVSPropertyOp15
 70
     0
102
RTVSPropertyOp16
 70
     0
102
RTVSPropertyOp17
 70
     0
102
RTVSPropertyOp18
 70
     0
102
RTVSPropertyOp19
 70
     0
102
RTVSPropertyOp20
 70
     0
102
RTVSPropertyOp21
 70
     0
102
RTVSPropertyOp22
 70
     0
102
RTVSPropertyOp23
 70
     0
102
RTVSPropertyOp24
 70
     0
102
RTVSPropertyOp25
 70
     0
102
RTVSPropertyOp26
 70
     0
102
RTVSPropertyOp27
 70
     0
102
RTVSPropertyOp28
 70
     0
102
RTVSPropertyOp29
 70
     0
102
RTVSPropertyOp30
 70
     0
102
RTVSPropertyOp31
 70
     0
102
RTVSPropertyOp32
 70
     0
102
RTVSPropertyOp33
 70
     0
102
RTVSPropertyOp34
 70
     0
102
RTVSPropertyOp35
 70
     0
102
RTVSPropertyOp36
 70
     0
102
RTVSPropertyOp37
 70
     0
102
RTVSPropertyOp38
 70
     0
102
RTVSPropertyOp39
 70
     0
102
RTVSPropertyOp40
 70
     0
102
RTVSPropertyOp41
 70
     0
102
RTVSPropertyOp42
 70
     0
102
RTVSPropertyOp43
 70
     0
102
RTVSPropertyOp44
 70
     0
102
RTVSPropertyOp45
 70
     0
102
RTVSPropertyOp46
 70
     0
102
RTVSPropertyOp47
 70
     0
102
RTVSPropertyOp48
 70
     0
102
RTVSPropertyOp49
 70
     0
102
RTVSPropertyOp50
 70
     0
102
RTVSPropertyOp51
 70
     0
102
RTVSPropertyOp52
 70
     0
102
RTVSPropertyOp53
 70
     0
102
RTVSPropertyOp54
 70
     0
102
RTVSPropertyOp55
 70
     0
102
RTVSPropertyOp56
 70
     0
102
RTVSPropertyOp57
 70
     0
102
RTVSPropertyOp58
 70
     0
102
RTVSPropertyOp59
 70
     0
102
RTVSPropertyOp60
 70
     0
102
RTVSPropertyOp61
 70
     0
102
RTVSPropertyOp62
 70
     0
  0
XRECORD
  5
5E6
102
{ACAD_REACTORS
330
5E5
102
}
330
5E5
100
AcDbXrecord
280
     1
102
RTVSPost2010Prop28
280
     0
102
RTVSPost2010PropOp28
 70
     1
102
RTVSPost2010Prop29
280
     1
102
RTVSPost2010PropOp29
 70
     1
102
RTVSPost2010Prop30
280
     1
102
RTVSPost2010PropOp30
 70
     1
102
RTVSPost2010Prop31
280
     0
102
RTVSPost2010PropOp31
 70
     1
102
RTVSPost2010Prop32
280
     0
102
RTVSPost2010PropOp32
 70
     1
102
RTVSPost2010Prop33
280
     0
102
RTVSPost2010PropOp33
 70
     1
102
RTVSPost2010Prop34
280
     0
102
RTVSPost2010PropOp34
 70
     1
102
RTVSPost2010Prop35
280
     0
102
RTVSPost2010PropOp35
 70
     1
102
RTVSPost2010Prop36
280
     0
102
RTVSPost2010PropOp36
 70
     1
102
RTVSPost2010Prop37
 90
       50
102
RTVSPost2010PropOp37
 70
     1
102
RTVSPost2010Prop38
140
0.0
102
RTVSPost2010PropOp38
 70
     1
102
RTVSPost2010Prop39
140
1.0
102
RTVSPost2010PropOp39
 70
     1
102
RTVSPost2010Prop40
 90
        0
102
RTVSPost2010PropOp40
 70
     1
102
RTVSPost2010Prop41ColorIndex
 90
       18
102
RTVSPost2010Prop41ColorRGB
 90
        0
102
RTVSPost2010PropOp41
 70
     1
102
RTVSPost2010Prop42
 90
       50
102
RTVSPost2010PropOp42
 70
     1
102
RTVSPost2010Prop43
 90
        3
102
RTVSPost2010PropOp43
 70
     1
102
RTVSPost2010Prop44ColorIndex
 90
        5
102
RTVSPost2010Prop44ColorRGB
 90
      255
102
RTVSPost2010PropOp44
 70
     1
102
RTVSPost2010Prop45
280
     0
102
RTVSPost2010PropOp45
 70
     1
102
RTVSPost2010Prop46
 90
       50
102
RTVSPost2010PropOp46
 70
     1
102
RTVSPost2010Prop47
 90
       50
102
RTVSPost2010PropOp47
 70
     1
102
RTVSPost2010Prop48
 90
       50
102
RTVSPost2010PropOp48
 70
     1
102
RTVSPost2010Prop49
280
     0
102
RTVSPost2010PropOp49
 70
     1
102
RTVSPost2010Prop50
 90
       50
102
RTVSPost2010PropOp50
 70
     1
102
RTVSPost2010Prop51ColorIndex
 90
      256
102
RTVSPost2010Prop51ColorRGB
 90
-16777216
102
RTVSPost2010PropOp51
 70
     0
102
RTVSPost2010Prop52
140
1.0
102
RTVSPost2010PropOp52
 70
     0
102
RTVSPost2010Prop53
 90
        2
102
RTVSPost2010PropOp53
 70
     1
102
RTVSPost2010Prop54
  1
strokes_ogs.tif
102
RTVSPost2010PropOp54
 70
     1
102
RTVSPost2010Prop55
280
     0
102
RTVSPost2010PropOp55
 70
     1
102
RTVSPost2010Prop56
140
1.0
102
RTVSPost2010PropOp56
 70
     1
102
RTVSPost2010Prop57
140
1.0
102
RTVSPost2010PropOp57
 70
     1
102
RTVSPropertyOp0
 70
     1
102
RTVSPropertyOp1
 70
     1
102
RTVSPropertyOp2
 70
     1
102
RTVSPropertyOp3
 70
     1
102
RTVSPropertyOp4
 70
     1
102
RTVSPropertyOp5
 70
     1
102
RTVSPropertyOp6
 70
     1
102
RTVSPropertyOp7
 70
     1
102
RTVSPropertyOp8
 70
     1
102
RTVSPropertyOp9
 70
     1
102
RTVSPropertyOp10
 70
     1
102
RTVSPropertyOp11
 70
     1
102
RTVSPropertyOp12
 70
     1
102
RTVSPropertyOp13
 70
     1
102
RTVSPropertyOp14
 70
     1
102
RTVSPropertyOp15
 70
     1
102
RTVSPropertyOp16
 70
     1
102
RTVSPropertyOp17
 70
     1
102
RTVSPropertyOp18
 70
     1
102
RTVSPropertyOp19
 70
     1
102
RTVSPropertyOp20
 70
     1
102
RTVSPropertyOp21
 70
     1
102
RTVSPropertyOp22
 70
     1
102
RTVSPropertyOp23
 70
     1
102
RTVSPropertyOp24
 70
     1
102
RTVSPropertyOp25
 70
     1
102
RTVSPropertyOp26
 70
     1
102
RTVSPropertyOp27
 70
     1
102
RTVSPropertyOp28
 70
     1
102
RTVSPropertyOp29
 70
     1
102
RTVSPropertyOp30
 70
     1
102
RTVSPropertyOp31
 70
     1
102
RTVSPropertyOp32
 70
     1
102
RTVSPropertyOp33
 70
     1
102
RTVSPropertyOp34
 70
     1
102
RTVSPropertyOp35
 70
     1
102
RTVSPropertyOp36
 70
     1
102
RTVSPropertyOp37
 70
     1
102
RTVSPropertyOp38
 70
     1
102
RTVSPropertyOp39
 70
     1
102
RTVSPropertyOp40
 70
     1
102
RTVSPropertyOp41
 70
     1
102
RTVSPropertyOp42
 70
     1
102
RTVSPropertyOp43
 70
     1
102
RTVSPropertyOp44
 70
     1
102
RTVSPropertyOp45
 70
     1
102
RTVSPropertyOp46
 70
     1
102
RTVSPropertyOp47
 70
     1
102
RTVSPropertyOp48
 70
     1
102
RTVSPropertyOp49
 70
     1
102
RTVSPropertyOp50
 70
     1
102
RTVSPropertyOp51
 70
     0
102
RTVSPropertyOp52
 70
     0
102
RTVSPropertyOp53
 70
     1
102
RTVSPropertyOp54
 70
     1
102
RTVSPropertyOp55
 70
     1
102
RTVSPropertyOp56
 70
     1
102
RTVSPropertyOp57
 70
     1
102
RTVSPropertyOp58
 70
     1
102
RTVSPropertyOp59
 70
     1
102
RTVSPropertyOp60
 70
     1
102
RTVSPropertyOp61
 70
     1
102
RTVSPropertyOp62
 70
     1
  0
XRECORD
  5
5CA
102
{ACAD_REACTORS
330
5C9
102
}
330
5C9
100
AcDbXrecord
280
     1
102
RTVSPost2010Prop28
280
     0
102
RTVSPost2010PropOp28
 70
     1
102
RTVSPost2010Prop29
280
     1
102
RTVSPost2010PropOp29
 70
     1
102
RTVSPost2010Prop30
280
     1
102
RTVSPost2010PropOp30
 70
     1
102
RTVSPost2010Prop31
280
     0
102
RTVSPost2010PropOp31
 70
     1
102
RTVSPost2010Prop32
280
     0
102
RTVSPost2010PropOp32
 70
     1
102
RTVSPost2010Prop33
280
     0
102
RTVSPost2010PropOp33
 70
     1
102
RTVSPost2010Prop34
280
     0
102
RTVSPost2010PropOp34
 70
     1
102
RTVSPost2010Prop35
280
     0
102
RTVSPost2010PropOp35
 70
     1
102
RTVSPost2010Prop36
280
     0
102
RTVSPost2010PropOp36
 70
     1
102
RTVSPost2010Prop37
 90
       50
102
RTVSPost2010PropOp37
 70
     1
102
RTVSPost2010Prop38
140
0.0
102
RTVSPost2010PropOp38
 70
     1
102
RTVSPost2010Prop39
140
1.0
102
RTVSPost2010PropOp39
 70
     1
102
RTVSPost2010Prop40
 90
        0
102
RTVSPost2010PropOp40
 70
     1
102
RTVSPost2010Prop41ColorIndex
 90
       18
102
RTVSPost2010Prop41ColorRGB
 90
        0
102
RTVSPost2010PropOp41
 70
     1
102
RTVSPost2010Prop42
 90
       50
102
RTVSPost2010PropOp42
 70
     1
102
RTVSPost2010Prop43
 90
        3
102
RTVSPost2010PropOp43
 70
     1
102
RTVSPost2010Prop44ColorIndex
 90
        5
102
RTVSPost2010Prop44ColorRGB
 90
      255
102
RTVSPost2010PropOp44
 70
     1
102
RTVSPost2010Prop45
280
     0
102
RTVSPost2010PropOp45
 70
     1
102
RTVSPost2010Prop46
 90
       50
102
RTVSPost2010PropOp46
 70
     1
102
RTVSPost2010Prop47
 90
       50
102
RTVSPost2010PropOp47
 70
     1
102
RTVSPost2010Prop48
 90
       50
102
RTVSPost2010PropOp48
 70
     1
102
RTVSPost2010Prop49
280
     0
102
RTVSPost2010PropOp49
 70
     1
102
RTVSPost2010Prop50
 90
       50
102
RTVSPost2010PropOp50
 70
     1
102
RTVSPost2010Prop51ColorIndex
 90
      256
102
RTVSPost2010Prop51ColorRGB
 90
-16777216
102
RTVSPost2010PropOp51
 70
     0
102
RTVSPost2010Prop52
140
1.0
102
RTVSPost2010PropOp52
 70
     0
102
RTVSPost2010Prop53
 90
        2
102
RTVSPost2010PropOp53
 70
     1
102
RTVSPost2010Prop54
  1
strokes_ogs.tif
102
RTVSPost2010PropOp54
 70
     1
102
RTVSPost2010Prop55
280
     0
102
RTVSPost2010PropOp55
 70
     1
102
RTVSPost2010Prop56
140
1.0
102
RTVSPost2010PropOp56
 70
     1
102
RTVSPost2010Prop57
140
1.0
102
RTVSPost2010PropOp57
 70
     1
102
RTVSPropertyOp0
 70
     1
102
RTVSPropertyOp1
 70
     1
102
RTVSPropertyOp2
 70
     1
102
RTVSPropertyOp3
 70
     1
102
RTVSPropertyOp4
 70
     1
102
RTVSPropertyOp5
 70
     1
102
RTVSPropertyOp6
 70
     1
102
RTVSPropertyOp7
 70
     1
102
RTVSPropertyOp8
 70
     1
102
RTVSPropertyOp9
 70
     1
102
RTVSPropertyOp10
 70
     1
102
RTVSPropertyOp11
 70
     1
102
RTVSPropertyOp12
 70
     1
102
RTVSPropertyOp13
 70
     1
102
RTVSPropertyOp14
 70
     1
102
RTVSPropertyOp15
 70
     1
102
RTVSPropertyOp16
 70
     1
102
RTVSPropertyOp17
 70
     1
102
RTVSPropertyOp18
 70
     1
102
RTVSPropertyOp19
 70
     1
102
RTVSPropertyOp20
 70
     1
102
RTVSPropertyOp21
 70
     1
102
RTVSPropertyOp22
 70
     1
102
RTVSPropertyOp23
 70
     1
102
RTVSPropertyOp24
 70
     1
102
RTVSPropertyOp25
 70
     1
102
RTVSPropertyOp26
 70
     1
102
RTVSPropertyOp27
 70
     1
102
RTVSPropertyOp28
 70
     1
102
RTVSPropertyOp29
 70
     1
102
RTVSPropertyOp30
 70
     1
102
RTVSPropertyOp31
 70
     1
102
RTVSPropertyOp32
 70
     1
102
RTVSPropertyOp33
 70
     1
102
RTVSPropertyOp34
 70
     1
102
RTVSPropertyOp35
 70
     1
102
RTVSPropertyOp36
 70
     1
102
RTVSPropertyOp37
 70
     1
102
RTVSPropertyOp38
 70
     1
102
RTVSPropertyOp39
 70
     1
102
RTVSPropertyOp40
 70
     1
102
RTVSPropertyOp41
 70
     1
102
RTVSPropertyOp42
 70
     1
102
RTVSPropertyOp43
 70
     1
102
RTVSPropertyOp44
 70
     1
102
RTVSPropertyOp45
 70
     1
102
RTVSPropertyOp46
 70
     1
102
RTVSPropertyOp47
 70
     1
102
RTVSPropertyOp48
 70
     1
102
RTVSPropertyOp49
 70
     1
102
RTVSPropertyOp50
 70
     1
102
RTVSPropertyOp51
 70
     0
102
RTVSPropertyOp52
 70
     0
102
RTVSPropertyOp53
 70
     1
102
RTVSPropertyOp54
 70
     1
102
RTVSPropertyOp55
 70
     1
102
RTVSPropertyOp56
 70
     1
102
RTVSPropertyOp57
 70
     1
102
RTVSPropertyOp58
 70
     1
102
RTVSPropertyOp59
 70
     1
102
RTVSPropertyOp60
 70
     1
102
RTVSPropertyOp61
 70
     1
102
RTVSPropertyOp62
 70
     1
  0
XRECORD
  5
5CC
102
{ACAD_REACTORS
330
5CB
102
}
330
5CB
100
AcDbXrecord
280
     1
102
RTVSPost2010Prop28
280
     0
102
RTVSPost2010PropOp28
 70
     1
102
RTVSPost2010Prop29
280
     1
102
RTVSPost2010PropOp29
 70
     1
102
RTVSPost2010Prop30
280
     1
102
RTVSPost2010PropOp30
 70
     1
102
RTVSPost2010Prop31
280
     0
102
RTVSPost2010PropOp31
 70
     1
102
RTVSPost2010Prop32
280
     0
102
RTVSPost2010PropOp32
 70
     1
102
RTVSPost2010Prop33
280
     0
102
RTVSPost2010PropOp33
 70
     1
102
RTVSPost2010Prop34
280
     0
102
RTVSPost2010PropOp34
 70
     1
102
RTVSPost2010Prop35
280
     0
102
RTVSPost2010PropOp35
 70
     1
102
RTVSPost2010Prop36
280
     0
102
RTVSPost2010PropOp36
 70
     1
102
RTVSPost2010Prop37
 90
       50
102
RTVSPost2010PropOp37
 70
     1
102
RTVSPost2010Prop38
140
0.0
102
RTVSPost2010PropOp38
 70
     1
102
RTVSPost2010Prop39
140
1.0
102
RTVSPost2010PropOp39
 70
     1
102
RTVSPost2010Prop40
 90
        0
102
RTVSPost2010PropOp40
 70
     1
102
RTVSPost2010Prop41ColorIndex
 90
       18
102
RTVSPost2010Prop41ColorRGB
 90
        0
102
RTVSPost2010PropOp41
 70
     1
102
RTVSPost2010Prop42
 90
       50
102
RTVSPost2010PropOp42
 70
     1
102
RTVSPost2010Prop43
 90
        3
102
RTVSPost2010PropOp43
 70
     1
102
RTVSPost2010Prop44ColorIndex
 90
        5
102
RTVSPost2010Prop44ColorRGB
 90
      255
102
RTVSPost2010PropOp44
 70
     1
102
RTVSPost2010Prop45
280
     0
102
RTVSPost2010PropOp45
 70
     1
102
RTVSPost2010Prop46
 90
       50
102
RTVSPost2010PropOp46
 70
     1
102
RTVSPost2010Prop47
 90
       50
102
RTVSPost2010PropOp47
 70
     1
102
RTVSPost2010Prop48
 90
       50
102
RTVSPost2010PropOp48
 70
     1
102
RTVSPost2010Prop49
280
     0
102
RTVSPost2010PropOp49
 70
     1
102
RTVSPost2010Prop50
 90
       50
102
RTVSPost2010PropOp50
 70
     1
102
RTVSPost2010Prop51ColorIndex
 90
      256
102
RTVSPost2010Prop51ColorRGB
 90
-16777216
102
RTVSPost2010PropOp51
 70
     0
102
RTVSPost2010Prop52
140
1.0
102
RTVSPost2010PropOp52
 70
     0
102
RTVSPost2010Prop53
 90
        2
102
RTVSPost2010PropOp53
 70
     1
102
RTVSPost2010Prop54
  1
strokes_ogs.tif
102
RTVSPost2010PropOp54
 70
     1
102
RTVSPost2010Prop55
280
     0
102
RTVSPost2010PropOp55
 70
     1
102
RTVSPost2010Prop56
140
1.0
102
RTVSPost2010PropOp56
 70
     1
102
RTVSPost2010Prop57
140
1.0
102
RTVSPost2010PropOp57
 70
     1
102
RTVSPropertyOp0
 70
     1
102
RTVSPropertyOp1
 70
     1
102
RTVSPropertyOp2
 70
     1
102
RTVSPropertyOp3
 70
     1
102
RTVSPropertyOp4
 70
     1
102
RTVSPropertyOp5
 70
     1
102
RTVSPropertyOp6
 70
     1
102
RTVSPropertyOp7
 70
     1
102
RTVSPropertyOp8
 70
     1
102
RTVSPropertyOp9
 70
     1
102
RTVSPropertyOp10
 70
     1
102
RTVSPropertyOp11
 70
     1
102
RTVSPropertyOp12
 70
     1
102
RTVSPropertyOp13
 70
     1
102
RTVSPropertyOp14
 70
     1
102
RTVSPropertyOp15
 70
     1
102
RTVSPropertyOp16
 70
     1
102
RTVSPropertyOp17
 70
     1
102
RTVSPropertyOp18
 70
     1
102
RTVSPropertyOp19
 70
     1
102
RTVSPropertyOp20
 70
     1
102
RTVSPropertyOp21
 70
     1
102
RTVSPropertyOp22
 70
     1
102
RTVSPropertyOp23
 70
     1
102
RTVSPropertyOp24
 70
     1
102
RTVSPropertyOp25
 70
     1
102
RTVSPropertyOp26
 70
     1
102
RTVSPropertyOp27
 70
     1
102
RTVSPropertyOp28
 70
     1
102
RTVSPropertyOp29
 70
     1
102
RTVSPropertyOp30
 70
     1
102
RTVSPropertyOp31
 70
     1
102
RTVSPropertyOp32
 70
     1
102
RTVSPropertyOp33
 70
     1
102
RTVSPropertyOp34
 70
     1
102
RTVSPropertyOp35
 70
     1
102
RTVSPropertyOp36
 70
     1
102
RTVSPropertyOp37
 70
     1
102
RTVSPropertyOp38
 70
     1
102
RTVSPropertyOp39
 70
     1
102
RTVSPropertyOp40
 70
     1
102
RTVSPropertyOp41
 70
     1
102
RTVSPropertyOp42
 70
     1
102
RTVSPropertyOp43
 70
     1
102
RTVSPropertyOp44
 70
     1
102
RTVSPropertyOp45
 70
     1
102
RTVSPropertyOp46
 70
     1
102
RTVSPropertyOp47
 70
     1
102
RTVSPropertyOp48
 70
     1
102
RTVSPropertyOp49
 70
     1
102
RTVSPropertyOp50
 70
     1
102
RTVSPropertyOp51
 70
     0
102
RTVSPropertyOp52
 70
     0
102
RTVSPropertyOp53
 70
     1
102
RTVSPropertyOp54
 70
     1
102
RTVSPropertyOp55
 70
     1
102
RTVSPropertyOp56
 70
     1
102
RTVSPropertyOp57
 70
     1
102
RTVSPropertyOp58
 70
     1
102
RTVSPropertyOp59
 70
     1
102
RTVSPropertyOp60
 70
     1
102
RTVSPropertyOp61
 70
     1
102
RTVSPropertyOp62
 70
     1
  0
XRECORD
  5
5CE
102
{ACAD_REACTORS
330
5CD
102
}
330
5CD
100
AcDbXrecord
280
     1
102
RTVSPost2010Prop28
280
     0
102
RTVSPost2010PropOp28
 70
     1
102
RTVSPost2010Prop29
280
     1
102
RTVSPost2010PropOp29
 70
     1
102
RTVSPost2010Prop30
280
     1
102
RTVSPost2010PropOp30
 70
     1
102
RTVSPost2010Prop31
280
     0
102
RTVSPost2010PropOp31
 70
     1
102
RTVSPost2010Prop32
280
     0
102
RTVSPost2010PropOp32
 70
     1
102
RTVSPost2010Prop33
280
     0
102
RTVSPost2010PropOp33
 70
     1
102
RTVSPost2010Prop34
280
     0
102
RTVSPost2010PropOp34
 70
     1
102
RTVSPost2010Prop35
280
     0
102
RTVSPost2010PropOp35
 70
     1
102
RTVSPost2010Prop36
280
     0
102
RTVSPost2010PropOp36
 70
     1
102
RTVSPost2010Prop37
 90
       50
102
RTVSPost2010PropOp37
 70
     1
102
RTVSPost2010Prop38
140
0.0
102
RTVSPost2010PropOp38
 70
     1
102
RTVSPost2010Prop39
140
1.0
102
RTVSPost2010PropOp39
 70
     1
102
RTVSPost2010Prop40
 90
        0
102
RTVSPost2010PropOp40
 70
     1
102
RTVSPost2010Prop41ColorIndex
 90
       18
102
RTVSPost2010Prop41ColorRGB
 90
        0
102
RTVSPost2010PropOp41
 70
     1
102
RTVSPost2010Prop42
 90
       50
102
RTVSPost2010PropOp42
 70
     1
102
RTVSPost2010Prop43
 90
        3
102
RTVSPost2010PropOp43
 70
     1
102
RTVSPost2010Prop44ColorIndex
 90
        5
102
RTVSPost2010Prop44ColorRGB
 90
      255
102
RTVSPost2010PropOp44
 70
     1
102
RTVSPost2010Prop45
280
     0
102
RTVSPost2010PropOp45
 70
     1
102
RTVSPost2010Prop46
 90
       50
102
RTVSPost2010PropOp46
 70
     1
102
RTVSPost2010Prop47
 90
       50
102
RTVSPost2010PropOp47
 70
     1
102
RTVSPost2010Prop48
 90
       50
102
RTVSPost2010PropOp48
 70
     1
102
RTVSPost2010Prop49
280
     0
102
RTVSPost2010PropOp49
 70
     1
102
RTVSPost2010Prop50
 90
       50
102
RTVSPost2010PropOp50
 70
     1
102
RTVSPost2010Prop51ColorIndex
 90
      256
102
RTVSPost2010Prop51ColorRGB
 90
-16777216
102
RTVSPost2010PropOp51
 70
     0
102
RTVSPost2010Prop52
140
1.0
102
RTVSPost2010PropOp52
 70
     0
102
RTVSPost2010Prop53
 90
        2
102
RTVSPost2010PropOp53
 70
     1
102
RTVSPost2010Prop54
  1
strokes_ogs.tif
102
RTVSPost2010PropOp54
 70
     1
102
RTVSPost2010Prop55
280
     0
102
RTVSPost2010PropOp55
 70
     1
102
RTVSPost2010Prop56
140
1.0
102
RTVSPost2010PropOp56
 70
     1
102
RTVSPost2010Prop57
140
1.0
102
RTVSPost2010PropOp57
 70
     1
102
RTVSPropertyOp0
 70
     1
102
RTVSPropertyOp1
 70
     1
102
RTVSPropertyOp2
 70
     1
102
RTVSPropertyOp3
 70
     1
102
RTVSPropertyOp4
 70
     1
102
RTVSPropertyOp5
 70
     1
102
RTVSPropertyOp6
 70
     1
102
RTVSPropertyOp7
 70
     1
102
RTVSPropertyOp8
 70
     1
102
RTVSPropertyOp9
 70
     1
102
RTVSPropertyOp10
 70
     1
102
RTVSPropertyOp11
 70
     1
102
RTVSPropertyOp12
 70
     1
102
RTVSPropertyOp13
 70
     1
102
RTVSPropertyOp14
 70
     1
102
RTVSPropertyOp15
 70
     1
102
RTVSPropertyOp16
 70
     1
102
RTVSPropertyOp17
 70
     1
102
RTVSPropertyOp18
 70
     1
102
RTVSPropertyOp19
 70
     1
102
RTVSPropertyOp20
 70
     1
102
RTVSPropertyOp21
 70
     1
102
RTVSPropertyOp22
 70
     1
102
RTVSPropertyOp23
 70
     1
102
RTVSPropertyOp24
 70
     1
102
RTVSPropertyOp25
 70
     1
102
RTVSPropertyOp26
 70
     1
102
RTVSPropertyOp27
 70
     1
102
RTVSPropertyOp28
 70
     1
102
RTVSPropertyOp29
 70
     1
102
RTVSPropertyOp30
 70
     1
102
RTVSPropertyOp31
 70
     1
102
RTVSPropertyOp32
 70
     1
102
RTVSPropertyOp33
 70
     1
102
RTVSPropertyOp34
 70
     1
102
RTVSPropertyOp35
 70
     1
102
RTVSPropertyOp36
 70
     1
102
RTVSPropertyOp37
 70
     1
102
RTVSPropertyOp38
 70
     1
102
RTVSPropertyOp39
 70
     1
102
RTVSPropertyOp40
 70
     1
102
RTVSPropertyOp41
 70
     1
102
RTVSPropertyOp42
 70
     1
102
RTVSPropertyOp43
 70
     1
102
RTVSPropertyOp44
 70
     1
102
RTVSPropertyOp45
 70
     1
102
RTVSPropertyOp46
 70
     1
102
RTVSPropertyOp47
 70
     1
102
RTVSPropertyOp48
 70
     1
102
RTVSPropertyOp49
 70
     1
102
RTVSPropertyOp50
 70
     1
102
RTVSPropertyOp51
 70
     0
102
RTVSPropertyOp52
 70
     0
102
RTVSPropertyOp53
 70
     1
102
RTVSPropertyOp54
 70
     1
102
RTVSPropertyOp55
 70
     1
102
RTVSPropertyOp56
 70
     1
102
RTVSPropertyOp57
 70
     1
102
RTVSPropertyOp58
 70
     1
102
RTVSPropertyOp59
 70
     1
102
RTVSPropertyOp60
 70
     1
102
RTVSPropertyOp61
 70
     1
102
RTVSPropertyOp62
 70
     1
  0
XRECORD
  5
5D0
102
{ACAD_REACTORS
330
5CF
102
}
330
5CF
100
AcDbXrecord
280
     1
102
RTVSPost2010Prop28
280
     0
102
RTVSPost2010PropOp28
 70
     1
102
RTVSPost2010Prop29
280
     1
102
RTVSPost2010PropOp29
 70
     1
102
RTVSPost2010Prop30
280
     1
102
RTVSPost2010PropOp30
 70
     1
102
RTVSPost2010Prop31
280
     0
102
RTVSPost2010PropOp31
 70
     1
102
RTVSPost2010Prop32
280
     0
102
RTVSPost2010PropOp32
 70
     1
102
RTVSPost2010Prop33
280
     0
102
RTVSPost2010PropOp33
 70
     1
102
RTVSPost2010Prop34
280
     0
102
RTVSPost2010PropOp34
 70
     1
102
RTVSPost2010Prop35
280
     0
102
RTVSPost2010PropOp35
 70
     1
102
RTVSPost2010Prop36
280
     0
102
RTVSPost2010PropOp36
 70
     1
102
RTVSPost2010Prop37
 90
       50
102
RTVSPost2010PropOp37
 70
     1
102
RTVSPost2010Prop38
140
0.0
102
RTVSPost2010PropOp38
 70
     1
102
RTVSPost2010Prop39
140
1.0
102
RTVSPost2010PropOp39
 70
     1
102
RTVSPost2010Prop40
 90
        0
102
RTVSPost2010PropOp40
 70
     1
102
RTVSPost2010Prop41ColorIndex
 90
       18
102
RTVSPost2010Prop41ColorRGB
 90
        0
102
RTVSPost2010PropOp41
 70
     1
102
RTVSPost2010Prop42
 90
       50
102
RTVSPost2010PropOp42
 70
     1
102
RTVSPost2010Prop43
 90
        3
102
RTVSPost2010PropOp43
 70
     1
102
RTVSPost2010Prop44ColorIndex
 90
        5
102
RTVSPost2010Prop44ColorRGB
 90
      255
102
RTVSPost2010PropOp44
 70
     1
102
RTVSPost2010Prop45
280
     0
102
RTVSPost2010PropOp45
 70
     1
102
RTVSPost2010Prop46
 90
       50
102
RTVSPost2010PropOp46
 70
     1
102
RTVSPost2010Prop47
 90
       50
102
RTVSPost2010PropOp47
 70
     1
102
RTVSPost2010Prop48
 90
       50
102
RTVSPost2010PropOp48
 70
     1
102
RTVSPost2010Prop49
280
     0
102
RTVSPost2010PropOp49
 70
     1
102
RTVSPost2010Prop50
 90
       50
102
RTVSPost2010PropOp50
 70
     1
102
RTVSPost2010Prop51ColorIndex
 90
      256
102
RTVSPost2010Prop51ColorRGB
 90
-16777216
102
RTVSPost2010PropOp51
 70
     0
102
RTVSPost2010Prop52
140
1.0
102
RTVSPost2010PropOp52
 70
     0
102
RTVSPost2010Prop53
 90
        2
102
RTVSPost2010PropOp53
 70
     1
102
RTVSPost2010Prop54
  1
strokes_ogs.tif
102
RTVSPost2010PropOp54
 70
     1
102
RTVSPost2010Prop55
280
     0
102
RTVSPost2010PropOp55
 70
     1
102
RTVSPost2010Prop56
140
1.0
102
RTVSPost2010PropOp56
 70
     1
102
RTVSPost2010Prop57
140
1.0
102
RTVSPost2010PropOp57
 70
     1
102
RTVSPropertyOp0
 70
     1
102
RTVSPropertyOp1
 70
     1
102
RTVSPropertyOp2
 70
     1
102
RTVSPropertyOp3
 70
     1
102
RTVSPropertyOp4
 70
     1
102
RTVSPropertyOp5
 70
     1
102
RTVSPropertyOp6
 70
     1
102
RTVSPropertyOp7
 70
     1
102
RTVSPropertyOp8
 70
     1
102
RTVSPropertyOp9
 70
     1
102
RTVSPropertyOp10
 70
     1
102
RTVSPropertyOp11
 70
     1
102
RTVSPropertyOp12
 70
     1
102
RTVSPropertyOp13
 70
     1
102
RTVSPropertyOp14
 70
     1
102
RTVSPropertyOp15
 70
     1
102
RTVSPropertyOp16
 70
     1
102
RTVSPropertyOp17
 70
     1
102
RTVSPropertyOp18
 70
     1
102
RTVSPropertyOp19
 70
     1
102
RTVSPropertyOp20
 70
     1
102
RTVSPropertyOp21
 70
     1
102
RTVSPropertyOp22
 70
     1
102
RTVSPropertyOp23
 70
     1
102
RTVSPropertyOp24
 70
     1
102
RTVSPropertyOp25
 70
     1
102
RTVSPropertyOp26
 70
     1
102
RTVSPropertyOp27
 70
     1
102
RTVSPropertyOp28
 70
     1
102
RTVSPropertyOp29
 70
     1
102
RTVSPropertyOp30
 70
     1
102
RTVSPropertyOp31
 70
     1
102
RTVSPropertyOp32
 70
     1
102
RTVSPropertyOp33
 70
     1
102
RTVSPropertyOp34
 70
     1
102
RTVSPropertyOp35
 70
     1
102
RTVSPropertyOp36
 70
     1
102
RTVSPropertyOp37
 70
     1
102
RTVSPropertyOp38
 70
     1
102
RTVSPropertyOp39
 70
     1
102
RTVSPropertyOp40
 70
     1
102
RTVSPropertyOp41
 70
     1
102
RTVSPropertyOp42
 70
     1
102
RTVSPropertyOp43
 70
     1
102
RTVSPropertyOp44
 70
     1
102
RTVSPropertyOp45
 70
     1
102
RTVSPropertyOp46
 70
     1
102
RTVSPropertyOp47
 70
     1
102
RTVSPropertyOp48
 70
     1
102
RTVSPropertyOp49
 70
     1
102
RTVSPropertyOp50
 70
     1
102
RTVSPropertyOp51
 70
     0
102
RTVSPropertyOp52
 70
     0
102
RTVSPropertyOp53
 70
     1
102
RTVSPropertyOp54
 70
     1
102
RTVSPropertyOp55
 70
     1
102
RTVSPropertyOp56
 70
     1
102
RTVSPropertyOp57
 70
     1
102
RTVSPropertyOp58
 70
     1
102
RTVSPropertyOp59
 70
     1
102
RTVSPropertyOp60
 70
     1
102
RTVSPropertyOp61
 70
     1
102
RTVSPropertyOp62
 70
     1
  0
XRECORD
  5
5D8
102
{ACAD_REACTORS
330
5D7
102
}
330
5D7
100
AcDbXrecord
280
     1
102
RTVSPost2010Prop28
280
     0
102
RTVSPost2010PropOp28
 70
     1
102
RTVSPost2010Prop29
280
     1
102
RTVSPost2010PropOp29
 70
     1
102
RTVSPost2010Prop30
280
     1
102
RTVSPost2010PropOp30
 70
     1
102
RTVSPost2010Prop31
280
     0
102
RTVSPost2010PropOp31
 70
     1
102
RTVSPost2010Prop32
280
     0
102
RTVSPost2010PropOp32
 70
     1
102
RTVSPost2010Prop33
280
     0
102
RTVSPost2010PropOp33
 70
     1
102
RTVSPost2010Prop34
280
     0
102
RTVSPost2010PropOp34
 70
     1
102
RTVSPost2010Prop35
280
     0
102
RTVSPost2010PropOp35
 70
     1
102
RTVSPost2010Prop36
280
     0
102
RTVSPost2010PropOp36
 70
     1
102
RTVSPost2010Prop37
 90
       50
102
RTVSPost2010PropOp37
 70
     1
102
RTVSPost2010Prop38
140
0.0
102
RTVSPost2010PropOp38
 70
     1
102
RTVSPost2010Prop39
140
1.0
102
RTVSPost2010PropOp39
 70
     1
102
RTVSPost2010Prop40
 90
        0
102
RTVSPost2010PropOp40
 70
     1
102
RTVSPost2010Prop41ColorIndex
 90
       18
102
RTVSPost2010Prop41ColorRGB
 90
        0
102
RTVSPost2010PropOp41
 70
     1
102
RTVSPost2010Prop42
 90
       50
102
RTVSPost2010PropOp42
 70
     1
102
RTVSPost2010Prop43
 90
        3
102
RTVSPost2010PropOp43
 70
     1
102
RTVSPost2010Prop44ColorIndex
 90
        5
102
RTVSPost2010Prop44ColorRGB
 90
      255
102
RTVSPost2010PropOp44
 70
     1
102
RTVSPost2010Prop45
280
     0
102
RTVSPost2010PropOp45
 70
     1
102
RTVSPost2010Prop46
 90
       50
102
RTVSPost2010PropOp46
 70
     1
102
RTVSPost2010Prop47
 90
       50
102
RTVSPost2010PropOp47
 70
     1
102
RTVSPost2010Prop48
 90
       50
102
RTVSPost2010PropOp48
 70
     1
102
RTVSPost2010Prop49
280
     0
102
RTVSPost2010PropOp49
 70
     1
102
RTVSPost2010Prop50
 90
       50
102
RTVSPost2010PropOp50
 70
     1
102
RTVSPost2010Prop51ColorIndex
 90
      256
102
RTVSPost2010Prop51ColorRGB
 90
-16777216
102
RTVSPost2010PropOp51
 70
     0
102
RTVSPost2010Prop52
140
1.0
102
RTVSPost2010PropOp52
 70
     0
102
RTVSPost2010Prop53
 90
        2
102
RTVSPost2010PropOp53
 70
     1
102
RTVSPost2010Prop54
  1
strokes_ogs.tif
102
RTVSPost2010PropOp54
 70
     1
102
RTVSPost2010Prop55
280
     0
102
RTVSPost2010PropOp55
 70
     1
102
RTVSPost2010Prop56
140
1.0
102
RTVSPost2010PropOp56
 70
     1
102
RTVSPost2010Prop57
140
1.0
102
RTVSPost2010PropOp57
 70
     1
102
RTVSPropertyOp0
 70
     1
102
RTVSPropertyOp1
 70
     1
102
RTVSPropertyOp2
 70
     1
102
RTVSPropertyOp3
 70
     1
102
RTVSPropertyOp4
 70
     1
102
RTVSPropertyOp5
 70
     1
102
RTVSPropertyOp6
 70
     1
102
RTVSPropertyOp7
 70
     1
102
RTVSPropertyOp8
 70
     1
102
RTVSPropertyOp9
 70
     1
102
RTVSPropertyOp10
 70
     1
102
RTVSPropertyOp11
 70
     1
102
RTVSPropertyOp12
 70
     1
102
RTVSPropertyOp13
 70
     1
102
RTVSPropertyOp14
 70
     1
102
RTVSPropertyOp15
 70
     1
102
RTVSPropertyOp16
 70
     1
102
RTVSPropertyOp17
 70
     1
102
RTVSPropertyOp18
 70
     1
102
RTVSPropertyOp19
 70
     1
102
RTVSPropertyOp20
 70
     1
102
RTVSPropertyOp21
 70
     1
102
RTVSPropertyOp22
 70
     1
102
RTVSPropertyOp23
 70
     1
102
RTVSPropertyOp24
 70
     1
102
RTVSPropertyOp25
 70
     1
102
RTVSPropertyOp26
 70
     1
102
RTVSPropertyOp27
 70
     1
102
RTVSPropertyOp28
 70
     1
102
RTVSPropertyOp29
 70
     1
102
RTVSPropertyOp30
 70
     1
102
RTVSPropertyOp31
 70
     1
102
RTVSPropertyOp32
 70
     1
102
RTVSPropertyOp33
 70
     1
102
RTVSPropertyOp34
 70
     1
102
RTVSPropertyOp35
 70
     1
102
RTVSPropertyOp36
 70
     1
102
RTVSPropertyOp37
 70
     1
102
RTVSPropertyOp38
 70
     1
102
RTVSPropertyOp39
 70
     1
102
RTVSPropertyOp40
 70
     1
102
RTVSPropertyOp41
 70
     1
102
RTVSPropertyOp42
 70
     1
102
RTVSPropertyOp43
 70
     1
102
RTVSPropertyOp44
 70
     1
102
RTVSPropertyOp45
 70
     1
102
RTVSPropertyOp46
 70
     1
102
RTVSPropertyOp47
 70
     1
102
RTVSPropertyOp48
 70
     1
102
RTVSPropertyOp49
 70
     1
102
RTVSPropertyOp50
 70
     1
102
RTVSPropertyOp51
 70
     0
102
RTVSPropertyOp52
 70
     0
102
RTVSPropertyOp53
 70
     1
102
RTVSPropertyOp54
 70
     1
102
RTVSPropertyOp55
 70
     1
102
RTVSPropertyOp56
 70
     1
102
RTVSPropertyOp57
 70
     1
102
RTVSPropertyOp58
 70
     1
102
RTVSPropertyOp59
 70
     1
102
RTVSPropertyOp60
 70
     1
102
RTVSPropertyOp61
 70
     1
102
RTVSPropertyOp62
 70
     1
  0
XRECORD
  5
5F4
102
{ACAD_REACTORS
330
5F3
102
}
330
5F3
100
AcDbXrecord
280
     1
102
RTVSPost2010Prop28
280
     0
102
RTVSPost2010PropOp28
 70
     0
102
RTVSPost2010Prop29
280
     1
102
RTVSPost2010PropOp29
 70
     0
102
RTVSPost2010Prop30
280
     1
102
RTVSPost2010PropOp30
 70
     0
102
RTVSPost2010Prop31
280
     0
102
RTVSPost2010PropOp31
 70
     0
102
RTVSPost2010Prop32
280
     0
102
RTVSPost2010PropOp32
 70
     0
102
RTVSPost2010Prop33
280
     0
102
RTVSPost2010PropOp33
 70
     0
102
RTVSPost2010Prop34
280
     0
102
RTVSPost2010PropOp34
 70
     0
102
RTVSPost2010Prop35
280
     0
102
RTVSPost2010PropOp35
 70
     0
102
RTVSPost2010Prop36
280
     0
102
RTVSPost2010PropOp36
 70
     0
102
RTVSPost2010Prop37
 90
       50
102
RTVSPost2010PropOp37
 70
     0
102
RTVSPost2010Prop38
140
0.0
102
RTVSPost2010PropOp38
 70
     0
102
RTVSPost2010Prop39
140
1.0
102
RTVSPost2010PropOp39
 70
     0
102
RTVSPost2010Prop40
 90
        0
102
RTVSPost2010PropOp40
 70
     0
102
RTVSPost2010Prop41ColorIndex
 90
       18
102
RTVSPost2010Prop41ColorRGB
 90
        0
102
RTVSPost2010PropOp41
 70
     0
102
RTVSPost2010Prop42
 90
       50
102
RTVSPost2010PropOp42
 70
     0
102
RTVSPost2010Prop43
 90
        3
102
RTVSPost2010PropOp43
 70
     0
102
RTVSPost2010Prop44ColorIndex
 90
        5
102
RTVSPost2010Prop44ColorRGB
 90
      255
102
RTVSPost2010PropOp44
 70
     0
102
RTVSPost2010Prop45
280
     0
102
RTVSPost2010PropOp45
 70
     0
102
RTVSPost2010Prop46
 90
       50
102
RTVSPost2010PropOp46
 70
     0
102
RTVSPost2010Prop47
 90
       50
102
RTVSPost2010PropOp47
 70
     0
102
RTVSPost2010Prop48
 90
       50
102
RTVSPost2010PropOp48
 70
     0
102
RTVSPost2010Prop49
280
     0
102
RTVSPost2010PropOp49
 70
     0
102
RTVSPost2010Prop50
 90
       50
102
RTVSPost2010PropOp50
 70
     0
102
RTVSPost2010Prop51ColorIndex
 90
      256
102
RTVSPost2010Prop51ColorRGB
 90
-16777216
102
RTVSPost2010PropOp51
 70
     0
102
RTVSPost2010Prop52
140
1.0
102
RTVSPost2010PropOp52
 70
     0
102
RTVSPost2010Prop53
 90
        2
102
RTVSPost2010PropOp53
 70
     0
102
RTVSPost2010Prop54
  1
strokes_ogs.tif
102
RTVSPost2010PropOp54
 70
     0
102
RTVSPost2010Prop55
280
     0
102
RTVSPost2010PropOp55
 70
     0
102
RTVSPost2010Prop56
140
1.0
102
RTVSPost2010PropOp56
 70
     0
102
RTVSPost2010Prop57
140
1.0
102
RTVSPost2010PropOp57
 70
     0
102
RTVSPropertyOp0
 70
     0
102
RTVSPropertyOp1
 70
     0
102
RTVSPropertyOp2
 70
     0
102
RTVSPropertyOp3
 70
     0
102
RTVSPropertyOp4
 70
     0
102
RTVSPropertyOp5
 70
     0
102
RTVSPropertyOp6
 70
     0
102
RTVSPropertyOp7
 70
     0
102
RTVSPropertyOp8
 70
     0
102
RTVSPropertyOp9
 70
     0
102
RTVSPropertyOp10
 70
     0
102
RTVSPropertyOp11
 70
     0
102
RTVSPropertyOp12
 70
     0
102
RTVSPropertyOp13
 70
     0
102
RTVSPropertyOp14
 70
     2
102
RTVSPropertyOp15
 70
     0
102
RTVSPropertyOp16
 70
     0
102
RTVSPropertyOp17
 70
     0
102
RTVSPropertyOp18
 70
     0
102
RTVSPropertyOp19
 70
     0
102
RTVSPropertyOp20
 70
     0
102
RTVSPropertyOp21
 70
     0
102
RTVSPropertyOp22
 70
     0
102
RTVSPropertyOp23
 70
     0
102
RTVSPropertyOp24
 70
     0
102
RTVSPropertyOp25
 70
     0
102
RTVSPropertyOp26
 70
     0
102
RTVSPropertyOp27
 70
     0
102
RTVSPropertyOp28
 70
     0
102
RTVSPropertyOp29
 70
     0
102
RTVSPropertyOp30
 70
     0
102
RTVSPropertyOp31
 70
     0
102
RTVSPropertyOp32
 70
     0
102
RTVSPropertyOp33
 70
     0
102
RTVSPropertyOp34
 70
     0
102
RTVSPropertyOp35
 70
     0
102
RTVSPropertyOp36
 70
     0
102
RTVSPropertyOp37
 70
     0
102
RTVSPropertyOp38
 70
     0
102
RTVSPropertyOp39
 70
     0
102
RTVSPropertyOp40
 70
     0
102
RTVSPropertyOp41
 70
     0
102
RTVSPropertyOp42
 70
     0
102
RTVSPropertyOp43
 70
     0
102
RTVSPropertyOp44
 70
     0
102
RTVSPropertyOp45
 70
     0
102
RTVSPropertyOp46
 70
     0
102
RTVSPropertyOp47
 70
     0
102
RTVSPropertyOp48
 70
     0
102
RTVSPropertyOp49
 70
     0
102
RTVSPropertyOp50
 70
     0
102
RTVSPropertyOp51
 70
     0
102
RTVSPropertyOp52
 70
     0
102
RTVSPropertyOp53
 70
     0
102
RTVSPropertyOp54
 70
     0
102
RTVSPropertyOp55
 70
     0
102
RTVSPropertyOp56
 70
     0
102
RTVSPropertyOp57
 70
     0
102
RTVSPropertyOp58
 70
     0
102
RTVSPropertyOp59
 70
     0
102
RTVSPropertyOp60
 70
     0
102
RTVSPropertyOp61
 70
     0
102
RTVSPropertyOp62
 70
     0
  0
XRECORD
  5
5E4
102
{ACAD_REACTORS
330
5E3
102
}
330
5E3
100
AcDbXrecord
280
     1
102
RTVSPost2010Prop28
280
     0
102
RTVSPost2010PropOp28
 70
     1
102
RTVSPost2010Prop29
280
     1
102
RTVSPost2010PropOp29
 70
     1
102
RTVSPost2010Prop30
280
     1
102
RTVSPost2010PropOp30
 70
     1
102
RTVSPost2010Prop31
280
     0
102
RTVSPost2010PropOp31
 70
     1
102
RTVSPost2010Prop32
280
     0
102
RTVSPost2010PropOp32
 70
     1
102
RTVSPost2010Prop33
280
     0
102
RTVSPost2010PropOp33
 70
     1
102
RTVSPost2010Prop34
280
     0
102
RTVSPost2010PropOp34
 70
     1
102
RTVSPost2010Prop35
280
     0
102
RTVSPost2010PropOp35
 70
     1
102
RTVSPost2010Prop36
280
     0
102
RTVSPost2010PropOp36
 70
     1
102
RTVSPost2010Prop37
 90
       50
102
RTVSPost2010PropOp37
 70
     1
102
RTVSPost2010Prop38
140
0.0
102
RTVSPost2010PropOp38
 70
     1
102
RTVSPost2010Prop39
140
1.0
102
RTVSPost2010PropOp39
 70
     1
102
RTVSPost2010Prop40
 90
        0
102
RTVSPost2010PropOp40
 70
     1
102
RTVSPost2010Prop41ColorIndex
 90
       18
102
RTVSPost2010Prop41ColorRGB
 90
        0
102
RTVSPost2010PropOp41
 70
     1
102
RTVSPost2010Prop42
 90
       50
102
RTVSPost2010PropOp42
 70
     1
102
RTVSPost2010Prop43
 90
        3
102
RTVSPost2010PropOp43
 70
     1
102
RTVSPost2010Prop44ColorIndex
 90
        5
102
RTVSPost2010Prop44ColorRGB
 90
      255
102
RTVSPost2010PropOp44
 70
     1
102
RTVSPost2010Prop45
280
     0
102
RTVSPost2010PropOp45
 70
     1
102
RTVSPost2010Prop46
 90
       50
102
RTVSPost2010PropOp46
 70
     1
102
RTVSPost2010Prop47
 90
       50
102
RTVSPost2010PropOp47
 70
     1
102
RTVSPost2010Prop48
 90
       50
102
RTVSPost2010PropOp48
 70
     1
102
RTVSPost2010Prop49
280
     0
102
RTVSPost2010PropOp49
 70
     1
102
RTVSPost2010Prop50
 90
       50
102
RTVSPost2010PropOp50
 70
     1
102
RTVSPost2010Prop51ColorIndex
 90
      256
102
RTVSPost2010Prop51ColorRGB
 90
-16777216
102
RTVSPost2010PropOp51
 70
     0
102
RTVSPost2010Prop52
140
1.0
102
RTVSPost2010PropOp52
 70
     0
102
RTVSPost2010Prop53
 90
        2
102
RTVSPost2010PropOp53
 70
     1
102
RTVSPost2010Prop54
  1
strokes_ogs.tif
102
RTVSPost2010PropOp54
 70
     1
102
RTVSPost2010Prop55
280
     0
102
RTVSPost2010PropOp55
 70
     1
102
RTVSPost2010Prop56
140
1.0
102
RTVSPost2010PropOp56
 70
     1
102
RTVSPost2010Prop57
140
1.0
102
RTVSPost2010PropOp57
 70
     1
102
RTVSPropertyOp0
 70
     1
102
RTVSPropertyOp1
 70
     1
102
RTVSPropertyOp2
 70
     1
102
RTVSPropertyOp3
 70
     1
102
RTVSPropertyOp4
 70
     1
102
RTVSPropertyOp5
 70
     1
102
RTVSPropertyOp6
 70
     1
102
RTVSPropertyOp7
 70
     1
102
RTVSPropertyOp8
 70
     1
102
RTVSPropertyOp9
 70
     1
102
RTVSPropertyOp10
 70
     1
102
RTVSPropertyOp11
 70
     1
102
RTVSPropertyOp12
 70
     1
102
RTVSPropertyOp13
 70
     1
102
RTVSPropertyOp14
 70
     1
102
RTVSPropertyOp15
 70
     1
102
RTVSPropertyOp16
 70
     1
102
RTVSPropertyOp17
 70
     1
102
RTVSPropertyOp18
 70
     1
102
RTVSPropertyOp19
 70
     1
102
RTVSPropertyOp20
 70
     1
102
RTVSPropertyOp21
 70
     1
102
RTVSPropertyOp22
 70
     1
102
RTVSPropertyOp23
 70
     1
102
RTVSPropertyOp24
 70
     1
102
RTVSPropertyOp25
 70
     1
102
RTVSPropertyOp26
 70
     1
102
RTVSPropertyOp27
 70
     1
102
RTVSPropertyOp28
 70
     1
102
RTVSPropertyOp29
 70
     1
102
RTVSPropertyOp30
 70
     1
102
RTVSPropertyOp31
 70
     1
102
RTVSPropertyOp32
 70
     1
102
RTVSPropertyOp33
 70
     1
102
RTVSPropertyOp34
 70
     1
102
RTVSPropertyOp35
 70
     1
102
RTVSPropertyOp36
 70
     1
102
RTVSPropertyOp37
 70
     1
102
RTVSPropertyOp38
 70
     1
102
RTVSPropertyOp39
 70
     1
102
RTVSPropertyOp40
 70
     1
102
RTVSPropertyOp41
 70
     1
102
RTVSPropertyOp42
 70
     1
102
RTVSPropertyOp43
 70
     1
102
RTVSPropertyOp44
 70
     1
102
RTVSPropertyOp45
 70
     1
102
RTVSPropertyOp46
 70
     1
102
RTVSPropertyOp47
 70
     1
102
RTVSPropertyOp48
 70
     1
102
RTVSPropertyOp49
 70
     1
102
RTVSPropertyOp50
 70
     1
102
RTVSPropertyOp51
 70
     0
102
RTVSPropertyOp52
 70
     0
102
RTVSPropertyOp53
 70
     1
102
RTVSPropertyOp54
 70
     1
102
RTVSPropertyOp55
 70
     1
102
RTVSPropertyOp56
 70
     1
102
RTVSPropertyOp57
 70
     1
102
RTVSPropertyOp58
 70
     1
102
RTVSPropertyOp59
 70
     1
102
RTVSPropertyOp60
 70
     1
102
RTVSPropertyOp61
 70
     1
102
RTVSPropertyOp62
 70
     1
  0
XRECORD
  5
5F6
102
{ACAD_REACTORS
330
5F5
102
}
330
5F5
100
AcDbXrecord
280
     1
102
RTVSPost2010Prop28
280
     0
102
RTVSPost2010PropOp28
 70
     0
102
RTVSPost2010Prop29
280
     1
102
RTVSPost2010PropOp29
 70
     0
102
RTVSPost2010Prop30
280
     1
102
RTVSPost2010PropOp30
 70
     0
102
RTVSPost2010Prop31
280
     0
102
RTVSPost2010PropOp31
 70
     0
102
RTVSPost2010Prop32
280
     0
102
RTVSPost2010PropOp32
 70
     0
102
RTVSPost2010Prop33
280
     0
102
RTVSPost2010PropOp33
 70
     0
102
RTVSPost2010Prop34
280
     0
102
RTVSPost2010PropOp34
 70
     0
102
RTVSPost2010Prop35
280
     0
102
RTVSPost2010PropOp35
 70
     0
102
RTVSPost2010Prop36
280
     0
102
RTVSPost2010PropOp36
 70
     0
102
RTVSPost2010Prop37
 90
       50
102
RTVSPost2010PropOp37
 70
     0
102
RTVSPost2010Prop38
140
0.0
102
RTVSPost2010PropOp38
 70
     0
102
RTVSPost2010Prop39
140
1.0
102
RTVSPost2010PropOp39
 70
     0
102
RTVSPost2010Prop40
 90
        0
102
RTVSPost2010PropOp40
 70
     0
102
RTVSPost2010Prop41ColorIndex
 90
       18
102
RTVSPost2010Prop41ColorRGB
 90
        0
102
RTVSPost2010PropOp41
 70
     0
102
RTVSPost2010Prop42
 90
       50
102
RTVSPost2010PropOp42
 70
     0
102
RTVSPost2010Prop43
 90
        3
102
RTVSPost2010PropOp43
 70
     0
102
RTVSPost2010Prop44ColorIndex
 90
        5
102
RTVSPost2010Prop44ColorRGB
 90
      255
102
RTVSPost2010PropOp44
 70
     0
102
RTVSPost2010Prop45
280
     0
102
RTVSPost2010PropOp45
 70
     0
102
RTVSPost2010Prop46
 90
       50
102
RTVSPost2010PropOp46
 70
     0
102
RTVSPost2010Prop47
 90
       50
102
RTVSPost2010PropOp47
 70
     0
102
RTVSPost2010Prop48
 90
       50
102
RTVSPost2010PropOp48
 70
     0
102
RTVSPost2010Prop49
280
     0
102
RTVSPost2010PropOp49
 70
     0
102
RTVSPost2010Prop50
 90
       50
102
RTVSPost2010PropOp50
 70
     0
102
RTVSPost2010Prop51ColorIndex
 90
      256
102
RTVSPost2010Prop51ColorRGB
 90
-16777216
102
RTVSPost2010PropOp51
 70
     0
102
RTVSPost2010Prop52
140
1.0
102
RTVSPost2010PropOp52
 70
     0
102
RTVSPost2010Prop53
 90
        2
102
RTVSPost2010PropOp53
 70
     0
102
RTVSPost2010Prop54
  1
strokes_ogs.tif
102
RTVSPost2010PropOp54
 70
     0
102
RTVSPost2010Prop55
280
     0
102
RTVSPost2010PropOp55
 70
     0
102
RTVSPost2010Prop56
140
1.0
102
RTVSPost2010PropOp56
 70
     0
102
RTVSPost2010Prop57
140
1.0
102
RTVSPost2010PropOp57
 70
     0
102
RTVSPropertyOp0
 70
     0
102
RTVSPropertyOp1
 70
     0
102
RTVSPropertyOp2
 70
     0
102
RTVSPropertyOp3
 70
     0
102
RTVSPropertyOp4
 70
     0
102
RTVSPropertyOp5
 70
     0
102
RTVSPropertyOp6
 70
     0
102
RTVSPropertyOp7
 70
     0
102
RTVSPropertyOp8
 70
     0
102
RTVSPropertyOp9
 70
     0
102
RTVSPropertyOp10
 70
     0
102
RTVSPropertyOp11
 70
     0
102
RTVSPropertyOp12
 70
     0
102
RTVSPropertyOp13
 70
     0
102
RTVSPropertyOp14
 70
     2
102
RTVSPropertyOp15
 70
     0
102
RTVSPropertyOp16
 70
     0
102
RTVSPropertyOp17
 70
     0
102
RTVSPropertyOp18
 70
     0
102
RTVSPropertyOp19
 70
     0
102
RTVSPropertyOp20
 70
     0
102
RTVSPropertyOp21
 70
     0
102
RTVSPropertyOp22
 70
     0
102
RTVSPropertyOp23
 70
     0
102
RTVSPropertyOp24
 70
     0
102
RTVSPropertyOp25
 70
     0
102
RTVSPropertyOp26
 70
     0
102
RTVSPropertyOp27
 70
     0
102
RTVSPropertyOp28
 70
     0
102
RTVSPropertyOp29
 70
     0
102
RTVSPropertyOp30
 70
     0
102
RTVSPropertyOp31
 70
     0
102
RTVSPropertyOp32
 70
     0
102
RTVSPropertyOp33
 70
     0
102
RTVSPropertyOp34
 70
     0
102
RTVSPropertyOp35
 70
     0
102
RTVSPropertyOp36
 70
     0
102
RTVSPropertyOp37
 70
     0
102
RTVSPropertyOp38
 70
     0
102
RTVSPropertyOp39
 70
     0
102
RTVSPropertyOp40
 70
     0
102
RTVSPropertyOp41
 70
     0
102
RTVSPropertyOp42
 70
     0
102
RTVSPropertyOp43
 70
     0
102
RTVSPropertyOp44
 70
     0
102
RTVSPropertyOp45
 70
     0
102
RTVSPropertyOp46
 70
     0
102
RTVSPropertyOp47
 70
     0
102
RTVSPropertyOp48
 70
     0
102
RTVSPropertyOp49
 70
     0
102
RTVSPropertyOp50
 70
     0
102
RTVSPropertyOp51
 70
     0
102
RTVSPropertyOp52
 70
     0
102
RTVSPropertyOp53
 70
     0
102
RTVSPropertyOp54
 70
     0
102
RTVSPropertyOp55
 70
     0
102
RTVSPropertyOp56
 70
     0
102
RTVSPropertyOp57
 70
     0
102
RTVSPropertyOp58
 70
     0
102
RTVSPropertyOp59
 70
     0
102
RTVSPropertyOp60
 70
     0
102
RTVSPropertyOp61
 70
     0
102
RTVSPropertyOp62
 70
     0
  0
XRECORD
  5
5DC
102
{ACAD_REACTORS
330
5DB
102
}
330
5DB
100
AcDbXrecord
280
     1
102
RTVSPost2010Prop28
280
     0
102
RTVSPost2010PropOp28
 70
     1
102
RTVSPost2010Prop29
280
     1
102
RTVSPost2010PropOp29
 70
     1
102
RTVSPost2010Prop30
280
     1
102
RTVSPost2010PropOp30
 70
     1
102
RTVSPost2010Prop31
280
     0
102
RTVSPost2010PropOp31
 70
     1
102
RTVSPost2010Prop32
280
     0
102
RTVSPost2010PropOp32
 70
     1
102
RTVSPost2010Prop33
280
     0
102
RTVSPost2010PropOp33
 70
     1
102
RTVSPost2010Prop34
280
     0
102
RTVSPost2010PropOp34
 70
     1
102
RTVSPost2010Prop35
280
     0
102
RTVSPost2010PropOp35
 70
     1
102
RTVSPost2010Prop36
280
     0
102
RTVSPost2010PropOp36
 70
     1
102
RTVSPost2010Prop37
 90
       50
102
RTVSPost2010PropOp37
 70
     1
102
RTVSPost2010Prop38
140
0.0
102
RTVSPost2010PropOp38
 70
     1
102
RTVSPost2010Prop39
140
1.0
102
RTVSPost2010PropOp39
 70
     1
102
RTVSPost2010Prop40
 90
        0
102
RTVSPost2010PropOp40
 70
     1
102
RTVSPost2010Prop41ColorIndex
 90
       18
102
RTVSPost2010Prop41ColorRGB
 90
        0
102
RTVSPost2010PropOp41
 70
     1
102
RTVSPost2010Prop42
 90
       50
102
RTVSPost2010PropOp42
 70
     1
102
RTVSPost2010Prop43
 90
        3
102
RTVSPost2010PropOp43
 70
     1
102
RTVSPost2010Prop44ColorIndex
 90
        5
102
RTVSPost2010Prop44ColorRGB
 90
      255
102
RTVSPost2010PropOp44
 70
     1
102
RTVSPost2010Prop45
280
     0
102
RTVSPost2010PropOp45
 70
     1
102
RTVSPost2010Prop46
 90
       50
102
RTVSPost2010PropOp46
 70
     1
102
RTVSPost2010Prop47
 90
       50
102
RTVSPost2010PropOp47
 70
     1
102
RTVSPost2010Prop48
 90
       50
102
RTVSPost2010PropOp48
 70
     1
102
RTVSPost2010Prop49
280
     0
102
RTVSPost2010PropOp49
 70
     1
102
RTVSPost2010Prop50
 90
       50
102
RTVSPost2010PropOp50
 70
     1
102
RTVSPost2010Prop51ColorIndex
 90
      256
102
RTVSPost2010Prop51ColorRGB
 90
-16777216
102
RTVSPost2010PropOp51
 70
     0
102
RTVSPost2010Prop52
140
1.0
102
RTVSPost2010PropOp52
 70
     0
102
RTVSPost2010Prop53
 90
        2
102
RTVSPost2010PropOp53
 70
     1
102
RTVSPost2010Prop54
  1
strokes_ogs.tif
102
RTVSPost2010PropOp54
 70
     1
102
RTVSPost2010Prop55
280
     0
102
RTVSPost2010PropOp55
 70
     1
102
RTVSPost2010Prop56
140
1.0
102
RTVSPost2010PropOp56
 70
     1
102
RTVSPost2010Prop57
140
1.0
102
RTVSPost2010PropOp57
 70
     1
102
RTVSPropertyOp0
 70
     1
102
RTVSPropertyOp1
 70
     1
102
RTVSPropertyOp2
 70
     1
102
RTVSPropertyOp3
 70
     1
102
RTVSPropertyOp4
 70
     1
102
RTVSPropertyOp5
 70
     1
102
RTVSPropertyOp6
 70
     1
102
RTVSPropertyOp7
 70
     1
102
RTVSPropertyOp8
 70
     1
102
RTVSPropertyOp9
 70
     1
102
RTVSPropertyOp10
 70
     1
102
RTVSPropertyOp11
 70
     1
102
RTVSPropertyOp12
 70
     1
102
RTVSPropertyOp13
 70
     1
102
RTVSPropertyOp14
 70
     1
102
RTVSPropertyOp15
 70
     1
102
RTVSPropertyOp16
 70
     1
102
RTVSPropertyOp17
 70
     1
102
RTVSPropertyOp18
 70
     1
102
RTVSPropertyOp19
 70
     1
102
RTVSPropertyOp20
 70
     1
102
RTVSPropertyOp21
 70
     1
102
RTVSPropertyOp22
 70
     1
102
RTVSPropertyOp23
 70
     1
102
RTVSPropertyOp24
 70
     1
102
RTVSPropertyOp25
 70
     1
102
RTVSPropertyOp26
 70
     1
102
RTVSPropertyOp27
 70
     1
102
RTVSPropertyOp28
 70
     1
102
RTVSPropertyOp29
 70
     1
102
RTVSPropertyOp30
 70
     1
102
RTVSPropertyOp31
 70
     1
102
RTVSPropertyOp32
 70
     1
102
RTVSPropertyOp33
 70
     1
102
RTVSPropertyOp34
 70
     1
102
RTVSPropertyOp35
 70
     1
102
RTVSPropertyOp36
 70
     1
102
RTVSPropertyOp37
 70
     1
102
RTVSPropertyOp38
 70
     1
102
RTVSPropertyOp39
 70
     1
102
RTVSPropertyOp40
 70
     1
102
RTVSPropertyOp41
 70
     1
102
RTVSPropertyOp42
 70
     1
102
RTVSPropertyOp43
 70
     1
102
RTVSPropertyOp44
 70
     1
102
RTVSPropertyOp45
 70
     1
102
RTVSPropertyOp46
 70
     1
102
RTVSPropertyOp47
 70
     1
102
RTVSPropertyOp48
 70
     1
102
RTVSPropertyOp49
 70
     1
102
RTVSPropertyOp50
 70
     1
102
RTVSPropertyOp51
 70
     0
102
RTVSPropertyOp52
 70
     0
102
RTVSPropertyOp53
 70
     1
102
RTVSPropertyOp54
 70
     1
102
RTVSPropertyOp55
 70
     1
102
RTVSPropertyOp56
 70
     1
102
RTVSPropertyOp57
 70
     1
102
RTVSPropertyOp58
 70
     1
102
RTVSPropertyOp59
 70
     1
102
RTVSPropertyOp60
 70
     1
102
RTVSPropertyOp61
 70
     1
102
RTVSPropertyOp62
 70
     1
  0
XRECORD
  5
5F2
102
{ACAD_REACTORS
330
5F1
102
}
330
5F1
100
AcDbXrecord
280
     1
102
RTVSPost2010Prop28
280
     0
102
RTVSPost2010PropOp28
 70
     1
102
RTVSPost2010Prop29
280
     1
102
RTVSPost2010PropOp29
 70
     1
102
RTVSPost2010Prop30
280
     1
102
RTVSPost2010PropOp30
 70
     1
102
RTVSPost2010Prop31
280
     0
102
RTVSPost2010PropOp31
 70
     1
102
RTVSPost2010Prop32
280
     0
102
RTVSPost2010PropOp32
 70
     1
102
RTVSPost2010Prop33
280
     0
102
RTVSPost2010PropOp33
 70
     1
102
RTVSPost2010Prop34
280
     0
102
RTVSPost2010PropOp34
 70
     1
102
RTVSPost2010Prop35
280
     0
102
RTVSPost2010PropOp35
 70
     1
102
RTVSPost2010Prop36
280
     0
102
RTVSPost2010PropOp36
 70
     1
102
RTVSPost2010Prop37
 90
       50
102
RTVSPost2010PropOp37
 70
     1
102
RTVSPost2010Prop38
140
0.0
102
RTVSPost2010PropOp38
 70
     1
102
RTVSPost2010Prop39
140
1.0
102
RTVSPost2010PropOp39
 70
     1
102
RTVSPost2010Prop40
 90
        0
102
RTVSPost2010PropOp40
 70
     1
102
RTVSPost2010Prop41ColorIndex
 90
       18
102
RTVSPost2010Prop41ColorRGB
 90
        0
102
RTVSPost2010PropOp41
 70
     1
102
RTVSPost2010Prop42
 90
       50
102
RTVSPost2010PropOp42
 70
     1
102
RTVSPost2010Prop43
 90
        3
102
RTVSPost2010PropOp43
 70
     1
102
RTVSPost2010Prop44ColorIndex
 90
        5
102
RTVSPost2010Prop44ColorRGB
 90
      255
102
RTVSPost2010PropOp44
 70
     1
102
RTVSPost2010Prop45
280
     0
102
RTVSPost2010PropOp45
 70
     1
102
RTVSPost2010Prop46
 90
       50
102
RTVSPost2010PropOp46
 70
     1
102
RTVSPost2010Prop47
 90
       50
102
RTVSPost2010PropOp47
 70
     1
102
RTVSPost2010Prop48
 90
       50
102
RTVSPost2010PropOp48
 70
     1
102
RTVSPost2010Prop49
280
     0
102
RTVSPost2010PropOp49
 70
     1
102
RTVSPost2010Prop50
 90
       50
102
RTVSPost2010PropOp50
 70
     1
102
RTVSPost2010Prop51ColorIndex
 90
      256
102
RTVSPost2010Prop51ColorRGB
 90
-16777216
102
RTVSPost2010PropOp51
 70
     0
102
RTVSPost2010Prop52
140
1.0
102
RTVSPost2010PropOp52
 70
     0
102
RTVSPost2010Prop53
 90
        2
102
RTVSPost2010PropOp53
 70
     1
102
RTVSPost2010Prop54
  1
strokes_ogs.tif
102
RTVSPost2010PropOp54
 70
     1
102
RTVSPost2010Prop55
280
     0
102
RTVSPost2010PropOp55
 70
     1
102
RTVSPost2010Prop56
140
1.0
102
RTVSPost2010PropOp56
 70
     1
102
RTVSPost2010Prop57
140
1.0
102
RTVSPost2010PropOp57
 70
     1
102
RTVSPropertyOp0
 70
     1
102
RTVSPropertyOp1
 70
     1
102
RTVSPropertyOp2
 70
     1
102
RTVSPropertyOp3
 70
     1
102
RTVSPropertyOp4
 70
     1
102
RTVSPropertyOp5
 70
     1
102
RTVSPropertyOp6
 70
     1
102
RTVSPropertyOp7
 70
     1
102
RTVSPropertyOp8
 70
     1
102
RTVSPropertyOp9
 70
     1
102
RTVSPropertyOp10
 70
     1
102
RTVSPropertyOp11
 70
     1
102
RTVSPropertyOp12
 70
     1
102
RTVSPropertyOp13
 70
     1
102
RTVSPropertyOp14
 70
     1
102
RTVSPropertyOp15
 70
     1
102
RTVSPropertyOp16
 70
     1
102
RTVSPropertyOp17
 70
     1
102
RTVSPropertyOp18
 70
     1
102
RTVSPropertyOp19
 70
     1
102
RTVSPropertyOp20
 70
     1
102
RTVSPropertyOp21
 70
     1
102
RTVSPropertyOp22
 70
     1
102
RTVSPropertyOp23
 70
     1
102
RTVSPropertyOp24
 70
     1
102
RTVSPropertyOp25
 70
     1
102
RTVSPropertyOp26
 70
     1
102
RTVSPropertyOp27
 70
     1
102
RTVSPropertyOp28
 70
     1
102
RTVSPropertyOp29
 70
     1
102
RTVSPropertyOp30
 70
     1
102
RTVSPropertyOp31
 70
     1
102
RTVSPropertyOp32
 70
     1
102
RTVSPropertyOp33
 70
     1
102
RTVSPropertyOp34
 70
     1
102
RTVSPropertyOp35
 70
     1
102
RTVSPropertyOp36
 70
     1
102
RTVSPropertyOp37
 70
     1
102
RTVSPropertyOp38
 70
     1
102
RTVSPropertyOp39
 70
     1
102
RTVSPropertyOp40
 70
     1
102
RTVSPropertyOp41
 70
     1
102
RTVSPropertyOp42
 70
     1
102
RTVSPropertyOp43
 70
     1
102
RTVSPropertyOp44
 70
     1
102
RTVSPropertyOp45
 70
     1
102
RTVSPropertyOp46
 70
     1
102
RTVSPropertyOp47
 70
     1
102
RTVSPropertyOp48
 70
     1
102
RTVSPropertyOp49
 70
     1
102
RTVSPropertyOp50
 70
     1
102
RTVSPropertyOp51
 70
     0
102
RTVSPropertyOp52
 70
     0
102
RTVSPropertyOp53
 70
     1
102
RTVSPropertyOp54
 70
     1
102
RTVSPropertyOp55
 70
     1
102
RTVSPropertyOp56
 70
     1
102
RTVSPropertyOp57
 70
     1
102
RTVSPropertyOp58
 70
     1
102
RTVSPropertyOp59
 70
     1
102
RTVSPropertyOp60
 70
     1
102
RTVSPropertyOp61
 70
     1
102
RTVSPropertyOp62
 70
     1
  0
XRECORD
  5
5F0
102
{ACAD_REACTORS
330
5EF
102
}
330
5EF
100
AcDbXrecord
280
     1
102
RTVSPost2010Prop28
280
     0
102
RTVSPost2010PropOp28
 70
     1
102
RTVSPost2010Prop29
280
     1
102
RTVSPost2010PropOp29
 70
     1
102
RTVSPost2010Prop30
280
     1
102
RTVSPost2010PropOp30
 70
     1
102
RTVSPost2010Prop31
280
     0
102
RTVSPost2010PropOp31
 70
     1
102
RTVSPost2010Prop32
280
     0
102
RTVSPost2010PropOp32
 70
     1
102
RTVSPost2010Prop33
280
     0
102
RTVSPost2010PropOp33
 70
     1
102
RTVSPost2010Prop34
280
     0
102
RTVSPost2010PropOp34
 70
     1
102
RTVSPost2010Prop35
280
     0
102
RTVSPost2010PropOp35
 70
     1
102
RTVSPost2010Prop36
280
     0
102
RTVSPost2010PropOp36
 70
     1
102
RTVSPost2010Prop37
 90
       50
102
RTVSPost2010PropOp37
 70
     1
102
RTVSPost2010Prop38
140
0.0
102
RTVSPost2010PropOp38
 70
     1
102
RTVSPost2010Prop39
140
1.0
102
RTVSPost2010PropOp39
 70
     1
102
RTVSPost2010Prop40
 90
        0
102
RTVSPost2010PropOp40
 70
     1
102
RTVSPost2010Prop41ColorIndex
 90
       18
102
RTVSPost2010Prop41ColorRGB
 90
        0
102
RTVSPost2010PropOp41
 70
     1
102
RTVSPost2010Prop42
 90
       50
102
RTVSPost2010PropOp42
 70
     1
102
RTVSPost2010Prop43
 90
        3
102
RTVSPost2010PropOp43
 70
     1
102
RTVSPost2010Prop44ColorIndex
 90
        5
102
RTVSPost2010Prop44ColorRGB
 90
      255
102
RTVSPost2010PropOp44
 70
     1
102
RTVSPost2010Prop45
280
     0
102
RTVSPost2010PropOp45
 70
     1
102
RTVSPost2010Prop46
 90
       50
102
RTVSPost2010PropOp46
 70
     1
102
RTVSPost2010Prop47
 90
       50
102
RTVSPost2010PropOp47
 70
     1
102
RTVSPost2010Prop48
 90
       50
102
RTVSPost2010PropOp48
 70
     1
102
RTVSPost2010Prop49
280
     0
102
RTVSPost2010PropOp49
 70
     1
102
RTVSPost2010Prop50
 90
       50
102
RTVSPost2010PropOp50
 70
     1
102
RTVSPost2010Prop51ColorIndex
 90
      256
102
RTVSPost2010Prop51ColorRGB
 90
-16777216
102
RTVSPost2010PropOp51
 70
     0
102
RTVSPost2010Prop52
140
1.0
102
RTVSPost2010PropOp52
 70
     0
102
RTVSPost2010Prop53
 90
        2
102
RTVSPost2010PropOp53
 70
     1
102
RTVSPost2010Prop54
  1
strokes_ogs.tif
102
RTVSPost2010PropOp54
 70
     1
102
RTVSPost2010Prop55
280
     0
102
RTVSPost2010PropOp55
 70
     1
102
RTVSPost2010Prop56
140
1.0
102
RTVSPost2010PropOp56
 70
     1
102
RTVSPost2010Prop57
140
1.0
102
RTVSPost2010PropOp57
 70
     1
102
RTVSPropertyOp0
 70
     1
102
RTVSPropertyOp1
 70
     1
102
RTVSPropertyOp2
 70
     1
102
RTVSPropertyOp3
 70
     1
102
RTVSPropertyOp4
 70
     1
102
RTVSPropertyOp5
 70
     1
102
RTVSPropertyOp6
 70
     1
102
RTVSPropertyOp7
 70
     1
102
RTVSPropertyOp8
 70
     1
102
RTVSPropertyOp9
 70
     1
102
RTVSPropertyOp10
 70
     1
102
RTVSPropertyOp11
 70
     1
102
RTVSPropertyOp12
 70
     1
102
RTVSPropertyOp13
 70
     1
102
RTVSPropertyOp14
 70
     1
102
RTVSPropertyOp15
 70
     1
102
RTVSPropertyOp16
 70
     1
102
RTVSPropertyOp17
 70
     1
102
RTVSPropertyOp18
 70
     1
102
RTVSPropertyOp19
 70
     1
102
RTVSPropertyOp20
 70
     1
102
RTVSPropertyOp21
 70
     1
102
RTVSPropertyOp22
 70
     1
102
RTVSPropertyOp23
 70
     1
102
RTVSPropertyOp24
 70
     1
102
RTVSPropertyOp25
 70
     1
102
RTVSPropertyOp26
 70
     1
102
RTVSPropertyOp27
 70
     1
102
RTVSPropertyOp28
 70
     1
102
RTVSPropertyOp29
 70
     1
102
RTVSPropertyOp30
 70
     1
102
RTVSPropertyOp31
 70
     1
102
RTVSPropertyOp32
 70
     1
102
RTVSPropertyOp33
 70
     1
102
RTVSPropertyOp34
 70
     1
102
RTVSPropertyOp35
 70
     1
102
RTVSPropertyOp36
 70
     1
102
RTVSPropertyOp37
 70
     1
102
RTVSPropertyOp38
 70
     1
102
RTVSPropertyOp39
 70
     1
102
RTVSPropertyOp40
 70
     1
102
RTVSPropertyOp41
 70
     1
102
RTVSPropertyOp42
 70
     1
102
RTVSPropertyOp43
 70
     1
102
RTVSPropertyOp44
 70
     1
102
RTVSPropertyOp45
 70
     1
102
RTVSPropertyOp46
 70
     1
102
RTVSPropertyOp47
 70
     1
102
RTVSPropertyOp48
 70
     1
102
RTVSPropertyOp49
 70
     1
102
RTVSPropertyOp50
 70
     1
102
RTVSPropertyOp51
 70
     0
102
RTVSPropertyOp52
 70
     0
102
RTVSPropertyOp53
 70
     1
102
RTVSPropertyOp54
 70
     1
102
RTVSPropertyOp55
 70
     1
102
RTVSPropertyOp56
 70
     1
102
RTVSPropertyOp57
 70
     1
102
RTVSPropertyOp58
 70
     1
102
RTVSPropertyOp59
 70
     1
102
RTVSPropertyOp60
 70
     1
102
RTVSPropertyOp61
 70
     1
102
RTVSPropertyOp62
 70
     1
  0
XRECORD
  5
5EA
102
{ACAD_REACTORS
330
5E9
102
}
330
5E9
100
AcDbXrecord
280
     1
102
RTVSPost2010Prop28
280
     0
102
RTVSPost2010PropOp28
 70
     1
102
RTVSPost2010Prop29
280
     1
102
RTVSPost2010PropOp29
 70
     1
102
RTVSPost2010Prop30
280
     1
102
RTVSPost2010PropOp30
 70
     1
102
RTVSPost2010Prop31
280
     0
102
RTVSPost2010PropOp31
 70
     1
102
RTVSPost2010Prop32
280
     0
102
RTVSPost2010PropOp32
 70
     1
102
RTVSPost2010Prop33
280
     0
102
RTVSPost2010PropOp33
 70
     1
102
RTVSPost2010Prop34
280
     0
102
RTVSPost2010PropOp34
 70
     1
102
RTVSPost2010Prop35
280
     0
102
RTVSPost2010PropOp35
 70
     1
102
RTVSPost2010Prop36
280
     0
102
RTVSPost2010PropOp36
 70
     1
102
RTVSPost2010Prop37
 90
       50
102
RTVSPost2010PropOp37
 70
     1
102
RTVSPost2010Prop38
140
0.0
102
RTVSPost2010PropOp38
 70
     1
102
RTVSPost2010Prop39
140
1.0
102
RTVSPost2010PropOp39
 70
     1
102
RTVSPost2010Prop40
 90
        0
102
RTVSPost2010PropOp40
 70
     1
102
RTVSPost2010Prop41ColorIndex
 90
       18
102
RTVSPost2010Prop41ColorRGB
 90
        0
102
RTVSPost2010PropOp41
 70
     1
102
RTVSPost2010Prop42
 90
       50
102
RTVSPost2010PropOp42
 70
     1
102
RTVSPost2010Prop43
 90
        3
102
RTVSPost2010PropOp43
 70
     1
102
RTVSPost2010Prop44ColorIndex
 90
        5
102
RTVSPost2010Prop44ColorRGB
 90
      255
102
RTVSPost2010PropOp44
 70
     1
102
RTVSPost2010Prop45
280
     0
102
RTVSPost2010PropOp45
 70
     1
102
RTVSPost2010Prop46
 90
       50
102
RTVSPost2010PropOp46
 70
     1
102
RTVSPost2010Prop47
 90
       50
102
RTVSPost2010PropOp47
 70
     1
102
RTVSPost2010Prop48
 90
       50
102
RTVSPost2010PropOp48
 70
     1
102
RTVSPost2010Prop49
280
     0
102
RTVSPost2010PropOp49
 70
     1
102
RTVSPost2010Prop50
 90
       50
102
RTVSPost2010PropOp50
 70
     1
102
RTVSPost2010Prop51ColorIndex
 90
      256
102
RTVSPost2010Prop51ColorRGB
 90
-16777216
102
RTVSPost2010PropOp51
 70
     0
102
RTVSPost2010Prop52
140
1.0
102
RTVSPost2010PropOp52
 70
     0
102
RTVSPost2010Prop53
 90
        2
102
RTVSPost2010PropOp53
 70
     1
102
RTVSPost2010Prop54
  1
strokes_ogs.tif
102
RTVSPost2010PropOp54
 70
     1
102
RTVSPost2010Prop55
280
     0
102
RTVSPost2010PropOp55
 70
     1
102
RTVSPost2010Prop56
140
1.0
102
RTVSPost2010PropOp56
 70
     1
102
RTVSPost2010Prop57
140
1.0
102
RTVSPost2010PropOp57
 70
     1
102
RTVSPropertyOp0
 70
     1
102
RTVSPropertyOp1
 70
     1
102
RTVSPropertyOp2
 70
     1
102
RTVSPropertyOp3
 70
     1
102
RTVSPropertyOp4
 70
     1
102
RTVSPropertyOp5
 70
     1
102
RTVSPropertyOp6
 70
     1
102
RTVSPropertyOp7
 70
     1
102
RTVSPropertyOp8
 70
     1
102
RTVSPropertyOp9
 70
     1
102
RTVSPropertyOp10
 70
     1
102
RTVSPropertyOp11
 70
     1
102
RTVSPropertyOp12
 70
     1
102
RTVSPropertyOp13
 70
     1
102
RTVSPropertyOp14
 70
     1
102
RTVSPropertyOp15
 70
     1
102
RTVSPropertyOp16
 70
     1
102
RTVSPropertyOp17
 70
     1
102
RTVSPropertyOp18
 70
     1
102
RTVSPropertyOp19
 70
     1
102
RTVSPropertyOp20
 70
     1
102
RTVSPropertyOp21
 70
     1
102
RTVSPropertyOp22
 70
     1
102
RTVSPropertyOp23
 70
     1
102
RTVSPropertyOp24
 70
     1
102
RTVSPropertyOp25
 70
     1
102
RTVSPropertyOp26
 70
     1
102
RTVSPropertyOp27
 70
     1
102
RTVSPropertyOp28
 70
     1
102
RTVSPropertyOp29
 70
     1
102
RTVSPropertyOp30
 70
     1
102
RTVSPropertyOp31
 70
     1
102
RTVSPropertyOp32
 70
     1
102
RTVSPropertyOp33
 70
     1
102
RTVSPropertyOp34
 70
     1
102
RTVSPropertyOp35
 70
     1
102
RTVSPropertyOp36
 70
     1
102
RTVSPropertyOp37
 70
     1
102
RTVSPropertyOp38
 70
     1
102
RTVSPropertyOp39
 70
     1
102
RTVSPropertyOp40
 70
     1
102
RTVSPropertyOp41
 70
     1
102
RTVSPropertyOp42
 70
     1
102
RTVSPropertyOp43
 70
     1
102
RTVSPropertyOp44
 70
     1
102
RTVSPropertyOp45
 70
     1
102
RTVSPropertyOp46
 70
     1
102
RTVSPropertyOp47
 70
     1
102
RTVSPropertyOp48
 70
     1
102
RTVSPropertyOp49
 70
     1
102
RTVSPropertyOp50
 70
     1
102
RTVSPropertyOp51
 70
     0
102
RTVSPropertyOp52
 70
     0
102
RTVSPropertyOp53
 70
     1
102
RTVSPropertyOp54
 70
     1
102
RTVSPropertyOp55
 70
     1
102
RTVSPropertyOp56
 70
     1
102
RTVSPropertyOp57
 70
     1
102
RTVSPropertyOp58
 70
     1
102
RTVSPropertyOp59
 70
     1
102
RTVSPropertyOp60
 70
     1
102
RTVSPropertyOp61
 70
     1
102
RTVSPropertyOp62
 70
     1
  0
XRECORD
  5
5EC
102
{ACAD_REACTORS
330
5EB
102
}
330
5EB
100
AcDbXrecord
280
     1
102
RTVSPost2010Prop28
280
     0
102
RTVSPost2010PropOp28
 70
     1
102
RTVSPost2010Prop29
280
     1
102
RTVSPost2010PropOp29
 70
     1
102
RTVSPost2010Prop30
280
     1
102
RTVSPost2010PropOp30
 70
     1
102
RTVSPost2010Prop31
280
     0
102
RTVSPost2010PropOp31
 70
     1
102
RTVSPost2010Prop32
280
     0
102
RTVSPost2010PropOp32
 70
     1
102
RTVSPost2010Prop33
280
     0
102
RTVSPost2010PropOp33
 70
     1
102
RTVSPost2010Prop34
280
     0
102
RTVSPost2010PropOp34
 70
     1
102
RTVSPost2010Prop35
280
     0
102
RTVSPost2010PropOp35
 70
     1
102
RTVSPost2010Prop36
280
     0
102
RTVSPost2010PropOp36
 70
     1
102
RTVSPost2010Prop37
 90
       50
102
RTVSPost2010PropOp37
 70
     1
102
RTVSPost2010Prop38
140
0.0
102
RTVSPost2010PropOp38
 70
     1
102
RTVSPost2010Prop39
140
1.0
102
RTVSPost2010PropOp39
 70
     1
102
RTVSPost2010Prop40
 90
        0
102
RTVSPost2010PropOp40
 70
     1
102
RTVSPost2010Prop41ColorIndex
 90
       18
102
RTVSPost2010Prop41ColorRGB
 90
        0
102
RTVSPost2010PropOp41
 70
     1
102
RTVSPost2010Prop42
 90
       50
102
RTVSPost2010PropOp42
 70
     1
102
RTVSPost2010Prop43
 90
        3
102
RTVSPost2010PropOp43
 70
     1
102
RTVSPost2010Prop44ColorIndex
 90
        5
102
RTVSPost2010Prop44ColorRGB
 90
      255
102
RTVSPost2010PropOp44
 70
     1
102
RTVSPost2010Prop45
280
     0
102
RTVSPost2010PropOp45
 70
     1
102
RTVSPost2010Prop46
 90
       50
102
RTVSPost2010PropOp46
 70
     1
102
RTVSPost2010Prop47
 90
       50
102
RTVSPost2010PropOp47
 70
     1
102
RTVSPost2010Prop48
 90
       50
102
RTVSPost2010PropOp48
 70
     1
102
RTVSPost2010Prop49
280
     0
102
RTVSPost2010PropOp49
 70
     1
102
RTVSPost2010Prop50
 90
       50
102
RTVSPost2010PropOp50
 70
     1
102
RTVSPost2010Prop51ColorIndex
 90
      256
102
RTVSPost2010Prop51ColorRGB
 90
-16777216
102
RTVSPost2010PropOp51
 70
     0
102
RTVSPost2010Prop52
140
1.0
102
RTVSPost2010PropOp52
 70
     0
102
RTVSPost2010Prop53
 90
        2
102
RTVSPost2010PropOp53
 70
     1
102
RTVSPost2010Prop54
  1
strokes_ogs.tif
102
RTVSPost2010PropOp54
 70
     1
102
RTVSPost2010Prop55
280
     0
102
RTVSPost2010PropOp55
 70
     1
102
RTVSPost2010Prop56
140
1.0
102
RTVSPost2010PropOp56
 70
     1
102
RTVSPost2010Prop57
140
1.0
102
RTVSPost2010PropOp57
 70
     1
102
RTVSPropertyOp0
 70
     1
102
RTVSPropertyOp1
 70
     1
102
RTVSPropertyOp2
 70
     1
102
RTVSPropertyOp3
 70
     1
102
RTVSPropertyOp4
 70
     1
102
RTVSPropertyOp5
 70
     1
102
RTVSPropertyOp6
 70
     1
102
RTVSPropertyOp7
 70
     1
102
RTVSPropertyOp8
 70
     1
102
RTVSPropertyOp9
 70
     1
102
RTVSPropertyOp10
 70
     1
102
RTVSPropertyOp11
 70
     1
102
RTVSPropertyOp12
 70
     1
102
RTVSPropertyOp13
 70
     1
102
RTVSPropertyOp14
 70
     1
102
RTVSPropertyOp15
 70
     1
102
RTVSPropertyOp16
 70
     1
102
RTVSPropertyOp17
 70
     1
102
RTVSPropertyOp18
 70
     1
102
RTVSPropertyOp19
 70
     1
102
RTVSPropertyOp20
 70
     1
102
RTVSPropertyOp21
 70
     1
102
RTVSPropertyOp22
 70
     1
102
RTVSPropertyOp23
 70
     1
102
RTVSPropertyOp24
 70
     1
102
RTVSPropertyOp25
 70
     1
102
RTVSPropertyOp26
 70
     1
102
RTVSPropertyOp27
 70
     1
102
RTVSPropertyOp28
 70
     1
102
RTVSPropertyOp29
 70
     1
102
RTVSPropertyOp30
 70
     1
102
RTVSPropertyOp31
 70
     1
102
RTVSPropertyOp32
 70
     1
102
RTVSPropertyOp33
 70
     1
102
RTVSPropertyOp34
 70
     1
102
RTVSPropertyOp35
 70
     1
102
RTVSPropertyOp36
 70
     1
102
RTVSPropertyOp37
 70
     1
102
RTVSPropertyOp38
 70
     1
102
RTVSPropertyOp39
 70
     1
102
RTVSPropertyOp40
 70
     1
102
RTVSPropertyOp41
 70
     1
102
RTVSPropertyOp42
 70
     1
102
RTVSPropertyOp43
 70
     1
102
RTVSPropertyOp44
 70
     1
102
RTVSPropertyOp45
 70
     1
102
RTVSPropertyOp46
 70
     1
102
RTVSPropertyOp47
 70
     1
102
RTVSPropertyOp48
 70
     1
102
RTVSPropertyOp49
 70
     1
102
RTVSPropertyOp50
 70
     1
102
RTVSPropertyOp51
 70
     0
102
RTVSPropertyOp52
 70
     0
102
RTVSPropertyOp53
 70
     1
102
RTVSPropertyOp54
 70
     1
102
RTVSPropertyOp55
 70
     1
102
RTVSPropertyOp56
 70
     1
102
RTVSPropertyOp57
 70
     1
102
RTVSPropertyOp58
 70
     1
102
RTVSPropertyOp59
 70
     1
102
RTVSPropertyOp60
 70
     1
102
RTVSPropertyOp61
 70
     1
102
RTVSPropertyOp62
 70
     1
  0
XRECORD
  5
5E2
102
{ACAD_REACTORS
330
5E1
102
}
330
5E1
100
AcDbXrecord
280
     1
102
RTVSPost2010Prop28
280
     0
102
RTVSPost2010PropOp28
 70
     1
102
RTVSPost2010Prop29
280
     1
102
RTVSPost2010PropOp29
 70
     1
102
RTVSPost2010Prop30
280
     1
102
RTVSPost2010PropOp30
 70
     1
102
RTVSPost2010Prop31
280
     0
102
RTVSPost2010PropOp31
 70
     1
102
RTVSPost2010Prop32
280
     0
102
RTVSPost2010PropOp32
 70
     1
102
RTVSPost2010Prop33
280
     0
102
RTVSPost2010PropOp33
 70
     1
102
RTVSPost2010Prop34
280
     0
102
RTVSPost2010PropOp34
 70
     1
102
RTVSPost2010Prop35
280
     0
102
RTVSPost2010PropOp35
 70
     1
102
RTVSPost2010Prop36
280
     0
102
RTVSPost2010PropOp36
 70
     1
102
RTVSPost2010Prop37
 90
       50
102
RTVSPost2010PropOp37
 70
     1
102
RTVSPost2010Prop38
140
0.0
102
RTVSPost2010PropOp38
 70
     1
102
RTVSPost2010Prop39
140
1.0
102
RTVSPost2010PropOp39
 70
     1
102
RTVSPost2010Prop40
 90
        0
102
RTVSPost2010PropOp40
 70
     1
102
RTVSPost2010Prop41ColorIndex
 90
       18
102
RTVSPost2010Prop41ColorRGB
 90
        0
102
RTVSPost2010PropOp41
 70
     1
102
RTVSPost2010Prop42
 90
       50
102
RTVSPost2010PropOp42
 70
     1
102
RTVSPost2010Prop43
 90
        3
102
RTVSPost2010PropOp43
 70
     1
102
RTVSPost2010Prop44ColorIndex
 90
        5
102
RTVSPost2010Prop44ColorRGB
 90
      255
102
RTVSPost2010PropOp44
 70
     1
102
RTVSPost2010Prop45
280
     0
102
RTVSPost2010PropOp45
 70
     1
102
RTVSPost2010Prop46
 90
       50
102
RTVSPost2010PropOp46
 70
     1
102
RTVSPost2010Prop47
 90
       50
102
RTVSPost2010PropOp47
 70
     1
102
RTVSPost2010Prop48
 90
       50
102
RTVSPost2010PropOp48
 70
     1
102
RTVSPost2010Prop49
280
     0
102
RTVSPost2010PropOp49
 70
     1
102
RTVSPost2010Prop50
 90
       50
102
RTVSPost2010PropOp50
 70
     1
102
RTVSPost2010Prop51ColorIndex
 90
      256
102
RTVSPost2010Prop51ColorRGB
 90
-16777216
102
RTVSPost2010PropOp51
 70
     0
102
RTVSPost2010Prop52
140
1.0
102
RTVSPost2010PropOp52
 70
     0
102
RTVSPost2010Prop53
 90
        2
102
RTVSPost2010PropOp53
 70
     1
102
RTVSPost2010Prop54
  1
strokes_ogs.tif
102
RTVSPost2010PropOp54
 70
     1
102
RTVSPost2010Prop55
280
     0
102
RTVSPost2010PropOp55
 70
     1
102
RTVSPost2010Prop56
140
1.0
102
RTVSPost2010PropOp56
 70
     1
102
RTVSPost2010Prop57
140
1.0
102
RTVSPost2010PropOp57
 70
     1
102
RTVSPropertyOp0
 70
     1
102
RTVSPropertyOp1
 70
     1
102
RTVSPropertyOp2
 70
     1
102
RTVSPropertyOp3
 70
     1
102
RTVSPropertyOp4
 70
     1
102
RTVSPropertyOp5
 70
     1
102
RTVSPropertyOp6
 70
     1
102
RTVSPropertyOp7
 70
     1
102
RTVSPropertyOp8
 70
     1
102
RTVSPropertyOp9
 70
     1
102
RTVSPropertyOp10
 70
     1
102
RTVSPropertyOp11
 70
     1
102
RTVSPropertyOp12
 70
     1
102
RTVSPropertyOp13
 70
     1
102
RTVSPropertyOp14
 70
     1
102
RTVSPropertyOp15
 70
     1
102
RTVSPropertyOp16
 70
     1
102
RTVSPropertyOp17
 70
     1
102
RTVSPropertyOp18
 70
     1
102
RTVSPropertyOp19
 70
     1
102
RTVSPropertyOp20
 70
     1
102
RTVSPropertyOp21
 70
     1
102
RTVSPropertyOp22
 70
     1
102
RTVSPropertyOp23
 70
     1
102
RTVSPropertyOp24
 70
     1
102
RTVSPropertyOp25
 70
     1
102
RTVSPropertyOp26
 70
     1
102
RTVSPropertyOp27
 70
     1
102
RTVSPropertyOp28
 70
     1
102
RTVSPropertyOp29
 70
     1
102
RTVSPropertyOp30
 70
     1
102
RTVSPropertyOp31
 70
     1
102
RTVSPropertyOp32
 70
     1
102
RTVSPropertyOp33
 70
     1
102
RTVSPropertyOp34
 70
     1
102
RTVSPropertyOp35
 70
     1
102
RTVSPropertyOp36
 70
     1
102
RTVSPropertyOp37
 70
     1
102
RTVSPropertyOp38
 70
     1
102
RTVSPropertyOp39
 70
     1
102
RTVSPropertyOp40
 70
     1
102
RTVSPropertyOp41
 70
     1
102
RTVSPropertyOp42
 70
     1
102
RTVSPropertyOp43
 70
     1
102
RTVSPropertyOp44
 70
     1
102
RTVSPropertyOp45
 70
     1
102
RTVSPropertyOp46
 70
     1
102
RTVSPropertyOp47
 70
     1
102
RTVSPropertyOp48
 70
     1
102
RTVSPropertyOp49
 70
     1
102
RTVSPropertyOp50
 70
     1
102
RTVSPropertyOp51
 70
     0
102
RTVSPropertyOp52
 70
     0
102
RTVSPropertyOp53
 70
     1
102
RTVSPropertyOp54
 70
     1
102
RTVSPropertyOp55
 70
     1
102
RTVSPropertyOp56
 70
     1
102
RTVSPropertyOp57
 70
     1
102
RTVSPropertyOp58
 70
     1
102
RTVSPropertyOp59
 70
     1
102
RTVSPropertyOp60
 70
     1
102
RTVSPropertyOp61
 70
     1
102
RTVSPropertyOp62
 70
     1
  0
XRECORD
  5
5D6
102
{ACAD_REACTORS
330
5D5
102
}
330
5D5
100
AcDbXrecord
280
     1
102
RTVSPost2010Prop28
280
     0
102
RTVSPost2010PropOp28
 70
     1
102
RTVSPost2010Prop29
280
     1
102
RTVSPost2010PropOp29
 70
     1
102
RTVSPost2010Prop30
280
     1
102
RTVSPost2010PropOp30
 70
     1
102
RTVSPost2010Prop31
280
     0
102
RTVSPost2010PropOp31
 70
     1
102
RTVSPost2010Prop32
280
     0
102
RTVSPost2010PropOp32
 70
     1
102
RTVSPost2010Prop33
280
     0
102
RTVSPost2010PropOp33
 70
     1
102
RTVSPost2010Prop34
280
     0
102
RTVSPost2010PropOp34
 70
     1
102
RTVSPost2010Prop35
280
     0
102
RTVSPost2010PropOp35
 70
     1
102
RTVSPost2010Prop36
280
     0
102
RTVSPost2010PropOp36
 70
     1
102
RTVSPost2010Prop37
 90
       50
102
RTVSPost2010PropOp37
 70
     1
102
RTVSPost2010Prop38
140
0.0
102
RTVSPost2010PropOp38
 70
     1
102
RTVSPost2010Prop39
140
1.0
102
RTVSPost2010PropOp39
 70
     1
102
RTVSPost2010Prop40
 90
        0
102
RTVSPost2010PropOp40
 70
     1
102
RTVSPost2010Prop41ColorIndex
 90
       18
102
RTVSPost2010Prop41ColorRGB
 90
        0
102
RTVSPost2010PropOp41
 70
     1
102
RTVSPost2010Prop42
 90
       50
102
RTVSPost2010PropOp42
 70
     1
102
RTVSPost2010Prop43
 90
        3
102
RTVSPost2010PropOp43
 70
     1
102
RTVSPost2010Prop44ColorIndex
 90
        5
102
RTVSPost2010Prop44ColorRGB
 90
      255
102
RTVSPost2010PropOp44
 70
     1
102
RTVSPost2010Prop45
280
     0
102
RTVSPost2010PropOp45
 70
     1
102
RTVSPost2010Prop46
 90
       50
102
RTVSPost2010PropOp46
 70
     1
102
RTVSPost2010Prop47
 90
       50
102
RTVSPost2010PropOp47
 70
     1
102
RTVSPost2010Prop48
 90
       50
102
RTVSPost2010PropOp48
 70
     1
102
RTVSPost2010Prop49
280
     0
102
RTVSPost2010PropOp49
 70
     1
102
RTVSPost2010Prop50
 90
       50
102
RTVSPost2010PropOp50
 70
     1
102
RTVSPost2010Prop51ColorIndex
 90
      256
102
RTVSPost2010Prop51ColorRGB
 90
-16777216
102
RTVSPost2010PropOp51
 70
     0
102
RTVSPost2010Prop52
140
1.0
102
RTVSPost2010PropOp52
 70
     0
102
RTVSPost2010Prop53
 90
        2
102
RTVSPost2010PropOp53
 70
     1
102
RTVSPost2010Prop54
  1
strokes_ogs.tif
102
RTVSPost2010PropOp54
 70
     1
102
RTVSPost2010Prop55
280
     0
102
RTVSPost2010PropOp55
 70
     1
102
RTVSPost2010Prop56
140
1.0
102
RTVSPost2010PropOp56
 70
     1
102
RTVSPost2010Prop57
140
1.0
102
RTVSPost2010PropOp57
 70
     1
102
RTVSPropertyOp0
 70
     1
102
RTVSPropertyOp1
 70
     1
102
RTVSPropertyOp2
 70
     1
102
RTVSPropertyOp3
 70
     1
102
RTVSPropertyOp4
 70
     1
102
RTVSPropertyOp5
 70
     1
102
RTVSPropertyOp6
 70
     1
102
RTVSPropertyOp7
 70
     1
102
RTVSPropertyOp8
 70
     1
102
RTVSPropertyOp9
 70
     1
102
RTVSPropertyOp10
 70
     1
102
RTVSPropertyOp11
 70
     1
102
RTVSPropertyOp12
 70
     1
102
RTVSPropertyOp13
 70
     1
102
RTVSPropertyOp14
 70
     1
102
RTVSPropertyOp15
 70
     1
102
RTVSPropertyOp16
 70
     1
102
RTVSPropertyOp17
 70
     1
102
RTVSPropertyOp18
 70
     1
102
RTVSPropertyOp19
 70
     1
102
RTVSPropertyOp20
 70
     1
102
RTVSPropertyOp21
 70
     1
102
RTVSPropertyOp22
 70
     1
102
RTVSPropertyOp23
 70
     1
102
RTVSPropertyOp24
 70
     1
102
RTVSPropertyOp25
 70
     1
102
RTVSPropertyOp26
 70
     1
102
RTVSPropertyOp27
 70
     1
102
RTVSPropertyOp28
 70
     1
102
RTVSPropertyOp29
 70
     1
102
RTVSPropertyOp30
 70
     1
102
RTVSPropertyOp31
 70
     1
102
RTVSPropertyOp32
 70
     1
102
RTVSPropertyOp33
 70
     1
102
RTVSPropertyOp34
 70
     1
102
RTVSPropertyOp35
 70
     1
102
RTVSPropertyOp36
 70
     1
102
RTVSPropertyOp37
 70
     1
102
RTVSPropertyOp38
 70
     1
102
RTVSPropertyOp39
 70
     1
102
RTVSPropertyOp40
 70
     1
102
RTVSPropertyOp41
 70
     1
102
RTVSPropertyOp42
 70
     1
102
RTVSPropertyOp43
 70
     1
102
RTVSPropertyOp44
 70
     1
102
RTVSPropertyOp45
 70
     1
102
RTVSPropertyOp46
 70
     1
102
RTVSPropertyOp47
 70
     1
102
RTVSPropertyOp48
 70
     1
102
RTVSPropertyOp49
 70
     1
102
RTVSPropertyOp50
 70
     1
102
RTVSPropertyOp51
 70
     0
102
RTVSPropertyOp52
 70
     0
102
RTVSPropertyOp53
 70
     1
102
RTVSPropertyOp54
 70
     1
102
RTVSPropertyOp55
 70
     1
102
RTVSPropertyOp56
 70
     1
102
RTVSPropertyOp57
 70
     1
102
RTVSPropertyOp58
 70
     1
102
RTVSPropertyOp59
 70
     1
102
RTVSPropertyOp60
 70
     1
102
RTVSPropertyOp61
 70
     1
102
RTVSPropertyOp62
 70
     1
  0
XRECORD
  5
5EE
102
{ACAD_REACTORS
330
5ED
102
}
330
5ED
100
AcDbXrecord
280
     1
102
RTVSPost2010Prop28
280
     0
102
RTVSPost2010PropOp28
 70
     1
102
RTVSPost2010Prop29
280
     1
102
RTVSPost2010PropOp29
 70
     1
102
RTVSPost2010Prop30
280
     1
102
RTVSPost2010PropOp30
 70
     1
102
RTVSPost2010Prop31
280
     0
102
RTVSPost2010PropOp31
 70
     1
102
RTVSPost2010Prop32
280
     0
102
RTVSPost2010PropOp32
 70
     1
102
RTVSPost2010Prop33
280
     0
102
RTVSPost2010PropOp33
 70
     1
102
RTVSPost2010Prop34
280
     0
102
RTVSPost2010PropOp34
 70
     1
102
RTVSPost2010Prop35
280
     0
102
RTVSPost2010PropOp35
 70
     1
102
RTVSPost2010Prop36
280
     0
102
RTVSPost2010PropOp36
 70
     1
102
RTVSPost2010Prop37
 90
       50
102
RTVSPost2010PropOp37
 70
     1
102
RTVSPost2010Prop38
140
0.0
102
RTVSPost2010PropOp38
 70
     1
102
RTVSPost2010Prop39
140
1.0
102
RTVSPost2010PropOp39
 70
     1
102
RTVSPost2010Prop40
 90
        0
102
RTVSPost2010PropOp40
 70
     1
102
RTVSPost2010Prop41ColorIndex
 90
       18
102
RTVSPost2010Prop41ColorRGB
 90
        0
102
RTVSPost2010PropOp41
 70
     1
102
RTVSPost2010Prop42
 90
       50
102
RTVSPost2010PropOp42
 70
     1
102
RTVSPost2010Prop43
 90
        3
102
RTVSPost2010PropOp43
 70
     1
102
RTVSPost2010Prop44ColorIndex
 90
        5
102
RTVSPost2010Prop44ColorRGB
 90
      255
102
RTVSPost2010PropOp44
 70
     1
102
RTVSPost2010Prop45
280
     0
102
RTVSPost2010PropOp45
 70
     1
102
RTVSPost2010Prop46
 90
       50
102
RTVSPost2010PropOp46
 70
     1
102
RTVSPost2010Prop47
 90
       50
102
RTVSPost2010PropOp47
 70
     1
102
RTVSPost2010Prop48
 90
       50
102
RTVSPost2010PropOp48
 70
     1
102
RTVSPost2010Prop49
280
     0
102
RTVSPost2010PropOp49
 70
     1
102
RTVSPost2010Prop50
 90
       50
102
RTVSPost2010PropOp50
 70
     1
102
RTVSPost2010Prop51ColorIndex
 90
      256
102
RTVSPost2010Prop51ColorRGB
 90
-16777216
102
RTVSPost2010PropOp51
 70
     0
102
RTVSPost2010Prop52
140
1.0
102
RTVSPost2010PropOp52
 70
     0
102
RTVSPost2010Prop53
 90
        2
102
RTVSPost2010PropOp53
 70
     1
102
RTVSPost2010Prop54
  1
strokes_ogs.tif
102
RTVSPost2010PropOp54
 70
     1
102
RTVSPost2010Prop55
280
     0
102
RTVSPost2010PropOp55
 70
     1
102
RTVSPost2010Prop56
140
1.0
102
RTVSPost2010PropOp56
 70
     1
102
RTVSPost2010Prop57
140
1.0
102
RTVSPost2010PropOp57
 70
     1
102
RTVSPropertyOp0
 70
     1
102
RTVSPropertyOp1
 70
     1
102
RTVSPropertyOp2
 70
     1
102
RTVSPropertyOp3
 70
     1
102
RTVSPropertyOp4
 70
     1
102
RTVSPropertyOp5
 70
     1
102
RTVSPropertyOp6
 70
     1
102
RTVSPropertyOp7
 70
     1
102
RTVSPropertyOp8
 70
     1
102
RTVSPropertyOp9
 70
     1
102
RTVSPropertyOp10
 70
     1
102
RTVSPropertyOp11
 70
     1
102
RTVSPropertyOp12
 70
     1
102
RTVSPropertyOp13
 70
     1
102
RTVSPropertyOp14
 70
     1
102
RTVSPropertyOp15
 70
     1
102
RTVSPropertyOp16
 70
     1
102
RTVSPropertyOp17
 70
     1
102
RTVSPropertyOp18
 70
     1
102
RTVSPropertyOp19
 70
     1
102
RTVSPropertyOp20
 70
     1
102
RTVSPropertyOp21
 70
     1
102
RTVSPropertyOp22
 70
     1
102
RTVSPropertyOp23
 70
     1
102
RTVSPropertyOp24
 70
     1
102
RTVSPropertyOp25
 70
     1
102
RTVSPropertyOp26
 70
     1
102
RTVSPropertyOp27
 70
     1
102
RTVSPropertyOp28
 70
     1
102
RTVSPropertyOp29
 70
     1
102
RTVSPropertyOp30
 70
     1
102
RTVSPropertyOp31
 70
     1
102
RTVSPropertyOp32
 70
     1
102
RTVSPropertyOp33
 70
     1
102
RTVSPropertyOp34
 70
     1
102
RTVSPropertyOp35
 70
     1
102
RTVSPropertyOp36
 70
     1
102
RTVSPropertyOp37
 70
     1
102
RTVSPropertyOp38
 70
     1
102
RTVSPropertyOp39
 70
     1
102
RTVSPropertyOp40
 70
     1
102
RTVSPropertyOp41
 70
     1
102
RTVSPropertyOp42
 70
     1
102
RTVSPropertyOp43
 70
     1
102
RTVSPropertyOp44
 70
     1
102
RTVSPropertyOp45
 70
     1
102
RTVSPropertyOp46
 70
     1
102
RTVSPropertyOp47
 70
     1
102
RTVSPropertyOp48
 70
     1
102
RTVSPropertyOp49
 70
     1
102
RTVSPropertyOp50
 70
     1
102
RTVSPropertyOp51
 70
     0
102
RTVSPropertyOp52
 70
     0
102
RTVSPropertyOp53
 70
     1
102
RTVSPropertyOp54
 70
     1
102
RTVSPropertyOp55
 70
     1
102
RTVSPropertyOp56
 70
     1
102
RTVSPropertyOp57
 70
     1
102
RTVSPropertyOp58
 70
     1
102
RTVSPropertyOp59
 70
     1
102
RTVSPropertyOp60
 70
     1
102
RTVSPropertyOp61
 70
     1
102
RTVSPropertyOp62
 70
     1
  0
ENDSEC
  0
EOF
