ISO-10303-21;
HEADER;
FILE_DESCRIPTION((''),'2;1');
FILE_NAME('40371-161','2010-03-24T',('MEDavids'),('Rockwell Automation'),
'PRO/ENGINEER BY PARAMETRIC TECHNOLOGY CORPORATION, 2005110',
'PRO/ENGINEER BY PARAMETRIC TECHNOLOGY CORPORATION, 2005110','');
FILE_SCHEMA(('CONFIG_CONTROL_DESIGN'));
ENDSEC;
DATA;
#1=DIRECTION('',(0.E0,-1.E0,0.E0));
#2=VECTOR('',#1,1.229734169772E-2);
#3=CARTESIAN_POINT('',(6.25E-2,-4.627026583023E-1,0.E0));
#4=LINE('',#3,#2);
#5=DIRECTION('',(-1.E0,0.E0,0.E0));
#6=VECTOR('',#5,8.5E-2);
#7=CARTESIAN_POINT('',(4.25E-2,-4.95E-1,0.E0));
#8=LINE('',#7,#6);
#9=DIRECTION('',(0.E0,1.E0,0.E0));
#10=VECTOR('',#9,1.229734169772E-2);
#11=CARTESIAN_POINT('',(-6.25E-2,-4.75E-1,0.E0));
#12=LINE('',#11,#10);
#13=CARTESIAN_POINT('',(0.E0,0.E0,0.E0));
#14=DIRECTION('',(0.E0,0.E0,-1.E0));
#15=DIRECTION('',(-1.E0,0.E0,0.E0));
#16=AXIS2_PLACEMENT_3D('',#13,#14,#15);
#18=DIRECTION('',(0.E0,-1.E0,0.E0));
#19=VECTOR('',#18,1.282E0);
#20=CARTESIAN_POINT('',(-5.875E-1,0.E0,0.E0));
#21=LINE('',#20,#19);
#22=DIRECTION('',(1.E0,0.E0,0.E0));
#23=VECTOR('',#22,1.095E0);
#24=CARTESIAN_POINT('',(-5.475E-1,-1.322E0,0.E0));
#25=LINE('',#24,#23);
#26=DIRECTION('',(0.E0,1.E0,0.E0));
#27=VECTOR('',#26,1.282E0);
#28=CARTESIAN_POINT('',(5.875E-1,-1.282E0,0.E0));
#29=LINE('',#28,#27);
#30=DIRECTION('',(0.E0,0.E0,1.E0));
#31=VECTOR('',#30,6.2E-2);
#32=CARTESIAN_POINT('',(6.25E-2,-4.627026583023E-1,0.E0));
#33=LINE('',#32,#31);
#34=CARTESIAN_POINT('',(8.25E-2,-4.627026583023E-1,0.E0));
#35=DIRECTION('',(0.E0,0.E0,-1.E0));
#36=DIRECTION('',(-1.E0,0.E0,0.E0));
#37=AXIS2_PLACEMENT_3D('',#34,#35,#36);
#39=DIRECTION('',(0.E0,0.E0,1.E0));
#40=VECTOR('',#39,6.2E-2);
#41=CARTESIAN_POINT('',(7.898936170213E-2,-4.430131834809E-1,0.E0));
#42=LINE('',#41,#40);
#43=CARTESIAN_POINT('',(8.25E-2,-4.627026583023E-1,6.2E-2));
#44=DIRECTION('',(0.E0,0.E0,-1.E0));
#45=DIRECTION('',(-1.E0,0.E0,0.E0));
#46=AXIS2_PLACEMENT_3D('',#43,#44,#45);
#48=CARTESIAN_POINT('',(0.E0,0.E0,0.E0));
#49=DIRECTION('',(0.E0,0.E0,1.E0));
#50=DIRECTION('',(1.755319148936E-1,-9.844737410687E-1,0.E0));
#51=AXIS2_PLACEMENT_3D('',#48,#49,#50);
#53=CARTESIAN_POINT('',(0.E0,0.E0,6.2E-2));
#54=DIRECTION('',(0.E0,0.E0,-1.E0));
#55=DIRECTION('',(-1.755319148936E-1,-9.844737410687E-1,0.E0));
#56=AXIS2_PLACEMENT_3D('',#53,#54,#55);
#58=DIRECTION('',(0.E0,0.E0,1.E0));
#59=VECTOR('',#58,6.2E-2);
#60=CARTESIAN_POINT('',(-6.25E-2,-4.627026583023E-1,0.E0));
#61=LINE('',#60,#59);
#62=CARTESIAN_POINT('',(-8.25E-2,-4.627026583023E-1,6.2E-2));
#63=DIRECTION('',(0.E0,0.E0,1.E0));
#64=DIRECTION('',(1.E0,0.E0,0.E0));
#65=AXIS2_PLACEMENT_3D('',#62,#63,#64);
#67=DIRECTION('',(0.E0,0.E0,1.E0));
#68=VECTOR('',#67,6.2E-2);
#69=CARTESIAN_POINT('',(-7.898936170213E-2,-4.430131834809E-1,0.E0));
#70=LINE('',#69,#68);
#71=CARTESIAN_POINT('',(-8.25E-2,-4.627026583023E-1,0.E0));
#72=DIRECTION('',(0.E0,0.E0,1.E0));
#73=DIRECTION('',(1.E0,0.E0,0.E0));
#74=AXIS2_PLACEMENT_3D('',#71,#72,#73);
#76=DIRECTION('',(0.E0,0.E0,-1.E0));
#77=VECTOR('',#76,6.2E-2);
#78=CARTESIAN_POINT('',(-6.25E-2,-4.75E-1,6.2E-2));
#79=LINE('',#78,#77);
#80=CARTESIAN_POINT('',(-4.25E-2,-4.75E-1,0.E0));
#81=DIRECTION('',(0.E0,0.E0,1.E0));
#82=DIRECTION('',(-1.E0,0.E0,0.E0));
#83=AXIS2_PLACEMENT_3D('',#80,#81,#82);
#85=DIRECTION('',(0.E0,0.E0,-1.E0));
#86=VECTOR('',#85,6.2E-2);
#87=CARTESIAN_POINT('',(-4.25E-2,-4.95E-1,6.2E-2));
#88=LINE('',#87,#86);
#89=CARTESIAN_POINT('',(-4.25E-2,-4.75E-1,6.2E-2));
#90=DIRECTION('',(0.E0,0.E0,1.E0));
#91=DIRECTION('',(-1.E0,0.E0,0.E0));
#92=AXIS2_PLACEMENT_3D('',#89,#90,#91);
#94=DIRECTION('',(0.E0,0.E0,-1.E0));
#95=VECTOR('',#94,6.2E-2);
#96=CARTESIAN_POINT('',(4.25E-2,-4.95E-1,6.2E-2));
#97=LINE('',#96,#95);
#98=CARTESIAN_POINT('',(4.25E-2,-4.75E-1,0.E0));
#99=DIRECTION('',(0.E0,0.E0,1.E0));
#100=DIRECTION('',(0.E0,-1.E0,0.E0));
#101=AXIS2_PLACEMENT_3D('',#98,#99,#100);
#103=DIRECTION('',(0.E0,0.E0,-1.E0));
#104=VECTOR('',#103,6.2E-2);
#105=CARTESIAN_POINT('',(6.25E-2,-4.75E-1,6.2E-2));
#106=LINE('',#105,#104);
#107=CARTESIAN_POINT('',(4.25E-2,-4.75E-1,6.2E-2));
#108=DIRECTION('',(0.E0,0.E0,1.E0));
#109=DIRECTION('',(0.E0,-1.E0,0.E0));
#110=AXIS2_PLACEMENT_3D('',#107,#108,#109);
#112=DIRECTION('',(0.E0,-1.E0,0.E0));
#113=VECTOR('',#112,1.229734169772E-2);
#114=CARTESIAN_POINT('',(6.25E-2,-4.627026583023E-1,6.2E-2));
#115=LINE('',#114,#113);
#116=DIRECTION('',(0.E0,1.E0,0.E0));
#117=VECTOR('',#116,1.229734169772E-2);
#118=CARTESIAN_POINT('',(-6.25E-2,-4.75E-1,6.2E-2));
#119=LINE('',#118,#117);
#120=DIRECTION('',(-1.E0,0.E0,0.E0));
#121=VECTOR('',#120,8.5E-2);
#122=CARTESIAN_POINT('',(4.25E-2,-4.95E-1,6.2E-2));
#123=LINE('',#122,#121);
#124=CARTESIAN_POINT('',(0.E0,0.E0,6.2E-2));
#125=DIRECTION('',(0.E0,0.E0,-1.E0));
#126=DIRECTION('',(-1.E0,0.E0,0.E0));
#127=AXIS2_PLACEMENT_3D('',#124,#125,#126);
#129=DIRECTION('',(0.E0,1.E0,0.E0));
#130=VECTOR('',#129,1.282E0);
#131=CARTESIAN_POINT('',(5.875E-1,-1.282E0,6.2E-2));
#132=LINE('',#131,#130);
#133=DIRECTION('',(1.E0,0.E0,0.E0));
#134=VECTOR('',#133,1.095E0);
#135=CARTESIAN_POINT('',(-5.475E-1,-1.322E0,6.2E-2));
#136=LINE('',#135,#134);
#137=DIRECTION('',(0.E0,-1.E0,0.E0));
#138=VECTOR('',#137,1.282E0);
#139=CARTESIAN_POINT('',(-5.875E-1,0.E0,6.2E-2));
#140=LINE('',#139,#138);
#141=DIRECTION('',(0.E0,0.E0,-1.E0));
#142=VECTOR('',#141,6.2E-2);
#143=CARTESIAN_POINT('',(-5.875E-1,0.E0,6.2E-2));
#144=LINE('',#143,#142);
#145=DIRECTION('',(0.E0,0.E0,1.E0));
#146=VECTOR('',#145,6.2E-2);
#147=CARTESIAN_POINT('',(-5.475E-1,-1.322E0,0.E0));
#148=LINE('',#147,#146);
#149=CARTESIAN_POINT('',(-5.475E-1,-1.282E0,0.E0));
#150=DIRECTION('',(0.E0,0.E0,-1.E0));
#151=DIRECTION('',(0.E0,-1.E0,0.E0));
#152=AXIS2_PLACEMENT_3D('',#149,#150,#151);
#154=DIRECTION('',(0.E0,0.E0,1.E0));
#155=VECTOR('',#154,6.2E-2);
#156=CARTESIAN_POINT('',(-5.875E-1,-1.282E0,0.E0));
#157=LINE('',#156,#155);
#158=CARTESIAN_POINT('',(-5.475E-1,-1.282E0,6.2E-2));
#159=DIRECTION('',(0.E0,0.E0,-1.E0));
#160=DIRECTION('',(0.E0,-1.E0,0.E0));
#161=AXIS2_PLACEMENT_3D('',#158,#159,#160);
#163=DIRECTION('',(0.E0,0.E0,1.E0));
#164=VECTOR('',#163,6.2E-2);
#165=CARTESIAN_POINT('',(5.875E-1,-1.282E0,0.E0));
#166=LINE('',#165,#164);
#167=CARTESIAN_POINT('',(5.475E-1,-1.282E0,0.E0));
#168=DIRECTION('',(0.E0,0.E0,-1.E0));
#169=DIRECTION('',(1.E0,0.E0,0.E0));
#170=AXIS2_PLACEMENT_3D('',#167,#168,#169);
#172=DIRECTION('',(0.E0,0.E0,1.E0));
#173=VECTOR('',#172,6.2E-2);
#174=CARTESIAN_POINT('',(5.475E-1,-1.322E0,0.E0));
#175=LINE('',#174,#173);
#176=CARTESIAN_POINT('',(5.475E-1,-1.282E0,6.2E-2));
#177=DIRECTION('',(0.E0,0.E0,-1.E0));
#178=DIRECTION('',(1.E0,0.E0,0.E0));
#179=AXIS2_PLACEMENT_3D('',#176,#177,#178);
#181=DIRECTION('',(0.E0,0.E0,-1.E0));
#182=VECTOR('',#181,6.2E-2);
#183=CARTESIAN_POINT('',(5.875E-1,0.E0,6.2E-2));
#184=LINE('',#183,#182);
#185=CARTESIAN_POINT('',(5.875E-1,-1.282E0,0.E0));
#186=CARTESIAN_POINT('',(5.875E-1,-1.282E0,6.2E-2));
#187=VERTEX_POINT('',#185);
#188=VERTEX_POINT('',#186);
#189=CARTESIAN_POINT('',(5.475E-1,-1.322E0,0.E0));
#190=CARTESIAN_POINT('',(5.475E-1,-1.322E0,6.2E-2));
#191=VERTEX_POINT('',#189);
#192=VERTEX_POINT('',#190);
#193=CARTESIAN_POINT('',(-5.475E-1,-1.322E0,0.E0));
#194=CARTESIAN_POINT('',(-5.475E-1,-1.322E0,6.2E-2));
#195=VERTEX_POINT('',#193);
#196=VERTEX_POINT('',#194);
#197=CARTESIAN_POINT('',(-5.875E-1,-1.282E0,0.E0));
#198=CARTESIAN_POINT('',(-5.875E-1,-1.282E0,6.2E-2));
#199=VERTEX_POINT('',#197);
#200=VERTEX_POINT('',#198);
#201=CARTESIAN_POINT('',(-6.25E-2,-4.627026583023E-1,0.E0));
#202=CARTESIAN_POINT('',(-6.25E-2,-4.627026583023E-1,6.2E-2));
#203=VERTEX_POINT('',#201);
#204=VERTEX_POINT('',#202);
#205=CARTESIAN_POINT('',(-7.898936170213E-2,-4.430131834809E-1,0.E0));
#206=CARTESIAN_POINT('',(-7.898936170213E-2,-4.430131834809E-1,6.2E-2));
#207=VERTEX_POINT('',#205);
#208=VERTEX_POINT('',#206);
#209=CARTESIAN_POINT('',(6.25E-2,-4.627026583023E-1,0.E0));
#210=CARTESIAN_POINT('',(6.25E-2,-4.627026583023E-1,6.2E-2));
#211=VERTEX_POINT('',#209);
#212=VERTEX_POINT('',#210);
#213=CARTESIAN_POINT('',(7.898936170213E-2,-4.430131834809E-1,0.E0));
#214=CARTESIAN_POINT('',(7.898936170213E-2,-4.430131834809E-1,6.2E-2));
#215=VERTEX_POINT('',#213);
#216=VERTEX_POINT('',#214);
#217=CARTESIAN_POINT('',(4.25E-2,-4.95E-1,6.2E-2));
#218=CARTESIAN_POINT('',(4.25E-2,-4.95E-1,0.E0));
#219=VERTEX_POINT('',#217);
#220=VERTEX_POINT('',#218);
#221=CARTESIAN_POINT('',(6.25E-2,-4.75E-1,6.2E-2));
#222=CARTESIAN_POINT('',(6.25E-2,-4.75E-1,0.E0));
#223=VERTEX_POINT('',#221);
#224=VERTEX_POINT('',#222);
#225=CARTESIAN_POINT('',(-6.25E-2,-4.75E-1,6.2E-2));
#226=CARTESIAN_POINT('',(-6.25E-2,-4.75E-1,0.E0));
#227=VERTEX_POINT('',#225);
#228=VERTEX_POINT('',#226);
#229=CARTESIAN_POINT('',(-4.25E-2,-4.95E-1,6.2E-2));
#230=CARTESIAN_POINT('',(-4.25E-2,-4.95E-1,0.E0));
#231=VERTEX_POINT('',#229);
#232=VERTEX_POINT('',#230);
#233=CARTESIAN_POINT('',(-5.875E-1,0.E0,0.E0));
#234=CARTESIAN_POINT('',(5.875E-1,0.E0,0.E0));
#235=VERTEX_POINT('',#233);
#236=VERTEX_POINT('',#234);
#237=CARTESIAN_POINT('',(-5.875E-1,0.E0,6.2E-2));
#238=CARTESIAN_POINT('',(5.875E-1,0.E0,6.2E-2));
#239=VERTEX_POINT('',#237);
#240=VERTEX_POINT('',#238);
#241=CARTESIAN_POINT('',(0.E0,0.E0,0.E0));
#242=DIRECTION('',(0.E0,0.E0,1.E0));
#243=DIRECTION('',(-1.E0,0.E0,0.E0));
#244=AXIS2_PLACEMENT_3D('',#241,#242,#243);
#245=PLANE('',#244);
#247=ORIENTED_EDGE('',*,*,#246,.F.);
#249=ORIENTED_EDGE('',*,*,#248,.T.);
#251=ORIENTED_EDGE('',*,*,#250,.F.);
#253=ORIENTED_EDGE('',*,*,#252,.T.);
#255=ORIENTED_EDGE('',*,*,#254,.F.);
#257=ORIENTED_EDGE('',*,*,#256,.T.);
#258=EDGE_LOOP('',(#247,#249,#251,#253,#255,#257));
#259=FACE_OUTER_BOUND('',#258,.F.);
#261=ORIENTED_EDGE('',*,*,#260,.T.);
#263=ORIENTED_EDGE('',*,*,#262,.F.);
#265=ORIENTED_EDGE('',*,*,#264,.T.);
#267=ORIENTED_EDGE('',*,*,#266,.F.);
#269=ORIENTED_EDGE('',*,*,#268,.T.);
#271=ORIENTED_EDGE('',*,*,#270,.T.);
#273=ORIENTED_EDGE('',*,*,#272,.F.);
#275=ORIENTED_EDGE('',*,*,#274,.F.);
#276=EDGE_LOOP('',(#261,#263,#265,#267,#269,#271,#273,#275));
#277=FACE_BOUND('',#276,.F.);
#278=ADVANCED_FACE('',(#259,#277),#245,.F.);
#279=CARTESIAN_POINT('',(6.25E-2,-4.456385867494E-1,6.82E-2));
#280=DIRECTION('',(1.E0,0.E0,0.E0));
#281=DIRECTION('',(0.E0,-1.E0,0.E0));
#282=AXIS2_PLACEMENT_3D('',#279,#280,#281);
#283=PLANE('',#282);
#284=ORIENTED_EDGE('',*,*,#260,.F.);
#286=ORIENTED_EDGE('',*,*,#285,.T.);
#288=ORIENTED_EDGE('',*,*,#287,.T.);
#290=ORIENTED_EDGE('',*,*,#289,.T.);
#291=EDGE_LOOP('',(#284,#286,#288,#290));
#292=FACE_OUTER_BOUND('',#291,.F.);
#293=ADVANCED_FACE('',(#292),#283,.F.);
#294=CARTESIAN_POINT('',(8.25E-2,-4.627026583023E-1,0.E0));
#295=DIRECTION('',(0.E0,0.E0,-1.E0));
#296=DIRECTION('',(-1.E0,0.E0,0.E0));
#297=AXIS2_PLACEMENT_3D('',#294,#295,#296);
#298=CYLINDRICAL_SURFACE('',#297,2.E-2);
#299=ORIENTED_EDGE('',*,*,#285,.F.);
#300=ORIENTED_EDGE('',*,*,#274,.T.);
#302=ORIENTED_EDGE('',*,*,#301,.T.);
#304=ORIENTED_EDGE('',*,*,#303,.F.);
#305=EDGE_LOOP('',(#299,#300,#302,#304));
#306=FACE_OUTER_BOUND('',#305,.F.);
#307=ADVANCED_FACE('',(#306),#298,.T.);
#308=CARTESIAN_POINT('',(0.E0,0.E0,0.E0));
#309=DIRECTION('',(0.E0,0.E0,1.E0));
#310=DIRECTION('',(1.E0,0.E0,0.E0));
#311=AXIS2_PLACEMENT_3D('',#308,#309,#310);
#312=CYLINDRICAL_SURFACE('',#311,4.5E-1);
#313=ORIENTED_EDGE('',*,*,#272,.T.);
#315=ORIENTED_EDGE('',*,*,#314,.T.);
#317=ORIENTED_EDGE('',*,*,#316,.T.);
#318=ORIENTED_EDGE('',*,*,#301,.F.);
#319=EDGE_LOOP('',(#313,#315,#317,#318));
#320=FACE_OUTER_BOUND('',#319,.F.);
#321=ADVANCED_FACE('',(#320),#312,.F.);
#322=CARTESIAN_POINT('',(-8.25E-2,-4.627026583023E-1,0.E0));
#323=DIRECTION('',(0.E0,0.E0,1.E0));
#324=DIRECTION('',(1.E0,0.E0,0.E0));
#325=AXIS2_PLACEMENT_3D('',#322,#323,#324);
#326=CYLINDRICAL_SURFACE('',#325,2.E-2);
#328=ORIENTED_EDGE('',*,*,#327,.T.);
#330=ORIENTED_EDGE('',*,*,#329,.T.);
#331=ORIENTED_EDGE('',*,*,#314,.F.);
#332=ORIENTED_EDGE('',*,*,#270,.F.);
#333=EDGE_LOOP('',(#328,#330,#331,#332));
#334=FACE_OUTER_BOUND('',#333,.F.);
#335=ADVANCED_FACE('',(#334),#326,.T.);
#336=CARTESIAN_POINT('',(-6.25E-2,-4.95E-1,6.82E-2));
#337=DIRECTION('',(-1.E0,0.E0,0.E0));
#338=DIRECTION('',(0.E0,1.E0,0.E0));
#339=AXIS2_PLACEMENT_3D('',#336,#337,#338);
#340=PLANE('',#339);
#341=ORIENTED_EDGE('',*,*,#268,.F.);
#343=ORIENTED_EDGE('',*,*,#342,.F.);
#345=ORIENTED_EDGE('',*,*,#344,.T.);
#346=ORIENTED_EDGE('',*,*,#327,.F.);
#347=EDGE_LOOP('',(#341,#343,#345,#346));
#348=FACE_OUTER_BOUND('',#347,.F.);
#349=ADVANCED_FACE('',(#348),#340,.F.);
#350=CARTESIAN_POINT('',(-4.25E-2,-4.75E-1,6.2E-2));
#351=DIRECTION('',(0.E0,0.E0,1.E0));
#352=DIRECTION('',(-1.E0,0.E0,0.E0));
#353=AXIS2_PLACEMENT_3D('',#350,#351,#352);
#354=CYLINDRICAL_SURFACE('',#353,2.E-2);
#355=ORIENTED_EDGE('',*,*,#342,.T.);
#356=ORIENTED_EDGE('',*,*,#266,.T.);
#358=ORIENTED_EDGE('',*,*,#357,.F.);
#360=ORIENTED_EDGE('',*,*,#359,.F.);
#361=EDGE_LOOP('',(#355,#356,#358,#360));
#362=FACE_OUTER_BOUND('',#361,.F.);
#363=ADVANCED_FACE('',(#362),#354,.F.);
#364=CARTESIAN_POINT('',(6.25E-2,-4.95E-1,6.82E-2));
#365=DIRECTION('',(0.E0,-1.E0,0.E0));
#366=DIRECTION('',(-1.E0,0.E0,0.E0));
#367=AXIS2_PLACEMENT_3D('',#364,#365,#366);
#368=PLANE('',#367);
#369=ORIENTED_EDGE('',*,*,#264,.F.);
#371=ORIENTED_EDGE('',*,*,#370,.F.);
#373=ORIENTED_EDGE('',*,*,#372,.T.);
#374=ORIENTED_EDGE('',*,*,#357,.T.);
#375=EDGE_LOOP('',(#369,#371,#373,#374));
#376=FACE_OUTER_BOUND('',#375,.F.);
#377=ADVANCED_FACE('',(#376),#368,.F.);
#378=CARTESIAN_POINT('',(4.25E-2,-4.75E-1,6.2E-2));
#379=DIRECTION('',(0.E0,0.E0,1.E0));
#380=DIRECTION('',(0.E0,-1.E0,0.E0));
#381=AXIS2_PLACEMENT_3D('',#378,#379,#380);
#382=CYLINDRICAL_SURFACE('',#381,2.E-2);
#383=ORIENTED_EDGE('',*,*,#370,.T.);
#384=ORIENTED_EDGE('',*,*,#262,.T.);
#385=ORIENTED_EDGE('',*,*,#289,.F.);
#387=ORIENTED_EDGE('',*,*,#386,.F.);
#388=EDGE_LOOP('',(#383,#384,#385,#387));
#389=FACE_OUTER_BOUND('',#388,.F.);
#390=ADVANCED_FACE('',(#389),#382,.F.);
#391=CARTESIAN_POINT('',(0.E0,0.E0,6.2E-2));
#392=DIRECTION('',(0.E0,0.E0,1.E0));
#393=DIRECTION('',(-1.E0,0.E0,0.E0));
#394=AXIS2_PLACEMENT_3D('',#391,#392,#393);
#395=PLANE('',#394);
#397=ORIENTED_EDGE('',*,*,#396,.T.);
#399=ORIENTED_EDGE('',*,*,#398,.F.);
#401=ORIENTED_EDGE('',*,*,#400,.T.);
#403=ORIENTED_EDGE('',*,*,#402,.F.);
#405=ORIENTED_EDGE('',*,*,#404,.T.);
#407=ORIENTED_EDGE('',*,*,#406,.F.);
#408=EDGE_LOOP('',(#397,#399,#401,#403,#405,#407));
#409=FACE_OUTER_BOUND('',#408,.F.);
#410=ORIENTED_EDGE('',*,*,#287,.F.);
#411=ORIENTED_EDGE('',*,*,#303,.T.);
#412=ORIENTED_EDGE('',*,*,#316,.F.);
#413=ORIENTED_EDGE('',*,*,#329,.F.);
#414=ORIENTED_EDGE('',*,*,#344,.F.);
#415=ORIENTED_EDGE('',*,*,#359,.T.);
#416=ORIENTED_EDGE('',*,*,#372,.F.);
#417=ORIENTED_EDGE('',*,*,#386,.T.);
#418=EDGE_LOOP('',(#410,#411,#412,#413,#414,#415,#416,#417));
#419=FACE_BOUND('',#418,.F.);
#420=ADVANCED_FACE('',(#409,#419),#395,.T.);
#421=CARTESIAN_POINT('',(0.E0,0.E0,0.E0));
#422=DIRECTION('',(0.E0,0.E0,-1.E0));
#423=DIRECTION('',(1.E0,0.E0,0.E0));
#424=AXIS2_PLACEMENT_3D('',#421,#422,#423);
#425=CYLINDRICAL_SURFACE('',#424,5.875E-1);
#426=ORIENTED_EDGE('',*,*,#396,.F.);
#428=ORIENTED_EDGE('',*,*,#427,.T.);
#429=ORIENTED_EDGE('',*,*,#246,.T.);
#431=ORIENTED_EDGE('',*,*,#430,.F.);
#432=EDGE_LOOP('',(#426,#428,#429,#431));
#433=FACE_OUTER_BOUND('',#432,.F.);
#434=ADVANCED_FACE('',(#433),#425,.T.);
#435=CARTESIAN_POINT('',(-5.875E-1,5.88E-1,0.E0));
#436=DIRECTION('',(-1.E0,0.E0,0.E0));
#437=DIRECTION('',(0.E0,-1.E0,0.E0));
#438=AXIS2_PLACEMENT_3D('',#435,#436,#437);
#439=PLANE('',#438);
#440=ORIENTED_EDGE('',*,*,#427,.F.);
#441=ORIENTED_EDGE('',*,*,#406,.T.);
#443=ORIENTED_EDGE('',*,*,#442,.F.);
#444=ORIENTED_EDGE('',*,*,#248,.F.);
#445=EDGE_LOOP('',(#440,#441,#443,#444));
#446=FACE_OUTER_BOUND('',#445,.F.);
#447=ADVANCED_FACE('',(#446),#439,.T.);
#448=CARTESIAN_POINT('',(-5.475E-1,-1.282E0,0.E0));
#449=DIRECTION('',(0.E0,0.E0,-1.E0));
#450=DIRECTION('',(0.E0,-1.E0,0.E0));
#451=AXIS2_PLACEMENT_3D('',#448,#449,#450);
#452=CYLINDRICAL_SURFACE('',#451,4.E-2);
#454=ORIENTED_EDGE('',*,*,#453,.F.);
#455=ORIENTED_EDGE('',*,*,#250,.T.);
#456=ORIENTED_EDGE('',*,*,#442,.T.);
#457=ORIENTED_EDGE('',*,*,#404,.F.);
#458=EDGE_LOOP('',(#454,#455,#456,#457));
#459=FACE_OUTER_BOUND('',#458,.F.);
#460=ADVANCED_FACE('',(#459),#452,.T.);
#461=CARTESIAN_POINT('',(-5.875E-1,-1.322E0,0.E0));
#462=DIRECTION('',(0.E0,-1.E0,0.E0));
#463=DIRECTION('',(1.E0,0.E0,0.E0));
#464=AXIS2_PLACEMENT_3D('',#461,#462,#463);
#465=PLANE('',#464);
#466=ORIENTED_EDGE('',*,*,#252,.F.);
#467=ORIENTED_EDGE('',*,*,#453,.T.);
#468=ORIENTED_EDGE('',*,*,#402,.T.);
#470=ORIENTED_EDGE('',*,*,#469,.F.);
#471=EDGE_LOOP('',(#466,#467,#468,#470));
#472=FACE_OUTER_BOUND('',#471,.F.);
#473=ADVANCED_FACE('',(#472),#465,.T.);
#474=CARTESIAN_POINT('',(5.475E-1,-1.282E0,0.E0));
#475=DIRECTION('',(0.E0,0.E0,-1.E0));
#476=DIRECTION('',(1.E0,0.E0,0.E0));
#477=AXIS2_PLACEMENT_3D('',#474,#475,#476);
#478=CYLINDRICAL_SURFACE('',#477,4.E-2);
#480=ORIENTED_EDGE('',*,*,#479,.F.);
#481=ORIENTED_EDGE('',*,*,#254,.T.);
#482=ORIENTED_EDGE('',*,*,#469,.T.);
#483=ORIENTED_EDGE('',*,*,#400,.F.);
#484=EDGE_LOOP('',(#480,#481,#482,#483));
#485=FACE_OUTER_BOUND('',#484,.F.);
#486=ADVANCED_FACE('',(#485),#478,.T.);
#487=CARTESIAN_POINT('',(5.875E-1,-1.322E0,0.E0));
#488=DIRECTION('',(1.E0,0.E0,0.E0));
#489=DIRECTION('',(0.E0,1.E0,0.E0));
#490=AXIS2_PLACEMENT_3D('',#487,#488,#489);
#491=PLANE('',#490);
#492=ORIENTED_EDGE('',*,*,#430,.T.);
#493=ORIENTED_EDGE('',*,*,#256,.F.);
#494=ORIENTED_EDGE('',*,*,#479,.T.);
#495=ORIENTED_EDGE('',*,*,#398,.T.);
#496=EDGE_LOOP('',(#492,#493,#494,#495));
#497=FACE_OUTER_BOUND('',#496,.F.);
#498=ADVANCED_FACE('',(#497),#491,.T.);
#499=CLOSED_SHELL('',(#278,#293,#307,#321,#335,#349,#363,#377,#390,#420,#434,
#447,#460,#473,#486,#498));
#500=MANIFOLD_SOLID_BREP('',#499);
#501=DIMENSIONAL_EXPONENTS(1.E0,0.E0,0.E0,0.E0,0.E0,0.E0,0.E0);
#502=(LENGTH_UNIT()NAMED_UNIT(*)SI_UNIT(.MILLI.,.METRE.));
#503=LENGTH_MEASURE_WITH_UNIT(LENGTH_MEASURE(2.54E1),#502);
#504=(CONVERSION_BASED_UNIT('INCH',#503)LENGTH_UNIT()NAMED_UNIT(#501));
#505=DIMENSIONAL_EXPONENTS(0.E0,0.E0,0.E0,0.E0,0.E0,0.E0,0.E0);
#506=(NAMED_UNIT(*)PLANE_ANGLE_UNIT()SI_UNIT($,.RADIAN.));
#507=PLANE_ANGLE_MEASURE_WITH_UNIT(PLANE_ANGLE_MEASURE(1.745329251994E-2),#506);
#508=(CONVERSION_BASED_UNIT('DEGREE',#507)NAMED_UNIT(#505)PLANE_ANGLE_UNIT());
#509=(NAMED_UNIT(*)SI_UNIT($,.STERADIAN.)SOLID_ANGLE_UNIT());
#510=UNCERTAINTY_MEASURE_WITH_UNIT(LENGTH_MEASURE(2.243249072781E-4),#504,
'closure',
'Maximum model space distance between geometric entities at asserted connectivities');
#511=(GEOMETRIC_REPRESENTATION_CONTEXT(3)GLOBAL_UNCERTAINTY_ASSIGNED_CONTEXT((
#510))GLOBAL_UNIT_ASSIGNED_CONTEXT((#504,#508,#509))REPRESENTATION_CONTEXT
('ID1','3'));
#513=APPLICATION_CONTEXT(
'CONFIGURATION CONTROLLED 3D DESIGNS OF MECHANICAL PARTS AND ASSEMBLIES');
#514=APPLICATION_PROTOCOL_DEFINITION('international standard',
'config_control_design',1994,#513);
#515=DESIGN_CONTEXT('',#513,'design');
#516=MECHANICAL_CONTEXT('',#513,'mechanical');
#517=PRODUCT('40371-161','40371-161','NOT SPECIFIED',(#516));
#518=PRODUCT_DEFINITION_FORMATION_WITH_SPECIFIED_SOURCE('1','LAST_VERSION',#517,
.MADE.);
#522=PRODUCT_CATEGORY('part','');
#523=PRODUCT_RELATED_PRODUCT_CATEGORY('detail','',(#517));
#524=PRODUCT_CATEGORY_RELATIONSHIP('','',#522,#523);
#525=SECURITY_CLASSIFICATION_LEVEL('unclassified');
#526=SECURITY_CLASSIFICATION('','',#525);
#527=CC_DESIGN_SECURITY_CLASSIFICATION(#526,(#518));
#528=APPROVAL_STATUS('approved');
#529=APPROVAL(#528,'');
#530=CC_DESIGN_APPROVAL(#529,(#526,#518,#519));
#531=CALENDAR_DATE(110,24,3);
#532=COORDINATED_UNIVERSAL_TIME_OFFSET(4,0,.BEHIND.);
#533=LOCAL_TIME(16,7,5.E1,#532);
#534=DATE_AND_TIME(#531,#533);
#535=APPROVAL_DATE_TIME(#534,#529);
#536=DATE_TIME_ROLE('creation_date');
#537=CC_DESIGN_DATE_AND_TIME_ASSIGNMENT(#534,#536,(#519));
#538=DATE_TIME_ROLE('classification_date');
#539=CC_DESIGN_DATE_AND_TIME_ASSIGNMENT(#534,#538,(#526));
#540=PERSON('UNSPECIFIED','UNSPECIFIED',$,$,$,$);
#541=ORGANIZATION('UNSPECIFIED','UNSPECIFIED','UNSPECIFIED');
#542=PERSON_AND_ORGANIZATION(#540,#541);
#543=APPROVAL_ROLE('approver');
#544=APPROVAL_PERSON_ORGANIZATION(#542,#529,#543);
#545=PERSON_AND_ORGANIZATION_ROLE('creator');
#546=CC_DESIGN_PERSON_AND_ORGANIZATION_ASSIGNMENT(#542,#545,(#518,#519));
#547=PERSON_AND_ORGANIZATION_ROLE('design_supplier');
#548=CC_DESIGN_PERSON_AND_ORGANIZATION_ASSIGNMENT(#542,#547,(#518));
#549=PERSON_AND_ORGANIZATION_ROLE('classification_officer');
#550=CC_DESIGN_PERSON_AND_ORGANIZATION_ASSIGNMENT(#542,#549,(#526));
#551=PERSON_AND_ORGANIZATION_ROLE('design_owner');
#552=CC_DESIGN_PERSON_AND_ORGANIZATION_ASSIGNMENT(#542,#551,(#517));
#17=CIRCLE('',#16,5.875E-1);
#38=CIRCLE('',#37,2.E-2);
#47=CIRCLE('',#46,2.E-2);
#52=CIRCLE('',#51,4.5E-1);
#57=CIRCLE('',#56,4.5E-1);
#66=CIRCLE('',#65,2.E-2);
#75=CIRCLE('',#74,2.E-2);
#84=CIRCLE('',#83,2.E-2);
#93=CIRCLE('',#92,2.E-2);
#102=CIRCLE('',#101,2.E-2);
#111=CIRCLE('',#110,2.E-2);
#128=CIRCLE('',#127,5.875E-1);
#153=CIRCLE('',#152,4.E-2);
#162=CIRCLE('',#161,4.E-2);
#171=CIRCLE('',#170,4.E-2);
#180=CIRCLE('',#179,4.E-2);
#246=EDGE_CURVE('',#235,#236,#17,.T.);
#248=EDGE_CURVE('',#235,#199,#21,.T.);
#250=EDGE_CURVE('',#195,#199,#153,.T.);
#252=EDGE_CURVE('',#195,#191,#25,.T.);
#254=EDGE_CURVE('',#187,#191,#171,.T.);
#256=EDGE_CURVE('',#187,#236,#29,.T.);
#260=EDGE_CURVE('',#211,#224,#4,.T.);
#262=EDGE_CURVE('',#220,#224,#102,.T.);
#264=EDGE_CURVE('',#220,#232,#8,.T.);
#266=EDGE_CURVE('',#228,#232,#84,.T.);
#268=EDGE_CURVE('',#228,#203,#12,.T.);
#270=EDGE_CURVE('',#203,#207,#75,.T.);
#272=EDGE_CURVE('',#215,#207,#52,.T.);
#274=EDGE_CURVE('',#211,#215,#38,.T.);
#285=EDGE_CURVE('',#211,#212,#33,.T.);
#287=EDGE_CURVE('',#212,#223,#115,.T.);
#289=EDGE_CURVE('',#223,#224,#106,.T.);
#301=EDGE_CURVE('',#215,#216,#42,.T.);
#303=EDGE_CURVE('',#212,#216,#47,.T.);
#314=EDGE_CURVE('',#207,#208,#70,.T.);
#316=EDGE_CURVE('',#208,#216,#57,.T.);
#327=EDGE_CURVE('',#203,#204,#61,.T.);
#329=EDGE_CURVE('',#204,#208,#66,.T.);
#342=EDGE_CURVE('',#227,#228,#79,.T.);
#344=EDGE_CURVE('',#227,#204,#119,.T.);
#357=EDGE_CURVE('',#231,#232,#88,.T.);
#359=EDGE_CURVE('',#227,#231,#93,.T.);
#370=EDGE_CURVE('',#219,#220,#97,.T.);
#372=EDGE_CURVE('',#219,#231,#123,.T.);
#386=EDGE_CURVE('',#219,#223,#111,.T.);
#396=EDGE_CURVE('',#239,#240,#128,.T.);
#398=EDGE_CURVE('',#188,#240,#132,.T.);
#400=EDGE_CURVE('',#188,#192,#180,.T.);
#402=EDGE_CURVE('',#196,#192,#136,.T.);
#404=EDGE_CURVE('',#196,#200,#162,.T.);
#406=EDGE_CURVE('',#239,#200,#140,.T.);
#427=EDGE_CURVE('',#239,#235,#144,.T.);
#430=EDGE_CURVE('',#240,#236,#184,.T.);
#442=EDGE_CURVE('',#199,#200,#157,.T.);
#453=EDGE_CURVE('',#195,#196,#148,.T.);
#469=EDGE_CURVE('',#191,#192,#175,.T.);
#479=EDGE_CURVE('',#187,#188,#166,.T.);
#512=ADVANCED_BREP_SHAPE_REPRESENTATION('',(#500),#511);
#519=PRODUCT_DEFINITION('design','',#518,#515);
#520=PRODUCT_DEFINITION_SHAPE('','SHAPE FOR 40371-161.',#519);
#521=SHAPE_DEFINITION_REPRESENTATION(#520,#512);
ENDSEC;
END-ISO-10303-21;
