ISO-10303-21;
HEADER;
FILE_DESCRIPTION((''),'2;1');
FILE_NAME('40011-255-01','2013-08-02T',('wwhu'),('Rockwell Automation'),
'PRO/ENGINEER BY PARAMETRIC TECHNOLOGY CORPORATION, 2010140',
'PRO/ENGINEER BY PARAMETRIC TECHNOLOGY CORPORATION, 2010140','');
FILE_SCHEMA(('CONFIG_CONTROL_DESIGN'));
ENDSEC;
DATA;
#2=CARTESIAN_POINT('',(0.E0,0.E0,0.E0));
#3=DIRECTION('',(0.E0,0.E0,1.E0));
#4=DIRECTION('',(1.E0,0.E0,0.E0));
#5=AXIS2_PLACEMENT_3D('',#2,#3,#4);
#7=CARTESIAN_POINT('',(0.E0,0.E0,0.E0));
#8=DIRECTION('',(0.E0,0.E0,1.E0));
#9=DIRECTION('',(-1.E0,0.E0,0.E0));
#10=AXIS2_PLACEMENT_3D('',#7,#8,#9);
#12=DIRECTION('',(1.E0,0.E0,0.E0));
#13=VECTOR('',#12,3.28E0);
#14=CARTESIAN_POINT('',(-1.64E0,1.219E1,0.E0));
#15=LINE('',#14,#13);
#16=DIRECTION('',(0.E0,-1.E0,0.E0));
#17=VECTOR('',#16,8.378504238184E-1);
#18=CARTESIAN_POINT('',(1.64E0,1.219E1,0.E0));
#19=LINE('',#18,#17);
#20=CARTESIAN_POINT('',(0.E0,0.E0,0.E0));
#21=DIRECTION('',(0.E0,0.E0,-1.E0));
#22=DIRECTION('',(1.429816913688E-1,9.897253335817E-1,0.E0));
#23=AXIS2_PLACEMENT_3D('',#20,#21,#22);
#25=DIRECTION('',(0.E0,1.E0,0.E0));
#26=VECTOR('',#25,8.378504238184E-1);
#27=CARTESIAN_POINT('',(-1.64E0,1.135214957618E1,0.E0));
#28=LINE('',#27,#26);
#29=DIRECTION('',(0.E0,0.E0,1.E0));
#30=VECTOR('',#29,3.81E-1);
#31=CARTESIAN_POINT('',(4.5E1,0.E0,0.E0));
#32=LINE('',#31,#30);
#33=DIRECTION('',(0.E0,0.E0,1.E0));
#34=VECTOR('',#33,3.81E-1);
#35=CARTESIAN_POINT('',(-4.5E1,0.E0,0.E0));
#36=LINE('',#35,#34);
#37=CARTESIAN_POINT('',(0.E0,0.E0,3.81E-1));
#38=DIRECTION('',(0.E0,0.E0,1.E0));
#39=DIRECTION('',(1.E0,0.E0,0.E0));
#40=AXIS2_PLACEMENT_3D('',#37,#38,#39);
#42=CARTESIAN_POINT('',(0.E0,0.E0,3.81E-1));
#43=DIRECTION('',(0.E0,0.E0,1.E0));
#44=DIRECTION('',(-1.E0,0.E0,0.E0));
#45=AXIS2_PLACEMENT_3D('',#42,#43,#44);
#47=DIRECTION('',(1.E0,0.E0,0.E0));
#48=VECTOR('',#47,3.28E0);
#49=CARTESIAN_POINT('',(-1.64E0,1.219E1,3.81E-1));
#50=LINE('',#49,#48);
#51=DIRECTION('',(0.E0,1.E0,0.E0));
#52=VECTOR('',#51,8.378504238184E-1);
#53=CARTESIAN_POINT('',(-1.64E0,1.135214957618E1,3.81E-1));
#54=LINE('',#53,#52);
#55=CARTESIAN_POINT('',(0.E0,0.E0,3.81E-1));
#56=DIRECTION('',(0.E0,0.E0,-1.E0));
#57=DIRECTION('',(1.429816913688E-1,9.897253335817E-1,0.E0));
#58=AXIS2_PLACEMENT_3D('',#55,#56,#57);
#60=DIRECTION('',(0.E0,-1.E0,0.E0));
#61=VECTOR('',#60,8.378504238184E-1);
#62=CARTESIAN_POINT('',(1.64E0,1.219E1,3.81E-1));
#63=LINE('',#62,#61);
#64=DIRECTION('',(0.E0,0.E0,1.E0));
#65=VECTOR('',#64,3.81E-1);
#66=CARTESIAN_POINT('',(-1.64E0,1.219E1,0.E0));
#67=LINE('',#66,#65);
#68=DIRECTION('',(0.E0,0.E0,1.E0));
#69=VECTOR('',#68,3.81E-1);
#70=CARTESIAN_POINT('',(-1.64E0,1.135214957618E1,0.E0));
#71=LINE('',#70,#69);
#72=DIRECTION('',(0.E0,0.E0,1.E0));
#73=VECTOR('',#72,3.81E-1);
#74=CARTESIAN_POINT('',(1.64E0,1.135214957618E1,0.E0));
#75=LINE('',#74,#73);
#76=DIRECTION('',(0.E0,0.E0,1.E0));
#77=VECTOR('',#76,3.81E-1);
#78=CARTESIAN_POINT('',(1.64E0,1.219E1,0.E0));
#79=LINE('',#78,#77);
#80=CARTESIAN_POINT('',(4.5E1,0.E0,0.E0));
#81=CARTESIAN_POINT('',(-4.5E1,1.102182119233E-14,0.E0));
#82=VERTEX_POINT('',#80);
#83=VERTEX_POINT('',#81);
#84=CARTESIAN_POINT('',(4.5E1,0.E0,3.81E-1));
#85=CARTESIAN_POINT('',(-4.5E1,1.102182119233E-14,3.81E-1));
#86=VERTEX_POINT('',#84);
#87=VERTEX_POINT('',#85);
#88=CARTESIAN_POINT('',(-1.64E0,1.219E1,0.E0));
#89=CARTESIAN_POINT('',(1.64E0,1.219E1,0.E0));
#90=VERTEX_POINT('',#88);
#91=VERTEX_POINT('',#89);
#92=CARTESIAN_POINT('',(1.64E0,1.135214957618E1,0.E0));
#93=VERTEX_POINT('',#92);
#94=CARTESIAN_POINT('',(-1.64E0,1.135214957618E1,0.E0));
#95=VERTEX_POINT('',#94);
#96=CARTESIAN_POINT('',(-1.64E0,1.219E1,3.81E-1));
#97=CARTESIAN_POINT('',(1.64E0,1.219E1,3.81E-1));
#98=VERTEX_POINT('',#96);
#99=VERTEX_POINT('',#97);
#100=CARTESIAN_POINT('',(1.64E0,1.135214957618E1,3.81E-1));
#101=VERTEX_POINT('',#100);
#102=CARTESIAN_POINT('',(-1.64E0,1.135214957618E1,3.81E-1));
#103=VERTEX_POINT('',#102);
#104=CARTESIAN_POINT('',(0.E0,0.E0,0.E0));
#105=DIRECTION('',(0.E0,0.E0,1.E0));
#106=DIRECTION('',(1.E0,0.E0,0.E0));
#107=AXIS2_PLACEMENT_3D('',#104,#105,#106);
#108=PLANE('',#107);
#110=ORIENTED_EDGE('',*,*,#109,.T.);
#112=ORIENTED_EDGE('',*,*,#111,.T.);
#113=EDGE_LOOP('',(#110,#112));
#114=FACE_OUTER_BOUND('',#113,.F.);
#116=ORIENTED_EDGE('',*,*,#115,.T.);
#118=ORIENTED_EDGE('',*,*,#117,.T.);
#120=ORIENTED_EDGE('',*,*,#119,.T.);
#122=ORIENTED_EDGE('',*,*,#121,.T.);
#123=EDGE_LOOP('',(#116,#118,#120,#122));
#124=FACE_BOUND('',#123,.F.);
#125=ADVANCED_FACE('',(#114,#124),#108,.F.);
#126=CARTESIAN_POINT('',(0.E0,0.E0,0.E0));
#127=DIRECTION('',(0.E0,0.E0,1.E0));
#128=DIRECTION('',(1.E0,0.E0,0.E0));
#129=AXIS2_PLACEMENT_3D('',#126,#127,#128);
#130=CYLINDRICAL_SURFACE('',#129,4.5E1);
#131=ORIENTED_EDGE('',*,*,#109,.F.);
#133=ORIENTED_EDGE('',*,*,#132,.T.);
#135=ORIENTED_EDGE('',*,*,#134,.T.);
#137=ORIENTED_EDGE('',*,*,#136,.F.);
#138=EDGE_LOOP('',(#131,#133,#135,#137));
#139=FACE_OUTER_BOUND('',#138,.F.);
#140=ADVANCED_FACE('',(#139),#130,.T.);
#141=CARTESIAN_POINT('',(0.E0,0.E0,0.E0));
#142=DIRECTION('',(0.E0,0.E0,1.E0));
#143=DIRECTION('',(1.E0,0.E0,0.E0));
#144=AXIS2_PLACEMENT_3D('',#141,#142,#143);
#145=CYLINDRICAL_SURFACE('',#144,4.5E1);
#146=ORIENTED_EDGE('',*,*,#111,.F.);
#147=ORIENTED_EDGE('',*,*,#136,.T.);
#149=ORIENTED_EDGE('',*,*,#148,.T.);
#150=ORIENTED_EDGE('',*,*,#132,.F.);
#151=EDGE_LOOP('',(#146,#147,#149,#150));
#152=FACE_OUTER_BOUND('',#151,.F.);
#153=ADVANCED_FACE('',(#152),#145,.T.);
#154=CARTESIAN_POINT('',(0.E0,0.E0,3.81E-1));
#155=DIRECTION('',(0.E0,0.E0,1.E0));
#156=DIRECTION('',(1.E0,0.E0,0.E0));
#157=AXIS2_PLACEMENT_3D('',#154,#155,#156);
#158=PLANE('',#157);
#159=ORIENTED_EDGE('',*,*,#134,.F.);
#160=ORIENTED_EDGE('',*,*,#148,.F.);
#161=EDGE_LOOP('',(#159,#160));
#162=FACE_OUTER_BOUND('',#161,.F.);
#164=ORIENTED_EDGE('',*,*,#163,.F.);
#166=ORIENTED_EDGE('',*,*,#165,.F.);
#168=ORIENTED_EDGE('',*,*,#167,.F.);
#170=ORIENTED_EDGE('',*,*,#169,.F.);
#171=EDGE_LOOP('',(#164,#166,#168,#170));
#172=FACE_BOUND('',#171,.F.);
#173=ADVANCED_FACE('',(#162,#172),#158,.T.);
#174=CARTESIAN_POINT('',(-1.64E0,1.219E1,0.E0));
#175=DIRECTION('',(0.E0,-1.E0,0.E0));
#176=DIRECTION('',(1.E0,0.E0,0.E0));
#177=AXIS2_PLACEMENT_3D('',#174,#175,#176);
#178=PLANE('',#177);
#179=ORIENTED_EDGE('',*,*,#115,.F.);
#181=ORIENTED_EDGE('',*,*,#180,.T.);
#182=ORIENTED_EDGE('',*,*,#163,.T.);
#184=ORIENTED_EDGE('',*,*,#183,.F.);
#185=EDGE_LOOP('',(#179,#181,#182,#184));
#186=FACE_OUTER_BOUND('',#185,.F.);
#187=ADVANCED_FACE('',(#186),#178,.T.);
#188=CARTESIAN_POINT('',(-1.64E0,1.135214957618E1,0.E0));
#189=DIRECTION('',(1.E0,0.E0,0.E0));
#190=DIRECTION('',(0.E0,1.E0,0.E0));
#191=AXIS2_PLACEMENT_3D('',#188,#189,#190);
#192=PLANE('',#191);
#193=ORIENTED_EDGE('',*,*,#121,.F.);
#195=ORIENTED_EDGE('',*,*,#194,.T.);
#196=ORIENTED_EDGE('',*,*,#165,.T.);
#197=ORIENTED_EDGE('',*,*,#180,.F.);
#198=EDGE_LOOP('',(#193,#195,#196,#197));
#199=FACE_OUTER_BOUND('',#198,.F.);
#200=ADVANCED_FACE('',(#199),#192,.T.);
#201=CARTESIAN_POINT('',(0.E0,0.E0,0.E0));
#202=DIRECTION('',(0.E0,0.E0,1.E0));
#203=DIRECTION('',(1.E0,0.E0,0.E0));
#204=AXIS2_PLACEMENT_3D('',#201,#202,#203);
#205=CYLINDRICAL_SURFACE('',#204,1.147E1);
#206=ORIENTED_EDGE('',*,*,#119,.F.);
#208=ORIENTED_EDGE('',*,*,#207,.T.);
#209=ORIENTED_EDGE('',*,*,#167,.T.);
#210=ORIENTED_EDGE('',*,*,#194,.F.);
#211=EDGE_LOOP('',(#206,#208,#209,#210));
#212=FACE_OUTER_BOUND('',#211,.F.);
#213=ADVANCED_FACE('',(#212),#205,.F.);
#214=CARTESIAN_POINT('',(1.64E0,1.219E1,0.E0));
#215=DIRECTION('',(-1.E0,0.E0,0.E0));
#216=DIRECTION('',(0.E0,-1.E0,0.E0));
#217=AXIS2_PLACEMENT_3D('',#214,#215,#216);
#218=PLANE('',#217);
#219=ORIENTED_EDGE('',*,*,#117,.F.);
#220=ORIENTED_EDGE('',*,*,#183,.T.);
#221=ORIENTED_EDGE('',*,*,#169,.T.);
#222=ORIENTED_EDGE('',*,*,#207,.F.);
#223=EDGE_LOOP('',(#219,#220,#221,#222));
#224=FACE_OUTER_BOUND('',#223,.F.);
#225=ADVANCED_FACE('',(#224),#218,.T.);
#226=CLOSED_SHELL('',(#125,#140,#153,#173,#187,#200,#213,#225));
#227=MANIFOLD_SOLID_BREP('',#226);
#229=DIMENSIONAL_EXPONENTS(0.E0,0.E0,0.E0,0.E0,0.E0,0.E0,0.E0);
#231=PLANE_ANGLE_MEASURE_WITH_UNIT(PLANE_ANGLE_MEASURE(1.745329251994E-2),#230);
#232=(CONVERSION_BASED_UNIT('DEGREE',#231)NAMED_UNIT(#229)PLANE_ANGLE_UNIT());
#234=UNCERTAINTY_MEASURE_WITH_UNIT(LENGTH_MEASURE(1.337892669411E-2),#228,
'closure',
'Maximum model space distance between geometric entities at asserted connectivities');
#235=(GEOMETRIC_REPRESENTATION_CONTEXT(3)GLOBAL_UNCERTAINTY_ASSIGNED_CONTEXT((
#234))GLOBAL_UNIT_ASSIGNED_CONTEXT((#228,#232,#233))REPRESENTATION_CONTEXT
('ID1','3'));
#237=APPLICATION_CONTEXT(
'CONFIGURATION CONTROLLED 3D DESIGNS OF MECHANICAL PARTS AND ASSEMBLIES');
#238=APPLICATION_PROTOCOL_DEFINITION('international standard',
'config_control_design',1994,#237);
#239=DESIGN_CONTEXT('',#237,'design');
#240=MECHANICAL_CONTEXT('',#237,'mechanical');
#241=PRODUCT('40011-255-01','40011-255-01','NOT SPECIFIED',(#240));
#242=PRODUCT_DEFINITION_FORMATION_WITH_SPECIFIED_SOURCE('2','LAST_VERSION',#241,
.MADE.);
#246=PRODUCT_CATEGORY('part','');
#247=PRODUCT_RELATED_PRODUCT_CATEGORY('detail','',(#241));
#248=PRODUCT_CATEGORY_RELATIONSHIP('','',#246,#247);
#249=SECURITY_CLASSIFICATION_LEVEL('unclassified');
#250=SECURITY_CLASSIFICATION('','',#249);
#251=CC_DESIGN_SECURITY_CLASSIFICATION(#250,(#242));
#252=APPROVAL_STATUS('approved');
#253=APPROVAL(#252,'');
#254=CC_DESIGN_APPROVAL(#253,(#250,#242,#243));
#255=CALENDAR_DATE(113,2,8);
#256=COORDINATED_UNIVERSAL_TIME_OFFSET(8,0,.AHEAD.);
#257=LOCAL_TIME(14,20,5.5E1,#256);
#258=DATE_AND_TIME(#255,#257);
#259=APPROVAL_DATE_TIME(#258,#253);
#260=DATE_TIME_ROLE('creation_date');
#261=CC_DESIGN_DATE_AND_TIME_ASSIGNMENT(#258,#260,(#243));
#262=DATE_TIME_ROLE('classification_date');
#263=CC_DESIGN_DATE_AND_TIME_ASSIGNMENT(#258,#262,(#250));
#264=PERSON('UNSPECIFIED','UNSPECIFIED',$,$,$,$);
#265=ORGANIZATION('UNSPECIFIED','UNSPECIFIED','UNSPECIFIED');
#266=PERSON_AND_ORGANIZATION(#264,#265);
#267=APPROVAL_ROLE('approver');
#268=APPROVAL_PERSON_ORGANIZATION(#266,#253,#267);
#269=PERSON_AND_ORGANIZATION_ROLE('creator');
#270=CC_DESIGN_PERSON_AND_ORGANIZATION_ASSIGNMENT(#266,#269,(#242,#243));
#271=PERSON_AND_ORGANIZATION_ROLE('design_supplier');
#272=CC_DESIGN_PERSON_AND_ORGANIZATION_ASSIGNMENT(#266,#271,(#242));
#273=PERSON_AND_ORGANIZATION_ROLE('classification_officer');
#274=CC_DESIGN_PERSON_AND_ORGANIZATION_ASSIGNMENT(#266,#273,(#250));
#275=PERSON_AND_ORGANIZATION_ROLE('design_owner');
#276=CC_DESIGN_PERSON_AND_ORGANIZATION_ASSIGNMENT(#266,#275,(#241));
#6=CIRCLE('',#5,4.5E1);
#11=CIRCLE('',#10,4.5E1);
#24=CIRCLE('',#23,1.147E1);
#41=CIRCLE('',#40,4.5E1);
#46=CIRCLE('',#45,4.5E1);
#59=CIRCLE('',#58,1.147E1);
#109=EDGE_CURVE('',#82,#83,#6,.T.);
#111=EDGE_CURVE('',#83,#82,#11,.T.);
#115=EDGE_CURVE('',#90,#91,#15,.T.);
#117=EDGE_CURVE('',#91,#93,#19,.T.);
#119=EDGE_CURVE('',#93,#95,#24,.T.);
#121=EDGE_CURVE('',#95,#90,#28,.T.);
#132=EDGE_CURVE('',#82,#86,#32,.T.);
#134=EDGE_CURVE('',#86,#87,#41,.T.);
#136=EDGE_CURVE('',#83,#87,#36,.T.);
#148=EDGE_CURVE('',#87,#86,#46,.T.);
#163=EDGE_CURVE('',#98,#99,#50,.T.);
#165=EDGE_CURVE('',#103,#98,#54,.T.);
#167=EDGE_CURVE('',#101,#103,#59,.T.);
#169=EDGE_CURVE('',#99,#101,#63,.T.);
#180=EDGE_CURVE('',#90,#98,#67,.T.);
#183=EDGE_CURVE('',#91,#99,#79,.T.);
#194=EDGE_CURVE('',#95,#103,#71,.T.);
#207=EDGE_CURVE('',#93,#101,#75,.T.);
#228=(LENGTH_UNIT()NAMED_UNIT(*)SI_UNIT(.MILLI.,.METRE.));
#230=(NAMED_UNIT(*)PLANE_ANGLE_UNIT()SI_UNIT($,.RADIAN.));
#233=(NAMED_UNIT(*)SI_UNIT($,.STERADIAN.)SOLID_ANGLE_UNIT());
#236=ADVANCED_BREP_SHAPE_REPRESENTATION('',(#227),#235);
#243=PRODUCT_DEFINITION('design','',#242,#239);
#244=PRODUCT_DEFINITION_SHAPE('','SHAPE FOR 40011-255-01.',#243);
#245=SHAPE_DEFINITION_REPRESENTATION(#244,#236);
ENDSEC;
END-ISO-10303-21;
