ISO-10303-21;
HEADER;
/* Generated by software containing ST-Developer
 * from STEP Tools, Inc. (www.steptools.com) 
 */
/* OPTION: using custom schema-name function */

FILE_DESCRIPTION(
/* description */ ('Auer Signal Vienna'),
/* implementation_level */ '2;1');

FILE_NAME(
/* name */ 'WZC_AuerSignal_200550900.stp',
/* time_stamp */ '2021-08-12T14:37:02+02:00',
/* author */ ('l.ivanic'),
/* organization */ ('Auer Signal'),
/* preprocessor_version */ 'ST-DEVELOPER v16',
/* originating_system */ 'SIEMENS PLM Software NX 10.0',
/* authorisation */ '');

FILE_SCHEMA (('AUTOMOTIVE_DESIGN { 1 0 10303 214 3 1 1 1 }'));
ENDSEC;

DATA;
#10=PROPERTY_DEFINITION_REPRESENTATION(#14,#12);
#11=PROPERTY_DEFINITION_REPRESENTATION(#15,#13);
#12=REPRESENTATION('',(#16),#673);
#13=REPRESENTATION('',(#17),#673);
#14=PROPERTY_DEFINITION('pmi validation property','',#21);
#15=PROPERTY_DEFINITION('pmi validation property','',#21);
#16=VALUE_REPRESENTATION_ITEM('number of annotations',COUNT_MEASURE(0.));
#17=VALUE_REPRESENTATION_ITEM('number of views',COUNT_MEASURE(0.));
#18=SHAPE_REPRESENTATION_RELATIONSHIP('None',
'relationship between l.iv17280372q8bu-None and l.iv17280372q8bu-None',
#30,#19);
#19=ADVANCED_BREP_SHAPE_REPRESENTATION('l.iv17280372q8bu-None',(#40),#673);
#20=SHAPE_DEFINITION_REPRESENTATION(#21,#30);
#21=PRODUCT_DEFINITION_SHAPE('','',#22);
#22=PRODUCT_DEFINITION(' ','',#24,#23);
#23=PRODUCT_DEFINITION_CONTEXT('part definition',#29,'design');
#24=PRODUCT_DEFINITION_FORMATION_WITH_SPECIFIED_SOURCE(' ',' ',#26,
 .NOT_KNOWN.);
#25=PRODUCT_RELATED_PRODUCT_CATEGORY('part','',(#26));
#26=PRODUCT('AuerSignal', 'WZC_AuerSignal_200550900',' ',(#27));
#27=PRODUCT_CONTEXT(' ',#29,'mechanical');
#28=APPLICATION_PROTOCOL_DEFINITION('international standard',
'automotive_design',2010,#29);
#29=APPLICATION_CONTEXT(
'core data for automotive mechanical design processes');
#30=SHAPE_REPRESENTATION('l.iv17280372q8bu-None',(#412),#673);
#31=PRESENTATION_LAYER_ASSIGNMENT('1','Layer 1',(#40));
#32=STYLED_ITEM('',(#33),#40);
#33=PRESENTATION_STYLE_ASSIGNMENT((#34));
#34=SURFACE_STYLE_USAGE(.BOTH.,#35);
#35=SURFACE_SIDE_STYLE('',(#36));
#36=SURFACE_STYLE_FILL_AREA(#37);
#37=FILL_AREA_STYLE('',(#38));
#38=FILL_AREA_STYLE_COLOUR('',#39);
#39=COLOUR_RGB('Silver Gray',0.6,0.6,0.6);
#40=MANIFOLD_SOLID_BREP('',#41);
#41=CLOSED_SHELL('',(#61,#62,#63,#64,#65,#66,#67,#68,#69,#70,#71,#72,#73,
#74,#75,#76,#77,#78,#79,#80));
#42=CYLINDRICAL_SURFACE('',#437,35.);
#43=CYLINDRICAL_SURFACE('',#439,16.);
#44=CYLINDRICAL_SURFACE('',#447,2.5);
#45=CYLINDRICAL_SURFACE('',#448,2.5);
#46=CYLINDRICAL_SURFACE('',#449,2.75);
#47=CYLINDRICAL_SURFACE('',#450,2.75);
#48=CYLINDRICAL_SURFACE('',#451,2.75);
#49=CYLINDRICAL_SURFACE('',#452,2.75);
#50=CYLINDRICAL_SURFACE('',#454,8.);
#51=CYLINDRICAL_SURFACE('',#455,2.75);
#52=CYLINDRICAL_SURFACE('',#456,2.75);
#53=CYLINDRICAL_SURFACE('',#457,2.);
#54=CYLINDRICAL_SURFACE('',#458,4.);
#55=FACE_OUTER_BOUND('',#184,.T.);
#56=FACE_OUTER_BOUND('',#185,.T.);
#57=FACE_OUTER_BOUND('',#186,.T.);
#58=FACE_OUTER_BOUND('',#209,.T.);
#59=FACE_OUTER_BOUND('',#216,.T.);
#60=FACE_OUTER_BOUND('',#217,.T.);
#61=ADVANCED_FACE('',(#124,#125,#126,#127),#81,.F.);
#62=ADVANCED_FACE('',(#128,#129,#130,#131),#82,.F.);
#63=ADVANCED_FACE('',(#132,#133,#134,#135,#136,#137,#138,#139),#83,.T.);
#64=ADVANCED_FACE('',(#55),#84,.F.);
#65=ADVANCED_FACE('',(#56),#85,.F.);
#66=ADVANCED_FACE('',(#57),#42,.T.);
#67=ADVANCED_FACE('',(#140,#141),#43,.F.);
#68=ADVANCED_FACE('',(#142,#143,#144,#145,#146,#147,#148,#149),#86,.F.);
#69=ADVANCED_FACE('',(#150,#151),#44,.F.);
#70=ADVANCED_FACE('',(#152,#153),#45,.F.);
#71=ADVANCED_FACE('',(#154,#155),#46,.F.);
#72=ADVANCED_FACE('',(#156,#157),#47,.F.);
#73=ADVANCED_FACE('',(#158,#159),#48,.F.);
#74=ADVANCED_FACE('',(#160,#161),#49,.F.);
#75=ADVANCED_FACE('',(#58),#87,.F.);
#76=ADVANCED_FACE('',(#162,#163),#50,.F.);
#77=ADVANCED_FACE('',(#164,#165),#51,.F.);
#78=ADVANCED_FACE('',(#166,#167),#52,.F.);
#79=ADVANCED_FACE('',(#59),#53,.F.);
#80=ADVANCED_FACE('',(#60),#54,.T.);
#81=PLANE('',#416);
#82=PLANE('',#420);
#83=PLANE('',#429);
#84=PLANE('',#432);
#85=PLANE('',#435);
#86=PLANE('',#446);
#87=PLANE('',#453);
#88=LINE('',#574,#106);
#89=LINE('',#577,#107);
#90=LINE('',#579,#108);
#91=LINE('',#581,#109);
#92=LINE('',#589,#110);
#93=LINE('',#592,#111);
#94=LINE('',#594,#112);
#95=LINE('',#596,#113);
#96=LINE('',#616,#114);
#97=LINE('',#619,#115);
#98=LINE('',#621,#116);
#99=LINE('',#625,#117);
#100=LINE('',#629,#118);
#101=LINE('',#631,#119);
#102=LINE('',#635,#120);
#103=LINE('',#637,#121);
#104=LINE('',#639,#122);
#105=LINE('',#646,#123);
#106=VECTOR('',#463,1.);
#107=VECTOR('',#464,1.);
#108=VECTOR('',#465,1.);
#109=VECTOR('',#466,1.);
#110=VECTOR('',#475,1.);
#111=VECTOR('',#476,1.);
#112=VECTOR('',#477,1.);
#113=VECTOR('',#478,1.);
#114=VECTOR('',#499,1.);
#115=VECTOR('',#500,1.);
#116=VECTOR('',#501,1.);
#117=VECTOR('',#506,1.);
#118=VECTOR('',#509,1.);
#119=VECTOR('',#512,1.);
#120=VECTOR('',#517,1.);
#121=VECTOR('',#518,1.);
#122=VECTOR('',#521,1.);
#123=VECTOR('',#532,1.);
#124=FACE_BOUND('',#168,.T.);
#125=FACE_BOUND('',#169,.T.);
#126=FACE_BOUND('',#170,.T.);
#127=FACE_BOUND('',#171,.T.);
#128=FACE_BOUND('',#172,.T.);
#129=FACE_BOUND('',#173,.T.);
#130=FACE_BOUND('',#174,.T.);
#131=FACE_BOUND('',#175,.T.);
#132=FACE_BOUND('',#176,.T.);
#133=FACE_BOUND('',#177,.T.);
#134=FACE_BOUND('',#178,.T.);
#135=FACE_BOUND('',#179,.T.);
#136=FACE_BOUND('',#180,.T.);
#137=FACE_BOUND('',#181,.T.);
#138=FACE_BOUND('',#182,.T.);
#139=FACE_BOUND('',#183,.T.);
#140=FACE_BOUND('',#187,.T.);
#141=FACE_BOUND('',#188,.T.);
#142=FACE_BOUND('',#189,.T.);
#143=FACE_BOUND('',#190,.T.);
#144=FACE_BOUND('',#191,.T.);
#145=FACE_BOUND('',#192,.T.);
#146=FACE_BOUND('',#193,.T.);
#147=FACE_BOUND('',#194,.T.);
#148=FACE_BOUND('',#195,.T.);
#149=FACE_BOUND('',#196,.T.);
#150=FACE_BOUND('',#197,.T.);
#151=FACE_BOUND('',#198,.T.);
#152=FACE_BOUND('',#199,.T.);
#153=FACE_BOUND('',#200,.T.);
#154=FACE_BOUND('',#201,.T.);
#155=FACE_BOUND('',#202,.T.);
#156=FACE_BOUND('',#203,.T.);
#157=FACE_BOUND('',#204,.T.);
#158=FACE_BOUND('',#205,.T.);
#159=FACE_BOUND('',#206,.T.);
#160=FACE_BOUND('',#207,.T.);
#161=FACE_BOUND('',#208,.T.);
#162=FACE_BOUND('',#210,.T.);
#163=FACE_BOUND('',#211,.T.);
#164=FACE_BOUND('',#212,.T.);
#165=FACE_BOUND('',#213,.T.);
#166=FACE_BOUND('',#214,.T.);
#167=FACE_BOUND('',#215,.T.);
#168=EDGE_LOOP('',(#218));
#169=EDGE_LOOP('',(#219,#220,#221,#222));
#170=EDGE_LOOP('',(#223));
#171=EDGE_LOOP('',(#224));
#172=EDGE_LOOP('',(#225));
#173=EDGE_LOOP('',(#226,#227,#228,#229));
#174=EDGE_LOOP('',(#230));
#175=EDGE_LOOP('',(#231));
#176=EDGE_LOOP('',(#232));
#177=EDGE_LOOP('',(#233));
#178=EDGE_LOOP('',(#234));
#179=EDGE_LOOP('',(#235));
#180=EDGE_LOOP('',(#236));
#181=EDGE_LOOP('',(#237));
#182=EDGE_LOOP('',(#238));
#183=EDGE_LOOP('',(#239,#240,#241,#242));
#184=EDGE_LOOP('',(#243,#244,#245,#246,#247,#248,#249,#250));
#185=EDGE_LOOP('',(#251,#252,#253,#254,#255,#256,#257,#258));
#186=EDGE_LOOP('',(#259,#260,#261,#262));
#187=EDGE_LOOP('',(#263));
#188=EDGE_LOOP('',(#264));
#189=EDGE_LOOP('',(#265,#266,#267,#268));
#190=EDGE_LOOP('',(#269));
#191=EDGE_LOOP('',(#270));
#192=EDGE_LOOP('',(#271));
#193=EDGE_LOOP('',(#272));
#194=EDGE_LOOP('',(#273));
#195=EDGE_LOOP('',(#274));
#196=EDGE_LOOP('',(#275));
#197=EDGE_LOOP('',(#276));
#198=EDGE_LOOP('',(#277));
#199=EDGE_LOOP('',(#278));
#200=EDGE_LOOP('',(#279));
#201=EDGE_LOOP('',(#280));
#202=EDGE_LOOP('',(#281));
#203=EDGE_LOOP('',(#282));
#204=EDGE_LOOP('',(#283));
#205=EDGE_LOOP('',(#284));
#206=EDGE_LOOP('',(#285));
#207=EDGE_LOOP('',(#286));
#208=EDGE_LOOP('',(#287));
#209=EDGE_LOOP('',(#288,#289,#290,#291));
#210=EDGE_LOOP('',(#292));
#211=EDGE_LOOP('',(#293));
#212=EDGE_LOOP('',(#294));
#213=EDGE_LOOP('',(#295));
#214=EDGE_LOOP('',(#296));
#215=EDGE_LOOP('',(#297));
#216=EDGE_LOOP('',(#298,#299,#300,#301));
#217=EDGE_LOOP('',(#302,#303,#304,#305));
#218=ORIENTED_EDGE('',*,*,#342,.F.);
#219=ORIENTED_EDGE('',*,*,#343,.T.);
#220=ORIENTED_EDGE('',*,*,#344,.T.);
#221=ORIENTED_EDGE('',*,*,#345,.F.);
#222=ORIENTED_EDGE('',*,*,#346,.F.);
#223=ORIENTED_EDGE('',*,*,#347,.T.);
#224=ORIENTED_EDGE('',*,*,#348,.F.);
#225=ORIENTED_EDGE('',*,*,#349,.F.);
#226=ORIENTED_EDGE('',*,*,#350,.F.);
#227=ORIENTED_EDGE('',*,*,#351,.T.);
#228=ORIENTED_EDGE('',*,*,#352,.T.);
#229=ORIENTED_EDGE('',*,*,#353,.T.);
#230=ORIENTED_EDGE('',*,*,#354,.T.);
#231=ORIENTED_EDGE('',*,*,#355,.F.);
#232=ORIENTED_EDGE('',*,*,#356,.F.);
#233=ORIENTED_EDGE('',*,*,#357,.F.);
#234=ORIENTED_EDGE('',*,*,#358,.F.);
#235=ORIENTED_EDGE('',*,*,#359,.F.);
#236=ORIENTED_EDGE('',*,*,#360,.F.);
#237=ORIENTED_EDGE('',*,*,#361,.F.);
#238=ORIENTED_EDGE('',*,*,#362,.F.);
#239=ORIENTED_EDGE('',*,*,#363,.T.);
#240=ORIENTED_EDGE('',*,*,#364,.T.);
#241=ORIENTED_EDGE('',*,*,#365,.T.);
#242=ORIENTED_EDGE('',*,*,#366,.T.);
#243=ORIENTED_EDGE('',*,*,#367,.T.);
#244=ORIENTED_EDGE('',*,*,#368,.T.);
#245=ORIENTED_EDGE('',*,*,#343,.F.);
#246=ORIENTED_EDGE('',*,*,#369,.T.);
#247=ORIENTED_EDGE('',*,*,#352,.F.);
#248=ORIENTED_EDGE('',*,*,#370,.T.);
#249=ORIENTED_EDGE('',*,*,#363,.F.);
#250=ORIENTED_EDGE('',*,*,#371,.T.);
#251=ORIENTED_EDGE('',*,*,#345,.T.);
#252=ORIENTED_EDGE('',*,*,#372,.T.);
#253=ORIENTED_EDGE('',*,*,#373,.T.);
#254=ORIENTED_EDGE('',*,*,#374,.F.);
#255=ORIENTED_EDGE('',*,*,#365,.F.);
#256=ORIENTED_EDGE('',*,*,#375,.T.);
#257=ORIENTED_EDGE('',*,*,#350,.T.);
#258=ORIENTED_EDGE('',*,*,#376,.F.);
#259=ORIENTED_EDGE('',*,*,#377,.T.);
#260=ORIENTED_EDGE('',*,*,#371,.F.);
#261=ORIENTED_EDGE('',*,*,#366,.F.);
#262=ORIENTED_EDGE('',*,*,#374,.T.);
#263=ORIENTED_EDGE('',*,*,#356,.T.);
#264=ORIENTED_EDGE('',*,*,#378,.F.);
#265=ORIENTED_EDGE('',*,*,#373,.F.);
#266=ORIENTED_EDGE('',*,*,#379,.T.);
#267=ORIENTED_EDGE('',*,*,#367,.F.);
#268=ORIENTED_EDGE('',*,*,#377,.F.);
#269=ORIENTED_EDGE('',*,*,#378,.T.);
#270=ORIENTED_EDGE('',*,*,#380,.T.);
#271=ORIENTED_EDGE('',*,*,#381,.T.);
#272=ORIENTED_EDGE('',*,*,#382,.T.);
#273=ORIENTED_EDGE('',*,*,#383,.T.);
#274=ORIENTED_EDGE('',*,*,#384,.T.);
#275=ORIENTED_EDGE('',*,*,#385,.T.);
#276=ORIENTED_EDGE('',*,*,#357,.T.);
#277=ORIENTED_EDGE('',*,*,#380,.F.);
#278=ORIENTED_EDGE('',*,*,#358,.T.);
#279=ORIENTED_EDGE('',*,*,#381,.F.);
#280=ORIENTED_EDGE('',*,*,#359,.T.);
#281=ORIENTED_EDGE('',*,*,#382,.F.);
#282=ORIENTED_EDGE('',*,*,#360,.T.);
#283=ORIENTED_EDGE('',*,*,#383,.F.);
#284=ORIENTED_EDGE('',*,*,#361,.T.);
#285=ORIENTED_EDGE('',*,*,#384,.F.);
#286=ORIENTED_EDGE('',*,*,#362,.T.);
#287=ORIENTED_EDGE('',*,*,#385,.F.);
#288=ORIENTED_EDGE('',*,*,#376,.T.);
#289=ORIENTED_EDGE('',*,*,#353,.F.);
#290=ORIENTED_EDGE('',*,*,#369,.F.);
#291=ORIENTED_EDGE('',*,*,#346,.T.);
#292=ORIENTED_EDGE('',*,*,#349,.T.);
#293=ORIENTED_EDGE('',*,*,#342,.T.);
#294=ORIENTED_EDGE('',*,*,#354,.F.);
#295=ORIENTED_EDGE('',*,*,#347,.F.);
#296=ORIENTED_EDGE('',*,*,#355,.T.);
#297=ORIENTED_EDGE('',*,*,#348,.T.);
#298=ORIENTED_EDGE('',*,*,#370,.F.);
#299=ORIENTED_EDGE('',*,*,#351,.F.);
#300=ORIENTED_EDGE('',*,*,#375,.F.);
#301=ORIENTED_EDGE('',*,*,#364,.F.);
#302=ORIENTED_EDGE('',*,*,#368,.F.);
#303=ORIENTED_EDGE('',*,*,#379,.F.);
#304=ORIENTED_EDGE('',*,*,#372,.F.);
#305=ORIENTED_EDGE('',*,*,#344,.F.);
#306=VERTEX_POINT('',#573);
#307=VERTEX_POINT('',#575);
#308=VERTEX_POINT('',#576);
#309=VERTEX_POINT('',#578);
#310=VERTEX_POINT('',#580);
#311=VERTEX_POINT('',#583);
#312=VERTEX_POINT('',#585);
#313=VERTEX_POINT('',#588);
#314=VERTEX_POINT('',#590);
#315=VERTEX_POINT('',#591);
#316=VERTEX_POINT('',#593);
#317=VERTEX_POINT('',#595);
#318=VERTEX_POINT('',#598);
#319=VERTEX_POINT('',#600);
#320=VERTEX_POINT('',#603);
#321=VERTEX_POINT('',#605);
#322=VERTEX_POINT('',#607);
#323=VERTEX_POINT('',#609);
#324=VERTEX_POINT('',#611);
#325=VERTEX_POINT('',#613);
#326=VERTEX_POINT('',#615);
#327=VERTEX_POINT('',#617);
#328=VERTEX_POINT('',#618);
#329=VERTEX_POINT('',#620);
#330=VERTEX_POINT('',#622);
#331=VERTEX_POINT('',#626);
#332=VERTEX_POINT('',#627);
#333=VERTEX_POINT('',#634);
#334=VERTEX_POINT('',#636);
#335=VERTEX_POINT('',#644);
#336=VERTEX_POINT('',#648);
#337=VERTEX_POINT('',#650);
#338=VERTEX_POINT('',#652);
#339=VERTEX_POINT('',#654);
#340=VERTEX_POINT('',#656);
#341=VERTEX_POINT('',#658);
#342=EDGE_CURVE('',#306,#306,#386,.T.);
#343=EDGE_CURVE('',#307,#308,#88,.T.);
#344=EDGE_CURVE('',#308,#309,#89,.T.);
#345=EDGE_CURVE('',#310,#309,#90,.T.);
#346=EDGE_CURVE('',#307,#310,#91,.T.);
#347=EDGE_CURVE('',#311,#311,#387,.T.);
#348=EDGE_CURVE('',#312,#312,#388,.T.);
#349=EDGE_CURVE('',#313,#313,#389,.T.);
#350=EDGE_CURVE('',#314,#315,#92,.T.);
#351=EDGE_CURVE('',#314,#316,#93,.T.);
#352=EDGE_CURVE('',#316,#317,#94,.T.);
#353=EDGE_CURVE('',#317,#315,#95,.T.);
#354=EDGE_CURVE('',#318,#318,#390,.T.);
#355=EDGE_CURVE('',#319,#319,#391,.T.);
#356=EDGE_CURVE('',#320,#320,#392,.T.);
#357=EDGE_CURVE('',#321,#321,#393,.T.);
#358=EDGE_CURVE('',#322,#322,#394,.T.);
#359=EDGE_CURVE('',#323,#323,#395,.T.);
#360=EDGE_CURVE('',#324,#324,#396,.T.);
#361=EDGE_CURVE('',#325,#325,#397,.T.);
#362=EDGE_CURVE('',#326,#326,#398,.T.);
#363=EDGE_CURVE('',#327,#328,#96,.T.);
#364=EDGE_CURVE('',#328,#329,#97,.T.);
#365=EDGE_CURVE('',#329,#330,#98,.T.);
#366=EDGE_CURVE('',#330,#327,#399,.T.);
#367=EDGE_CURVE('',#331,#332,#99,.T.);
#368=EDGE_CURVE('',#332,#308,#400,.T.);
#369=EDGE_CURVE('',#307,#317,#100,.T.);
#370=EDGE_CURVE('',#316,#328,#401,.T.);
#371=EDGE_CURVE('',#327,#331,#101,.T.);
#372=EDGE_CURVE('',#309,#333,#402,.T.);
#373=EDGE_CURVE('',#333,#334,#102,.T.);
#374=EDGE_CURVE('',#330,#334,#103,.T.);
#375=EDGE_CURVE('',#329,#314,#403,.T.);
#376=EDGE_CURVE('',#310,#315,#104,.T.);
#377=EDGE_CURVE('',#334,#331,#404,.T.);
#378=EDGE_CURVE('',#335,#335,#405,.T.);
#379=EDGE_CURVE('',#333,#332,#105,.T.);
#380=EDGE_CURVE('',#336,#336,#406,.T.);
#381=EDGE_CURVE('',#337,#337,#407,.T.);
#382=EDGE_CURVE('',#338,#338,#408,.T.);
#383=EDGE_CURVE('',#339,#339,#409,.T.);
#384=EDGE_CURVE('',#340,#340,#410,.T.);
#385=EDGE_CURVE('',#341,#341,#411,.T.);
#386=CIRCLE('',#413,8.);
#387=CIRCLE('',#414,2.75);
#388=CIRCLE('',#415,2.75);
#389=CIRCLE('',#417,8.);
#390=CIRCLE('',#418,2.75);
#391=CIRCLE('',#419,2.75);
#392=CIRCLE('',#421,16.);
#393=CIRCLE('',#422,2.5);
#394=CIRCLE('',#423,2.5);
#395=CIRCLE('',#424,2.75);
#396=CIRCLE('',#425,2.75);
#397=CIRCLE('',#426,2.75);
#398=CIRCLE('',#427,2.75);
#399=CIRCLE('',#428,35.);
#400=CIRCLE('',#430,4.);
#401=CIRCLE('',#431,2.);
#402=CIRCLE('',#433,4.);
#403=CIRCLE('',#434,2.);
#404=CIRCLE('',#436,35.);
#405=CIRCLE('',#438,16.);
#406=CIRCLE('',#440,2.5);
#407=CIRCLE('',#441,2.5);
#408=CIRCLE('',#442,2.75);
#409=CIRCLE('',#443,2.75);
#410=CIRCLE('',#444,2.75);
#411=CIRCLE('',#445,2.75);
#412=AXIS2_PLACEMENT_3D('',#571,#459,#460);
#413=AXIS2_PLACEMENT_3D('',#572,#461,#462);
#414=AXIS2_PLACEMENT_3D('',#582,#467,#468);
#415=AXIS2_PLACEMENT_3D('',#584,#469,#470);
#416=AXIS2_PLACEMENT_3D('',#586,#471,#472);
#417=AXIS2_PLACEMENT_3D('',#587,#473,#474);
#418=AXIS2_PLACEMENT_3D('',#597,#479,#480);
#419=AXIS2_PLACEMENT_3D('',#599,#481,#482);
#420=AXIS2_PLACEMENT_3D('',#601,#483,#484);
#421=AXIS2_PLACEMENT_3D('',#602,#485,#486);
#422=AXIS2_PLACEMENT_3D('',#604,#487,#488);
#423=AXIS2_PLACEMENT_3D('',#606,#489,#490);
#424=AXIS2_PLACEMENT_3D('',#608,#491,#492);
#425=AXIS2_PLACEMENT_3D('',#610,#493,#494);
#426=AXIS2_PLACEMENT_3D('',#612,#495,#496);
#427=AXIS2_PLACEMENT_3D('',#614,#497,#498);
#428=AXIS2_PLACEMENT_3D('',#623,#502,#503);
#429=AXIS2_PLACEMENT_3D('',#624,#504,#505);
#430=AXIS2_PLACEMENT_3D('',#628,#507,#508);
#431=AXIS2_PLACEMENT_3D('',#630,#510,#511);
#432=AXIS2_PLACEMENT_3D('',#632,#513,#514);
#433=AXIS2_PLACEMENT_3D('',#633,#515,#516);
#434=AXIS2_PLACEMENT_3D('',#638,#519,#520);
#435=AXIS2_PLACEMENT_3D('',#640,#522,#523);
#436=AXIS2_PLACEMENT_3D('',#641,#524,#525);
#437=AXIS2_PLACEMENT_3D('',#642,#526,#527);
#438=AXIS2_PLACEMENT_3D('',#643,#528,#529);
#439=AXIS2_PLACEMENT_3D('',#645,#530,#531);
#440=AXIS2_PLACEMENT_3D('',#647,#533,#534);
#441=AXIS2_PLACEMENT_3D('',#649,#535,#536);
#442=AXIS2_PLACEMENT_3D('',#651,#537,#538);
#443=AXIS2_PLACEMENT_3D('',#653,#539,#540);
#444=AXIS2_PLACEMENT_3D('',#655,#541,#542);
#445=AXIS2_PLACEMENT_3D('',#657,#543,#544);
#446=AXIS2_PLACEMENT_3D('',#659,#545,#546);
#447=AXIS2_PLACEMENT_3D('',#660,#547,#548);
#448=AXIS2_PLACEMENT_3D('',#661,#549,#550);
#449=AXIS2_PLACEMENT_3D('',#662,#551,#552);
#450=AXIS2_PLACEMENT_3D('',#663,#553,#554);
#451=AXIS2_PLACEMENT_3D('',#664,#555,#556);
#452=AXIS2_PLACEMENT_3D('',#665,#557,#558);
#453=AXIS2_PLACEMENT_3D('',#666,#559,#560);
#454=AXIS2_PLACEMENT_3D('',#667,#561,#562);
#455=AXIS2_PLACEMENT_3D('',#668,#563,#564);
#456=AXIS2_PLACEMENT_3D('',#669,#565,#566);
#457=AXIS2_PLACEMENT_3D('',#670,#567,#568);
#458=AXIS2_PLACEMENT_3D('',#671,#569,#570);
#459=DIRECTION('',(0.,0.,1.));
#460=DIRECTION('',(1.,0.,0.));
#461=DIRECTION('',(0.,-1.,0.));
#462=DIRECTION('',(0.,0.,1.));
#463=DIRECTION('',(0.,0.,-1.));
#464=DIRECTION('',(1.,0.,0.));
#465=DIRECTION('',(0.,0.,-1.));
#466=DIRECTION('',(1.,0.,0.));
#467=DIRECTION('',(0.,1.,0.));
#468=DIRECTION('',(0.,0.,1.));
#469=DIRECTION('',(0.,-1.,0.));
#470=DIRECTION('',(0.,0.,1.));
#471=DIRECTION('',(0.,1.,0.));
#472=DIRECTION('',(0.,0.,1.));
#473=DIRECTION('',(0.,1.,0.));
#474=DIRECTION('',(0.,0.,-1.));
#475=DIRECTION('',(0.,0.,1.));
#476=DIRECTION('',(-1.,0.,0.));
#477=DIRECTION('',(0.,0.,1.));
#478=DIRECTION('',(1.,0.,0.));
#479=DIRECTION('',(0.,-1.,0.));
#480=DIRECTION('',(0.,0.,-1.));
#481=DIRECTION('',(0.,1.,0.));
#482=DIRECTION('',(0.,0.,-1.));
#483=DIRECTION('',(0.,-1.,0.));
#484=DIRECTION('',(0.,0.,-1.));
#485=DIRECTION('',(0.,0.,1.));
#486=DIRECTION('',(1.,0.,0.));
#487=DIRECTION('',(0.,0.,1.));
#488=DIRECTION('',(0.999999999999999,0.,0.));
#489=DIRECTION('',(0.,0.,1.));
#490=DIRECTION('',(0.999999999999999,0.,0.));
#491=DIRECTION('',(0.,0.,1.));
#492=DIRECTION('',(1.,0.,0.));
#493=DIRECTION('',(0.,0.,1.));
#494=DIRECTION('',(1.,0.,0.));
#495=DIRECTION('',(0.,0.,1.));
#496=DIRECTION('',(1.,0.,0.));
#497=DIRECTION('',(0.,0.,1.));
#498=DIRECTION('',(1.,0.,0.));
#499=DIRECTION('',(4.62592926927149E-16,-1.,0.));
#500=DIRECTION('',(1.,0.,0.));
#501=DIRECTION('',(-3.08395284618099E-16,1.,0.));
#502=DIRECTION('',(0.,0.,1.));
#503=DIRECTION('',(1.,0.,0.));
#504=DIRECTION('',(0.,0.,1.));
#505=DIRECTION('',(1.,0.,0.));
#506=DIRECTION('',(4.62592926927149E-16,-1.,0.));
#507=DIRECTION('',(-1.,-4.62592926927149E-16,0.));
#508=DIRECTION('',(0.,1.,0.));
#509=DIRECTION('',(0.,1.,0.));
#510=DIRECTION('',(1.,4.62592926927149E-16,0.));
#511=DIRECTION('',(0.,1.,0.));
#512=DIRECTION('',(0.,0.,-1.));
#513=DIRECTION('',(1.,4.62592926927149E-16,0.));
#514=DIRECTION('',(-4.64905891561784E-16,1.,0.));
#515=DIRECTION('',(1.,3.08395284618099E-16,0.));
#516=DIRECTION('',(0.,-1.,0.));
#517=DIRECTION('',(-3.08395284618099E-16,1.,0.));
#518=DIRECTION('',(0.,0.,-1.));
#519=DIRECTION('',(-1.,-3.08395284618099E-16,0.));
#520=DIRECTION('',(0.,-1.,0.));
#521=DIRECTION('',(0.,1.,0.));
#522=DIRECTION('',(-1.,-3.08395284618099E-16,0.));
#523=DIRECTION('',(3.05311331771918E-16,-1.,0.));
#524=DIRECTION('',(0.,0.,1.));
#525=DIRECTION('',(1.,0.,0.));
#526=DIRECTION('',(0.,0.,-1.));
#527=DIRECTION('',(-1.,0.,0.));
#528=DIRECTION('',(0.,0.,1.));
#529=DIRECTION('',(1.,0.,0.));
#530=DIRECTION('',(0.,0.,-1.));
#531=DIRECTION('',(-1.,0.,0.));
#532=DIRECTION('',(-1.,0.,0.));
#533=DIRECTION('',(0.,0.,1.));
#534=DIRECTION('',(0.999999999999999,0.,0.));
#535=DIRECTION('',(0.,0.,1.));
#536=DIRECTION('',(0.999999999999999,0.,0.));
#537=DIRECTION('',(0.,0.,1.));
#538=DIRECTION('',(1.,0.,0.));
#539=DIRECTION('',(0.,0.,1.));
#540=DIRECTION('',(1.,0.,0.));
#541=DIRECTION('',(0.,0.,1.));
#542=DIRECTION('',(1.,0.,0.));
#543=DIRECTION('',(0.,0.,1.));
#544=DIRECTION('',(1.,0.,0.));
#545=DIRECTION('',(0.,0.,1.));
#546=DIRECTION('',(1.,0.,0.));
#547=DIRECTION('',(0.,0.,1.));
#548=DIRECTION('',(0.999999999999999,0.,0.));
#549=DIRECTION('',(0.,0.,1.));
#550=DIRECTION('',(0.999999999999999,0.,0.));
#551=DIRECTION('',(0.,0.,1.));
#552=DIRECTION('',(1.,0.,0.));
#553=DIRECTION('',(0.,0.,1.));
#554=DIRECTION('',(1.,0.,0.));
#555=DIRECTION('',(0.,0.,1.));
#556=DIRECTION('',(1.,0.,0.));
#557=DIRECTION('',(0.,0.,1.));
#558=DIRECTION('',(1.,0.,0.));
#559=DIRECTION('',(0.,0.,-1.));
#560=DIRECTION('',(1.,0.,0.));
#561=DIRECTION('',(0.,1.,0.));
#562=DIRECTION('',(0.,0.,1.));
#563=DIRECTION('',(0.,1.,0.));
#564=DIRECTION('',(0.,0.,1.));
#565=DIRECTION('',(0.,1.,0.));
#566=DIRECTION('',(0.,0.,1.));
#567=DIRECTION('',(1.,0.,0.));
#568=DIRECTION('',(0.,0.,-1.));
#569=DIRECTION('',(1.,0.,0.));
#570=DIRECTION('',(0.,0.,-1.));
#571=CARTESIAN_POINT('',(0.,0.,0.));
#572=CARTESIAN_POINT('',(0.,0.,22.));
#573=CARTESIAN_POINT('',(0.,0.,30.));
#574=CARTESIAN_POINT('',(-35.,0.,2.));
#575=CARTESIAN_POINT('',(-35.,0.,40.));
#576=CARTESIAN_POINT('',(-35.,0.,4.));
#577=CARTESIAN_POINT('',(-35.,0.,4.));
#578=CARTESIAN_POINT('',(35.,0.,4.));
#579=CARTESIAN_POINT('',(35.,0.,2.));
#580=CARTESIAN_POINT('',(35.,0.,40.));
#581=CARTESIAN_POINT('',(-35.,0.,40.));
#582=CARTESIAN_POINT('',(-24.,0.,12.));
#583=CARTESIAN_POINT('',(-24.,0.,14.75));
#584=CARTESIAN_POINT('',(24.,0.,12.));
#585=CARTESIAN_POINT('',(24.,0.,14.75));
#586=CARTESIAN_POINT('',(-35.,0.,2.));
#587=CARTESIAN_POINT('',(0.,2.,22.));
#588=CARTESIAN_POINT('',(0.,2.,14.));
#589=CARTESIAN_POINT('',(35.,2.,0.));
#590=CARTESIAN_POINT('',(35.,2.,4.));
#591=CARTESIAN_POINT('',(35.,2.,40.));
#592=CARTESIAN_POINT('',(-35.,2.,4.));
#593=CARTESIAN_POINT('',(-35.,2.,4.));
#594=CARTESIAN_POINT('',(-35.,2.,0.));
#595=CARTESIAN_POINT('',(-35.,2.,40.));
#596=CARTESIAN_POINT('',(-35.,2.,40.));
#597=CARTESIAN_POINT('',(-24.,2.,12.));
#598=CARTESIAN_POINT('',(-24.,2.,9.25));
#599=CARTESIAN_POINT('',(24.,2.,12.));
#600=CARTESIAN_POINT('',(24.,2.,9.25));
#601=CARTESIAN_POINT('',(-35.,2.,0.));
#602=CARTESIAN_POINT('',(-7.105427357601E-15,45.,2.));
#603=CARTESIAN_POINT('',(16.,45.,2.));
#604=CARTESIAN_POINT('',(-22.5,45.,2.));
#605=CARTESIAN_POINT('',(-20.,45.,2.));
#606=CARTESIAN_POINT('',(22.5,45.,2.));
#607=CARTESIAN_POINT('',(25.,45.,2.));
#608=CARTESIAN_POINT('',(-19.0918830920368,25.9081169079632,2.));
#609=CARTESIAN_POINT('',(-16.3418830920368,25.9081169079632,2.));
#610=CARTESIAN_POINT('',(19.0918830920368,25.9081169079632,2.));
#611=CARTESIAN_POINT('',(21.8418830920368,25.9081169079632,2.));
#612=CARTESIAN_POINT('',(-19.0918830920368,64.0918830920368,2.));
#613=CARTESIAN_POINT('',(-16.3418830920368,64.0918830920368,2.));
#614=CARTESIAN_POINT('',(19.0918830920368,64.0918830920368,2.));
#615=CARTESIAN_POINT('',(21.8418830920368,64.0918830920368,2.));
#616=CARTESIAN_POINT('',(-35.,45.,2.));
#617=CARTESIAN_POINT('',(-35.,45.,2.));
#618=CARTESIAN_POINT('',(-35.,4.,2.));
#619=CARTESIAN_POINT('',(-7.105427357601E-15,4.,2.));
#620=CARTESIAN_POINT('',(35.,4.,2.));
#621=CARTESIAN_POINT('',(35.,0.,2.));
#622=CARTESIAN_POINT('',(35.,45.,2.));
#623=CARTESIAN_POINT('',(-7.105427357601E-15,45.,2.));
#624=CARTESIAN_POINT('',(-7.105427357601E-15,45.,2.));
#625=CARTESIAN_POINT('',(-35.,45.,0.));
#626=CARTESIAN_POINT('',(-35.,45.,0.));
#627=CARTESIAN_POINT('',(-35.,4.,0.));
#628=CARTESIAN_POINT('',(-35.,4.,4.));
#629=CARTESIAN_POINT('',(-35.,0.,40.));
#630=CARTESIAN_POINT('',(-35.,4.,4.));
#631=CARTESIAN_POINT('',(-35.,45.,2.));
#632=CARTESIAN_POINT('',(-35.,45.,2.));
#633=CARTESIAN_POINT('',(35.,4.,4.));
#634=CARTESIAN_POINT('',(35.,4.,0.));
#635=CARTESIAN_POINT('',(35.,0.,0.));
#636=CARTESIAN_POINT('',(35.,45.,0.));
#637=CARTESIAN_POINT('',(35.,45.,2.));
#638=CARTESIAN_POINT('',(35.,4.,4.));
#639=CARTESIAN_POINT('',(35.,0.,40.));
#640=CARTESIAN_POINT('',(35.,0.,2.));
#641=CARTESIAN_POINT('',(-7.105427357601E-15,45.,0.));
#642=CARTESIAN_POINT('',(-7.105427357601E-15,45.,2.));
#643=CARTESIAN_POINT('',(-7.105427357601E-15,45.,0.));
#644=CARTESIAN_POINT('',(16.,45.,0.));
#645=CARTESIAN_POINT('',(-7.105427357601E-15,45.,2.));
#646=CARTESIAN_POINT('',(-7.105427357601E-15,4.,0.));
#647=CARTESIAN_POINT('',(-22.5,45.,0.));
#648=CARTESIAN_POINT('',(-20.,45.,0.));
#649=CARTESIAN_POINT('',(22.5,45.,0.));
#650=CARTESIAN_POINT('',(25.,45.,0.));
#651=CARTESIAN_POINT('',(-19.0918830920368,25.9081169079632,0.));
#652=CARTESIAN_POINT('',(-16.3418830920368,25.9081169079632,0.));
#653=CARTESIAN_POINT('',(19.0918830920368,25.9081169079632,0.));
#654=CARTESIAN_POINT('',(21.8418830920368,25.9081169079632,0.));
#655=CARTESIAN_POINT('',(-19.0918830920368,64.0918830920368,0.));
#656=CARTESIAN_POINT('',(-16.3418830920368,64.0918830920368,0.));
#657=CARTESIAN_POINT('',(19.0918830920368,64.0918830920368,0.));
#658=CARTESIAN_POINT('',(21.8418830920368,64.0918830920368,0.));
#659=CARTESIAN_POINT('',(-7.105427357601E-15,45.,0.));
#660=CARTESIAN_POINT('',(-22.5,45.,0.));
#661=CARTESIAN_POINT('',(22.5,45.,0.));
#662=CARTESIAN_POINT('',(-19.0918830920368,25.9081169079632,0.));
#663=CARTESIAN_POINT('',(19.0918830920368,25.9081169079632,0.));
#664=CARTESIAN_POINT('',(-19.0918830920368,64.0918830920368,0.));
#665=CARTESIAN_POINT('',(19.0918830920368,64.0918830920368,0.));
#666=CARTESIAN_POINT('',(-35.,0.,40.));
#667=CARTESIAN_POINT('',(0.,-40.,22.));
#668=CARTESIAN_POINT('',(-24.,-40.,12.));
#669=CARTESIAN_POINT('',(24.,-40.,12.));
#670=CARTESIAN_POINT('',(-7.105427357601E-15,4.,4.));
#671=CARTESIAN_POINT('',(-35.,4.,4.));
#672=MECHANICAL_DESIGN_GEOMETRIC_PRESENTATION_REPRESENTATION('',(#32),#673);
#673=(
GEOMETRIC_REPRESENTATION_CONTEXT(3)
GLOBAL_UNCERTAINTY_ASSIGNED_CONTEXT((#674))
GLOBAL_UNIT_ASSIGNED_CONTEXT((#680,#676,#675))
REPRESENTATION_CONTEXT('WZC_AuerSignal_200550900',
'TOP_LEVEL_ASSEMBLY_PART')
);
#674=UNCERTAINTY_MEASURE_WITH_UNIT(LENGTH_MEASURE(2.E-5),#680,
'DISTANCE_ACCURACY_VALUE','Maximum Tolerance applied to model');
#675=(
NAMED_UNIT(*)
SI_UNIT($,.STERADIAN.)
SOLID_ANGLE_UNIT()
);
#676=(
CONVERSION_BASED_UNIT('DEGREE',#678)
NAMED_UNIT(#677)
PLANE_ANGLE_UNIT()
);
#677=DIMENSIONAL_EXPONENTS(0.,0.,0.,0.,0.,0.,0.);
#678=PLANE_ANGLE_MEASURE_WITH_UNIT(PLANE_ANGLE_MEASURE(0.0174532925),#679);
#679=(
NAMED_UNIT(*)
PLANE_ANGLE_UNIT()
SI_UNIT($,.RADIAN.)
);
#680=(
LENGTH_UNIT()
NAMED_UNIT(*)
SI_UNIT(.MILLI.,.METRE.)
);
ENDSEC;
END-ISO-10303-21;
