ISO-10303-21;
HEADER;
/* Generated by software containing ST-Developer
 * from STEP Tools, Inc. (www.steptools.com) 
 */
/* OPTION: using custom schema-name function */

FILE_DESCRIPTION(
/* description */ (''),
/* implementation_level */ '2;1');

FILE_NAME(
/* name */ 'Cap_AuerSignal.stp',
/* time_stamp */ '2021-05-19T18:40:09+02:00',
/* author */ (''),
/* organization */ (''),
/* preprocessor_version */ 'ST-DEVELOPER v16',
/* originating_system */ 'SIEMENS PLM Software NX 10.0',
/* authorisation */ '');

FILE_SCHEMA (('AUTOMOTIVE_DESIGN { 1 0 10303 214 3 1 1 1 }'));
ENDSEC;

DATA;
#10=SHAPE_REPRESENTATION_RELATIONSHIP('None',
'relationship between Cap_AuerSignal_stp-None and Cap_AuerSignal_stp-N
one',#22,#11);
#11=ADVANCED_BREP_SHAPE_REPRESENTATION('Cap_AuerSignal_stp-None',(#32),
#441);
#12=SHAPE_DEFINITION_REPRESENTATION(#13,#22);
#13=PRODUCT_DEFINITION_SHAPE('','',#14);
#14=PRODUCT_DEFINITION(' ','',#16,#15);
#15=PRODUCT_DEFINITION_CONTEXT('part definition',#21,'design');
#16=PRODUCT_DEFINITION_FORMATION_WITH_SPECIFIED_SOURCE(' ',' ',#18,
 .NOT_KNOWN.);
#17=PRODUCT_RELATED_PRODUCT_CATEGORY('part','',(#18));
#18=PRODUCT('Cap_AuerSignal_stp','Cap_AuerSignal_stp',' ',(#19));
#19=PRODUCT_CONTEXT(' ',#21,'mechanical');
#20=APPLICATION_PROTOCOL_DEFINITION('international standard',
'automotive_design',2010,#21);
#21=APPLICATION_CONTEXT(
'core data for automotive mechanical design processes');
#22=SHAPE_REPRESENTATION('Cap_AuerSignal_stp-None',(#236),#441);
#23=PRESENTATION_LAYER_ASSIGNMENT('1','Layer 1',(#32));
#24=STYLED_ITEM('',(#25),#32);
#25=PRESENTATION_STYLE_ASSIGNMENT((#26));
#26=SURFACE_STYLE_USAGE(.BOTH.,#27);
#27=SURFACE_SIDE_STYLE('',(#28));
#28=SURFACE_STYLE_FILL_AREA(#29);
#29=FILL_AREA_STYLE('',(#30));
#30=FILL_AREA_STYLE_COLOUR('',#31);
#31=COLOUR_RGB('Dark Gray',0.2,0.2,0.2);
#32=MANIFOLD_SOLID_BREP('',#33);
#33=CLOSED_SHELL('',(#68,#69,#70,#71,#72,#73,#74,#75,#76,#77,#78,#79,#80,
#81));
#34=TOROIDAL_SURFACE('',#263,32.,3.);
#35=B_SPLINE_SURFACE_WITH_KNOTS('',1,3,((#391,#392,#393,#394,#395,#396,
#397,#398,#399,#400),(#401,#402,#403,#404,#405,#406,#407,#408,#409,#410)),
 .UNSPECIFIED.,.F.,.F.,.F.,(2,2),(4,2,2,2,4),(0.,1.),(0.,0.00974319211596502,
0.496902797914272,0.984062403712579,1.),.UNSPECIFIED.);
#36=PLANE('',#250);
#37=PLANE('',#251);
#38=PLANE('',#252);
#39=PLANE('',#255);
#40=PLANE('',#256);
#41=PLANE('',#257);
#42=PLANE('',#259);
#43=PLANE('',#261);
#44=LINE('',#373,#50);
#45=LINE('',#374,#51);
#46=LINE('',#375,#52);
#47=LINE('',#379,#53);
#48=LINE('',#427,#54);
#49=LINE('',#428,#55);
#50=VECTOR('',#290,1.);
#51=VECTOR('',#291,1.);
#52=VECTOR('',#292,1.);
#53=VECTOR('',#295,1.);
#54=VECTOR('',#306,1.);
#55=VECTOR('',#307,1.);
#56=CONICAL_SURFACE('',#247,35.8,2.);
#57=CONICAL_SURFACE('',#254,35.8,2.);
#58=FACE_OUTER_BOUND('',#108,.T.);
#59=FACE_OUTER_BOUND('',#111,.T.);
#60=FACE_OUTER_BOUND('',#112,.T.);
#61=FACE_OUTER_BOUND('',#113,.T.);
#62=FACE_OUTER_BOUND('',#114,.T.);
#63=FACE_OUTER_BOUND('',#115,.T.);
#64=FACE_OUTER_BOUND('',#116,.T.);
#65=FACE_OUTER_BOUND('',#117,.T.);
#66=FACE_OUTER_BOUND('',#118,.T.);
#67=FACE_OUTER_BOUND('',#119,.T.);
#68=ADVANCED_FACE('',(#98,#99),#82,.T.);
#69=ADVANCED_FACE('',(#58),#56,.T.);
#70=ADVANCED_FACE('',(#100,#101),#36,.F.);
#71=ADVANCED_FACE('',(#59),#37,.T.);
#72=ADVANCED_FACE('',(#60),#38,.T.);
#73=ADVANCED_FACE('',(#61),#35,.T.);
#74=ADVANCED_FACE('',(#62),#57,.T.);
#75=ADVANCED_FACE('',(#63),#39,.T.);
#76=ADVANCED_FACE('',(#64),#40,.T.);
#77=ADVANCED_FACE('',(#65),#41,.T.);
#78=ADVANCED_FACE('',(#66),#42,.F.);
#79=ADVANCED_FACE('',(#67),#43,.F.);
#80=ADVANCED_FACE('',(#102,#103),#83,.F.);
#81=ADVANCED_FACE('',(#104,#105),#34,.T.);
#82=CYLINDRICAL_SURFACE('',#245,35.);
#83=CYLINDRICAL_SURFACE('',#262,31.4);
#84=B_SPLINE_CURVE_WITH_KNOTS('',3,(#338,#339,#340,#341),.UNSPECIFIED.,
 .F.,.F.,(4,4),(0.,1.),.UNSPECIFIED.);
#85=B_SPLINE_CURVE_WITH_KNOTS('',3,(#349,#350,#351,#352),.UNSPECIFIED.,
 .F.,.F.,(4,4),(0.,1.),.UNSPECIFIED.);
#86=B_SPLINE_CURVE_WITH_KNOTS('',3,(#355,#356,#357,#358,#359,#360),
 .UNSPECIFIED.,.F.,.F.,(4,2,4),(0.,0.504656762622674,1.),.UNSPECIFIED.);
#87=B_SPLINE_CURVE_WITH_KNOTS('',3,(#364,#365,#366,#367,#368,#369),
 .UNSPECIFIED.,.F.,.F.,(4,2,4),(0.,0.50531006331767,1.),.UNSPECIFIED.);
#88=B_SPLINE_CURVE_WITH_KNOTS('',3,(#381,#382,#383,#384),.UNSPECIFIED.,
 .F.,.F.,(4,4),(0.,1.),.UNSPECIFIED.);
#89=B_SPLINE_CURVE_WITH_KNOTS('',3,(#386,#387,#388,#389),.UNSPECIFIED.,
 .F.,.F.,(4,4),(0.,1.),.UNSPECIFIED.);
#90=B_SPLINE_CURVE_WITH_KNOTS('',3,(#411,#412,#413,#414,#415,#416),
 .UNSPECIFIED.,.F.,.F.,(4,2,4),(0.,0.499865341680874,1.),.UNSPECIFIED.);
#91=B_SPLINE_CURVE_WITH_KNOTS('',3,(#420,#421,#422,#423,#424,#425),
 .UNSPECIFIED.,.F.,.F.,(4,2,4),(0.,0.500134567251939,1.),.UNSPECIFIED.);
#92=ELLIPSE('',#238,35.0480321099272,35.);
#93=ELLIPSE('',#239,1507.23236546923,35.);
#94=ELLIPSE('',#241,2005.45409744926,35.);
#95=ELLIPSE('',#242,2005.45409744926,35.);
#96=ELLIPSE('',#244,1506.5577394458,35.);
#97=ELLIPSE('',#253,35.5388599592789,35.4900957525099);
#98=FACE_BOUND('',#106,.T.);
#99=FACE_BOUND('',#107,.T.);
#100=FACE_BOUND('',#109,.T.);
#101=FACE_BOUND('',#110,.T.);
#102=FACE_BOUND('',#120,.T.);
#103=FACE_BOUND('',#121,.T.);
#104=FACE_BOUND('',#122,.T.);
#105=FACE_BOUND('',#123,.T.);
#106=EDGE_LOOP('',(#124));
#107=EDGE_LOOP('',(#125,#126,#127,#128,#129,#130,#131,#132));
#108=EDGE_LOOP('',(#133,#134,#135,#136));
#109=EDGE_LOOP('',(#137));
#110=EDGE_LOOP('',(#138,#139,#140,#141,#142,#143,#144,#145));
#111=EDGE_LOOP('',(#146,#147,#148,#149));
#112=EDGE_LOOP('',(#150,#151,#152,#153));
#113=EDGE_LOOP('',(#154,#155,#156,#157));
#114=EDGE_LOOP('',(#158,#159,#160,#161));
#115=EDGE_LOOP('',(#162,#163,#164,#165));
#116=EDGE_LOOP('',(#166,#167,#168,#169));
#117=EDGE_LOOP('',(#170,#171,#172,#173));
#118=EDGE_LOOP('',(#174));
#119=EDGE_LOOP('',(#175));
#120=EDGE_LOOP('',(#176));
#121=EDGE_LOOP('',(#177));
#122=EDGE_LOOP('',(#178));
#123=EDGE_LOOP('',(#179));
#124=ORIENTED_EDGE('',*,*,#200,.T.);
#125=ORIENTED_EDGE('',*,*,#201,.T.);
#126=ORIENTED_EDGE('',*,*,#202,.T.);
#127=ORIENTED_EDGE('',*,*,#203,.T.);
#128=ORIENTED_EDGE('',*,*,#204,.T.);
#129=ORIENTED_EDGE('',*,*,#205,.T.);
#130=ORIENTED_EDGE('',*,*,#206,.T.);
#131=ORIENTED_EDGE('',*,*,#207,.T.);
#132=ORIENTED_EDGE('',*,*,#208,.T.);
#133=ORIENTED_EDGE('',*,*,#209,.T.);
#134=ORIENTED_EDGE('',*,*,#210,.T.);
#135=ORIENTED_EDGE('',*,*,#211,.T.);
#136=ORIENTED_EDGE('',*,*,#212,.T.);
#137=ORIENTED_EDGE('',*,*,#213,.T.);
#138=ORIENTED_EDGE('',*,*,#207,.F.);
#139=ORIENTED_EDGE('',*,*,#214,.F.);
#140=ORIENTED_EDGE('',*,*,#211,.F.);
#141=ORIENTED_EDGE('',*,*,#215,.T.);
#142=ORIENTED_EDGE('',*,*,#203,.F.);
#143=ORIENTED_EDGE('',*,*,#216,.T.);
#144=ORIENTED_EDGE('',*,*,#217,.F.);
#145=ORIENTED_EDGE('',*,*,#218,.T.);
#146=ORIENTED_EDGE('',*,*,#206,.F.);
#147=ORIENTED_EDGE('',*,*,#219,.F.);
#148=ORIENTED_EDGE('',*,*,#212,.F.);
#149=ORIENTED_EDGE('',*,*,#214,.T.);
#150=ORIENTED_EDGE('',*,*,#204,.F.);
#151=ORIENTED_EDGE('',*,*,#215,.F.);
#152=ORIENTED_EDGE('',*,*,#210,.F.);
#153=ORIENTED_EDGE('',*,*,#220,.T.);
#154=ORIENTED_EDGE('',*,*,#205,.F.);
#155=ORIENTED_EDGE('',*,*,#220,.F.);
#156=ORIENTED_EDGE('',*,*,#209,.F.);
#157=ORIENTED_EDGE('',*,*,#219,.T.);
#158=ORIENTED_EDGE('',*,*,#217,.T.);
#159=ORIENTED_EDGE('',*,*,#221,.T.);
#160=ORIENTED_EDGE('',*,*,#222,.T.);
#161=ORIENTED_EDGE('',*,*,#223,.T.);
#162=ORIENTED_EDGE('',*,*,#201,.F.);
#163=ORIENTED_EDGE('',*,*,#224,.F.);
#164=ORIENTED_EDGE('',*,*,#222,.F.);
#165=ORIENTED_EDGE('',*,*,#225,.F.);
#166=ORIENTED_EDGE('',*,*,#208,.F.);
#167=ORIENTED_EDGE('',*,*,#218,.F.);
#168=ORIENTED_EDGE('',*,*,#223,.F.);
#169=ORIENTED_EDGE('',*,*,#224,.T.);
#170=ORIENTED_EDGE('',*,*,#202,.F.);
#171=ORIENTED_EDGE('',*,*,#225,.T.);
#172=ORIENTED_EDGE('',*,*,#221,.F.);
#173=ORIENTED_EDGE('',*,*,#216,.F.);
#174=ORIENTED_EDGE('',*,*,#226,.T.);
#175=ORIENTED_EDGE('',*,*,#227,.T.);
#176=ORIENTED_EDGE('',*,*,#213,.F.);
#177=ORIENTED_EDGE('',*,*,#227,.F.);
#178=ORIENTED_EDGE('',*,*,#200,.F.);
#179=ORIENTED_EDGE('',*,*,#226,.F.);
#180=VERTEX_POINT('',#328);
#181=VERTEX_POINT('',#330);
#182=VERTEX_POINT('',#331);
#183=VERTEX_POINT('',#333);
#184=VERTEX_POINT('',#335);
#185=VERTEX_POINT('',#337);
#186=VERTEX_POINT('',#342);
#187=VERTEX_POINT('',#344);
#188=VERTEX_POINT('',#346);
#189=VERTEX_POINT('',#353);
#190=VERTEX_POINT('',#354);
#191=VERTEX_POINT('',#361);
#192=VERTEX_POINT('',#363);
#193=VERTEX_POINT('',#372);
#194=VERTEX_POINT('',#376);
#195=VERTEX_POINT('',#378);
#196=VERTEX_POINT('',#417);
#197=VERTEX_POINT('',#419);
#198=VERTEX_POINT('',#433);
#199=VERTEX_POINT('',#436);
#200=EDGE_CURVE('',#180,#180,#228,.T.);
#201=EDGE_CURVE('',#181,#182,#92,.T.);
#202=EDGE_CURVE('',#182,#183,#93,.T.);
#203=EDGE_CURVE('',#183,#184,#229,.T.);
#204=EDGE_CURVE('',#184,#185,#94,.T.);
#205=EDGE_CURVE('',#185,#186,#84,.T.);
#206=EDGE_CURVE('',#186,#187,#95,.T.);
#207=EDGE_CURVE('',#187,#188,#230,.T.);
#208=EDGE_CURVE('',#188,#181,#96,.T.);
#209=EDGE_CURVE('',#189,#190,#85,.T.);
#210=EDGE_CURVE('',#190,#191,#86,.T.);
#211=EDGE_CURVE('',#191,#192,#231,.T.);
#212=EDGE_CURVE('',#192,#189,#87,.T.);
#213=EDGE_CURVE('',#193,#193,#232,.T.);
#214=EDGE_CURVE('',#192,#187,#44,.T.);
#215=EDGE_CURVE('',#191,#184,#45,.T.);
#216=EDGE_CURVE('',#183,#194,#46,.T.);
#217=EDGE_CURVE('',#195,#194,#233,.T.);
#218=EDGE_CURVE('',#195,#188,#47,.T.);
#219=EDGE_CURVE('',#189,#186,#88,.T.);
#220=EDGE_CURVE('',#190,#185,#89,.T.);
#221=EDGE_CURVE('',#194,#196,#90,.T.);
#222=EDGE_CURVE('',#196,#197,#97,.T.);
#223=EDGE_CURVE('',#197,#195,#91,.T.);
#224=EDGE_CURVE('',#197,#181,#48,.T.);
#225=EDGE_CURVE('',#182,#196,#49,.T.);
#226=EDGE_CURVE('',#198,#198,#234,.T.);
#227=EDGE_CURVE('',#199,#199,#235,.T.);
#228=CIRCLE('',#237,35.);
#229=CIRCLE('',#240,35.);
#230=CIRCLE('',#243,35.);
#231=CIRCLE('',#246,35.8);
#232=CIRCLE('',#248,31.4);
#233=CIRCLE('',#249,35.8);
#234=CIRCLE('',#258,32.);
#235=CIRCLE('',#260,31.4);
#236=AXIS2_PLACEMENT_3D('',#326,#264,#265);
#237=AXIS2_PLACEMENT_3D('',#327,#266,#267);
#238=AXIS2_PLACEMENT_3D('',#329,#268,#269);
#239=AXIS2_PLACEMENT_3D('',#332,#270,#271);
#240=AXIS2_PLACEMENT_3D('',#334,#272,#273);
#241=AXIS2_PLACEMENT_3D('',#336,#274,#275);
#242=AXIS2_PLACEMENT_3D('',#343,#276,#277);
#243=AXIS2_PLACEMENT_3D('',#345,#278,#279);
#244=AXIS2_PLACEMENT_3D('',#347,#280,#281);
#245=AXIS2_PLACEMENT_3D('',#348,#282,#283);
#246=AXIS2_PLACEMENT_3D('',#362,#284,#285);
#247=AXIS2_PLACEMENT_3D('',#370,#286,#287);
#248=AXIS2_PLACEMENT_3D('',#371,#288,#289);
#249=AXIS2_PLACEMENT_3D('',#377,#293,#294);
#250=AXIS2_PLACEMENT_3D('',#380,#296,#297);
#251=AXIS2_PLACEMENT_3D('',#385,#298,#299);
#252=AXIS2_PLACEMENT_3D('',#390,#300,#301);
#253=AXIS2_PLACEMENT_3D('',#418,#302,#303);
#254=AXIS2_PLACEMENT_3D('',#426,#304,#305);
#255=AXIS2_PLACEMENT_3D('',#429,#308,#309);
#256=AXIS2_PLACEMENT_3D('',#430,#310,#311);
#257=AXIS2_PLACEMENT_3D('',#431,#312,#313);
#258=AXIS2_PLACEMENT_3D('',#432,#314,#315);
#259=AXIS2_PLACEMENT_3D('',#434,#316,#317);
#260=AXIS2_PLACEMENT_3D('',#435,#318,#319);
#261=AXIS2_PLACEMENT_3D('',#437,#320,#321);
#262=AXIS2_PLACEMENT_3D('',#438,#322,#323);
#263=AXIS2_PLACEMENT_3D('',#439,#324,#325);
#264=DIRECTION('',(0.,0.,1.));
#265=DIRECTION('',(1.,0.,0.));
#266=DIRECTION('',(0.,0.,-1.));
#267=DIRECTION('',(-1.,0.,0.));
#268=DIRECTION('',(-0.00818714731723381,0.051691613775053,0.998629534754574));
#269=DIRECTION('',(0.156220077042706,-0.98633474805104,0.0523359562429439));
#270=DIRECTION('',(-0.999592054384466,0.016628072653028,0.0232213697116993));
#271=DIRECTION('',(0.0232181574867427,-0.000386230770708497,0.999730347638158));
#272=DIRECTION('',(0.,0.,1.));
#273=DIRECTION('',(1.,0.,0.));
#274=DIRECTION('',(0.913406320244545,0.406674695114987,0.0174524064372835));
#275=DIRECTION('',(-0.0159435666257128,-0.00709853320789519,0.999847695156391));
#276=DIRECTION('',(-0.994370424866534,0.104512543076403,0.0174524064372835));
#277=DIRECTION('',(0.0173568003287446,-0.00182427322521174,0.999847695156391));
#278=DIRECTION('',(0.,0.,1.));
#279=DIRECTION('',(1.,0.,0.));
#280=DIRECTION('',(0.945431670447991,0.324991140595953,0.0232317680787163));
#281=DIRECTION('',(-0.0219699788663977,-0.00755215708743529,0.999730106054597));
#282=DIRECTION('',(0.,0.,1.));
#283=DIRECTION('',(-1.,0.,0.));
#284=DIRECTION('',(0.,0.,1.));
#285=DIRECTION('',(1.,0.,0.));
#286=DIRECTION('',(0.,0.,-1.));
#287=DIRECTION('',(1.,0.,-1.29391498445806E-15));
#288=DIRECTION('',(0.,0.,1.));
#289=DIRECTION('',(1.,0.,0.));
#290=DIRECTION('',(-0.104528463267653,-0.994521895368273,0.));
#291=DIRECTION('',(0.4067366430758,-0.913545457642601,0.));
#292=DIRECTION('',(0.0166325576614849,0.999861669445147,0.));
#293=DIRECTION('',(0.,0.,1.));
#294=DIRECTION('',(1.,0.,0.));
#295=DIRECTION('',(0.325078877416746,-0.945686905618064,0.));
#296=DIRECTION('',(0.,0.,1.));
#297=DIRECTION('',(-1.,0.,0.));
#298=DIRECTION('',(-0.994370424866534,0.104512543076403,0.0174524064372835));
#299=DIRECTION('',(0.104528463267654,0.994521895368273,-9.97465998686664E-18));
#300=DIRECTION('',(0.913406320244545,0.406674695114987,0.0174524064372835));
#301=DIRECTION('',(0.406736643075801,-0.913545457642601,1.17093834628434E-17));
#302=DIRECTION('',(0.00818714731723381,-0.051691613775053,-0.998629534754574));
#303=DIRECTION('',(-0.156220077042706,0.98633474805104,-0.0523359562429439));
#304=DIRECTION('',(0.,0.,-1.));
#305=DIRECTION('',(1.,0.,-1.29391498445806E-15));
#306=DIRECTION('',(0.323513237187986,-0.944817923857865,0.0515584728348688));
#307=DIRECTION('',(0.0154129431706602,0.998550892898217,-0.0515611818618533));
#308=DIRECTION('',(-0.00818714731723381,0.0516916137750529,0.998629534754574));
#309=DIRECTION('',(0.,0.998663005197089,-0.0516933462905926));
#310=DIRECTION('',(0.945431670447991,0.324991140595953,0.0232317680787163));
#311=DIRECTION('',(0.325078877416746,-0.945686905618064,3.90312782094782E-18));
#312=DIRECTION('',(-0.999592054384466,0.016628072653028,0.0232213697116993));
#313=DIRECTION('',(-0.0232245806483328,0.,-0.999730273050541));
#314=DIRECTION('',(0.,0.,1.));
#315=DIRECTION('',(-1.,0.,0.));
#316=DIRECTION('',(0.,0.,-1.));
#317=DIRECTION('',(1.,0.,0.));
#318=DIRECTION('',(0.,0.,-1.));
#319=DIRECTION('',(1.,0.,0.));
#320=DIRECTION('',(0.,0.,1.));
#321=DIRECTION('',(-1.,0.,0.));
#322=DIRECTION('',(0.,0.,-1.));
#323=DIRECTION('',(1.,0.,0.));
#324=DIRECTION('',(0.,0.,-1.));
#325=DIRECTION('',(-1.,0.,0.));
#326=CARTESIAN_POINT('',(0.,0.,0.));
#327=CARTESIAN_POINT('',(0.,0.,10.8));
#328=CARTESIAN_POINT('',(-35.,0.,10.8));
#329=CARTESIAN_POINT('',(0.,0.,5.67619849833287));
#330=CARTESIAN_POINT('',(-4.75713909856644,34.6752019114077,3.84232068914602));
#331=CARTESIAN_POINT('',(-6.19071251302712,34.448150582884,3.8423204616812));
#332=CARTESIAN_POINT('',(0.,0.,294.996265022012));
#333=CARTESIAN_POINT('',(-6.3548088576935,34.4182568469436,-3.2));
#334=CARTESIAN_POINT('',(0.,0.,-3.2));
#335=CARTESIAN_POINT('',(-7.93044190383876,34.0897065286552,-3.2));
#336=CARTESIAN_POINT('',(0.,0.,376.100429175204));
#337=CARTESIAN_POINT('',(-7.94790852761595,34.0856384718938,-2.19105602668952));
#338=CARTESIAN_POINT('',(-7.94790852761585,34.0856384718939,-2.19105602668931));
#339=CARTESIAN_POINT('',(-11.9105225452797,33.1616571368043,-0.161875075436196));
#340=CARTESIAN_POINT('',(-15.7129492197448,31.5471010552276,1.8421856582918));
#341=CARTESIAN_POINT('',(-19.1740791444679,29.2806196819958,3.72875748710982));
#342=CARTESIAN_POINT('',(-19.1740791444679,29.2806196819958,3.72875748710983));
#343=CARTESIAN_POINT('',(0.,0.,1271.53840486382));
#344=CARTESIAN_POINT('',(-19.3047228597835,29.1946514845948,-3.2));
#345=CARTESIAN_POINT('',(0.,0.,-3.2));
#346=CARTESIAN_POINT('',(-4.59175207806734,34.6974900079756,-3.2));
#347=CARTESIAN_POINT('',(0.,0.,295.321791047495));
#348=CARTESIAN_POINT('',(0.,0.,-31.68));
#349=CARTESIAN_POINT('',(-19.1068017321827,30.0107198583983,3.18980848129876));
#350=CARTESIAN_POINT('',(-15.7498895686009,32.2252351909296,1.32293995321327));
#351=CARTESIAN_POINT('',(-12.0810354514275,33.8361319550626,-0.663290630567482));
#352=CARTESIAN_POINT('',(-8.26310995978655,34.8151465778549,-2.69330804061562));
#353=CARTESIAN_POINT('',(-19.106801736676,30.0107198686863,3.18980816367891));
#354=CARTESIAN_POINT('',(-8.26310995893272,34.815146588892,-2.69330834248691));
#355=CARTESIAN_POINT('',(-8.26310995978654,34.8151465778549,-2.69330804061562));
#356=CARTESIAN_POINT('',(-8.26286887878393,34.8182629604841,-2.77854321276138));
#357=CARTESIAN_POINT('',(-8.2626277819806,34.8213793076779,-2.86377838615806));
#358=CARTESIAN_POINT('',(-8.26215000656812,34.8275544191878,-3.03267570599915));
#359=CARTESIAN_POINT('',(-8.26191332853639,34.8306131847989,-3.11633785239788));
#360=CARTESIAN_POINT('',(-8.26167663530297,34.8336719163181,-3.2));
#361=CARTESIAN_POINT('',(-8.26167663530297,34.8336719163181,-3.2));
#362=CARTESIAN_POINT('',(0.,0.,-3.2));
#363=CARTESIAN_POINT('',(-19.197199356469,30.2176692825239,-3.2));
#364=CARTESIAN_POINT('',(-19.197199356469,30.2176692825239,-3.2));
#365=CARTESIAN_POINT('',(-19.1819726987732,30.1828150159933,-2.12372171242113));
#366=CARTESIAN_POINT('',(-19.1667462323899,30.1479589385865,-1.04744348077763));
#367=CARTESIAN_POINT('',(-19.1366136976729,30.0789757336802,1.08249267769569));
#368=CARTESIAN_POINT('',(-19.121707621297,30.0448486823038,2.13615060688022));
#369=CARTESIAN_POINT('',(-19.1068017321827,30.0107198583983,3.18980848129878));
#370=CARTESIAN_POINT('',(0.,0.,-3.2));
#371=CARTESIAN_POINT('',(0.,0.,-3.2));
#372=CARTESIAN_POINT('',(31.4,0.,-3.2));
#373=CARTESIAN_POINT('',(-25.6424578552747,-31.104869076789,-3.2));
#374=CARTESIAN_POINT('',(5.96122476163745,2.88851234717631,-3.2));
#375=CARTESIAN_POINT('',(-6.34111301527065,35.241578680427,-3.2));
#376=CARTESIAN_POINT('',(-6.3412405225501,35.2339136150835,-3.2));
#377=CARTESIAN_POINT('',(0.,0.,-3.2));
#378=CARTESIAN_POINT('',(-4.85695782350141,35.4689999957812,-3.2));
#379=CARTESIAN_POINT('',(-4.85943125870893,35.4761954657122,-3.2));
#380=CARTESIAN_POINT('',(0.,-33.8,-3.2));
#381=CARTESIAN_POINT('',(-19.1068017321827,30.0107198583983,3.18980848129878));
#382=CARTESIAN_POINT('',(-19.1292095284726,29.7674925730477,3.36964913718592));
#383=CARTESIAN_POINT('',(-19.1516354520284,29.5241248803139,3.54929779178733));
#384=CARTESIAN_POINT('',(-19.1740791444679,29.2806196819958,3.72875748710984));
#385=CARTESIAN_POINT('',(-22.1043826057637,2.5576683135225,-3.2));
#386=CARTESIAN_POINT('',(-8.26310995978654,34.8151465778549,-2.69330804061562));
#387=CARTESIAN_POINT('',(-8.15804304851813,34.5719776954725,-2.52588985025435));
#388=CARTESIAN_POINT('',(-8.05297599791432,34.3288085220322,-2.3584721700787));
#389=CARTESIAN_POINT('',(-7.94790852761605,34.0856384718938,-2.19105602668973));
#390=CARTESIAN_POINT('',(5.96122476163745,2.88851234717631,-3.2));
#391=CARTESIAN_POINT('',(-6.19927020378563,30.6606447958867,0.0810638043324347));
#392=CARTESIAN_POINT('',(-6.24141705774063,30.650968486237,0.102538462890472));
#393=CARTESIAN_POINT('',(-6.28356391169564,30.6412921765873,0.12401312144851));
#394=CARTESIAN_POINT('',(-8.43305346340088,30.1478003844523,1.21922070790842));
#395=CARTESIAN_POINT('',(-10.5017344557057,29.4833252098375,2.28209558589294));
#396=CARTESIAN_POINT('',(-14.5070213882468,27.8123127974377,4.3541264723035));
#397=CARTESIAN_POINT('',(-16.4434329136581,26.8058032177429,5.36335142710136));
#398=CARTESIAN_POINT('',(-18.3511840878294,25.6049524346493,6.35989951088404));
#399=CARTESIAN_POINT('',(-18.4116196615212,25.5669107303762,6.39146911805834));
#400=CARTESIAN_POINT('',(-18.472055235213,25.5288690261031,6.42303872523263));
#401=CARTESIAN_POINT('',(-9.80628872549779,38.4066176620387,-5.16873327626809));
#402=CARTESIAN_POINT('',(-9.84455717382633,38.3975556978481,-5.14900652453295));
#403=CARTESIAN_POINT('',(-9.88282562215486,38.3884937336574,-5.12927977279782));
#404=CARTESIAN_POINT('',(-11.8345164869101,37.926333559934,-4.12321543430605));
#405=CARTESIAN_POINT('',(-13.7018432674144,37.2937464417328,-3.13828872536288));
#406=CARTESIAN_POINT('',(-17.272918880869,35.6915063460929,-1.20393635484974));
#407=CARTESIAN_POINT('',(-18.9767309090062,34.7218908833737,-0.254692541879226));
#408=CARTESIAN_POINT('',(-20.6144279533585,33.5637567308703,0.693676587838316));
#409=CARTESIAN_POINT('',(-20.6663084929954,33.5270682450414,0.723719935839912));
#410=CARTESIAN_POINT('',(-20.7181890326322,33.4903797592125,0.753763283841508));
#411=CARTESIAN_POINT('',(-6.3412405225501,35.2339136150835,-3.2));
#412=CARTESIAN_POINT('',(-6.31470460436781,35.1972274777992,-2.03145942449406));
#413=CARTESIAN_POINT('',(-6.28816897111776,35.1605249225108,-0.862919357840571));
#414=CARTESIAN_POINT('',(-6.23508398316983,35.0870668856314,1.47478933066415));
#415=CARTESIAN_POINT('',(-6.20853462877657,35.0503113861742,2.64395795219643));
#416=CARTESIAN_POINT('',(-6.18198556501824,35.0135391417111,3.81312605355275));
#417=CARTESIAN_POINT('',(-6.18198556501824,35.0135391417111,3.81312605355275));
#418=CARTESIAN_POINT('',(-0.0101606128112697,0.0641515845271813,5.67279454797286));
#419=CARTESIAN_POINT('',(-4.9403260699132,35.2101980539151,3.81312608626678));
#420=CARTESIAN_POINT('',(-4.9403260699132,35.2101980539151,3.81312608626678));
#421=CARTESIAN_POINT('',(-4.92643846549592,35.2533747887932,2.64395819228762));
#422=CARTESIAN_POINT('',(-4.91254540441914,35.2965356868865,1.47478977816198));
#423=CARTESIAN_POINT('',(-4.88475594955198,35.3828028865183,-0.862918921246366));
#424=CARTESIAN_POINT('',(-4.87085956157449,35.4259092049443,-2.03145920621061));
#425=CARTESIAN_POINT('',(-4.85695782350141,35.4689999957812,-3.2));
#426=CARTESIAN_POINT('',(0.,0.,-3.2));
#427=CARTESIAN_POINT('',(-5.129847360288,35.7636935264813,3.78292197967023));
#428=CARTESIAN_POINT('',(-6.17294702921089,35.5991143885013,3.7828892854438));
#429=CARTESIAN_POINT('',(-5.60035384844027,35.3592425933059,3.8));
#430=CARTESIAN_POINT('',(-4.85981989412454,35.4760618726976,-3.18231538921242));
#431=CARTESIAN_POINT('',(-6.34091651502435,35.2415754116731,-3.19153906766047));
#432=CARTESIAN_POINT('',(0.,0.,13.8));
#433=CARTESIAN_POINT('',(-32.,0.,13.8));
#434=CARTESIAN_POINT('',(0.,-35.,13.8));
#435=CARTESIAN_POINT('',(0.,0.,8.7));
#436=CARTESIAN_POINT('',(31.4,0.,8.7));
#437=CARTESIAN_POINT('',(0.,0.,8.7));
#438=CARTESIAN_POINT('',(0.,0.,8.7));
#439=CARTESIAN_POINT('',(0.,0.,10.8));
#440=MECHANICAL_DESIGN_GEOMETRIC_PRESENTATION_REPRESENTATION('',(#24),#441);
#441=(
GEOMETRIC_REPRESENTATION_CONTEXT(3)
GLOBAL_UNCERTAINTY_ASSIGNED_CONTEXT((#442))
GLOBAL_UNIT_ASSIGNED_CONTEXT((#448,#444,#443))
REPRESENTATION_CONTEXT('Cap_AuerSignal','TOP_LEVEL_ASSEMBLY_PART')
);
#442=UNCERTAINTY_MEASURE_WITH_UNIT(LENGTH_MEASURE(0.0508),#448,
'DISTANCE_ACCURACY_VALUE','Maximum Tolerance applied to model');
#443=(
NAMED_UNIT(*)
SI_UNIT($,.STERADIAN.)
SOLID_ANGLE_UNIT()
);
#444=(
CONVERSION_BASED_UNIT('DEGREE',#446)
NAMED_UNIT(#445)
PLANE_ANGLE_UNIT()
);
#445=DIMENSIONAL_EXPONENTS(0.,0.,0.,0.,0.,0.,0.);
#446=PLANE_ANGLE_MEASURE_WITH_UNIT(PLANE_ANGLE_MEASURE(0.0174532925),#447);
#447=(
NAMED_UNIT(*)
PLANE_ANGLE_UNIT()
SI_UNIT($,.RADIAN.)
);
#448=(
LENGTH_UNIT()
NAMED_UNIT(*)
SI_UNIT(.MILLI.,.METRE.)
);
ENDSEC;
END-ISO-10303-21;
